  0
SECTION
  2
HEADER
  9
$ACADVER
  1
AC1009
  9
$INSBASE
 10
31.4573544131155316
 20
-5.7011568076115866
 30
0.0
  9
$EXTMIN
 10
24.8826609859012606
 20
-5.7102178159529506
 30
0.0
  9
$EXTMAX
 10
38.0320478403298097
 20
11.6545963220773796
 30
0.0
  9
$LIMMIN
 10
0.0
 20
0.0
  9
$LIMMAX
 10
11.6929133858000007
 20
8.2677165353999982
  9
$ORTHOMODE
 70
     1
  9
$REGENMODE
 70
     1
  9
$FILLMODE
 70
     1
  9
$QTEXTMODE
 70
     0
  9
$MIRRTEXT
 70
     0
  9
$DRAGMODE
 70
     2
  9
$LTSCALE
 40
0.6431102362
  9
$OSMODE
 70
  4095
  9
$ATTMODE
 70
     1
  9
$TEXTSIZE
 40
0.2
  9
$TRACEWID
 40
0.05
  9
$TEXTSTYLE
  7
STANDARD
  9
$CLAYER
  8
0
  9
$CELTYPE
  6
BYLAYER
  9
$CECOLOR
 62
   256
  9
$DIMSCALE
 40
1.0
  9
$DIMASZ
 40
0.1875
  9
$DIMEXO
 40
0.0625
  9
$DIMDLI
 40
0.4443307087
  9
$DIMRND
 40
0.0
  9
$DIMDLE
 40
0.0
  9
$DIMEXE
 40
0.125
  9
$DIMTP
 40
0.0
  9
$DIMTM
 40
0.0
  9
$DIMTXT
 40
1.0
  9
$DIMCEN
 40
0.1052362205
  9
$DIMTSZ
 40
0.0
  9
$DIMTOL
 70
     0
  9
$DIMLIM
 70
     0
  9
$DIMTIH
 70
     1
  9
$DIMTOH
 70
     1
  9
$DIMSE1
 70
     0
  9
$DIMSE2
 70
     0
  9
$DIMTAD
 70
     0
  9
$DIMZIN
 70
     0
  9
$DIMBLK
  1

  9
$DIMASO
 70
     1
  9
$DIMSHO
 70
     1
  9
$DIMPOST
  1
\X
  9
$DIMAPOST
  1

  9
$DIMALT
 70
     1
  9
$DIMALTD
 70
     2
  9
$DIMALTF
 40
25.3999999999999986
  9
$DIMLFAC
 40
1.0
  9
$DIMTOFL
 70
     0
  9
$DIMTVP
 40
0.0
  9
$DIMTIX
 70
     0
  9
$DIMSOXD
 70
     0
  9
$DIMSAH
 70
     0
  9
$DIMBLK1
  1

  9
$DIMBLK2
  1

  9
$DIMSTYLE
  2
STANDARD
  9
$DIMCLRD
 70
     0
  9
$DIMCLRE
 70
     0
  9
$DIMCLRT
 70
     0
  9
$DIMTFAC
 40
1.0
  9
$DIMGAP
 40
0.09
  9
$LUNITS
 70
     4
  9
$LUPREC
 70
     4
  9
$SKETCHINC
 40
0.1
  9
$FILLETRAD
 40
0.0
  9
$AUNITS
 70
     0
  9
$AUPREC
 70
     2
  9
$MENU
  1
.
  9
$ELEVATION
 40
0.0
  9
$PELEVATION
 40
0.0
  9
$THICKNESS
 40
0.0
  9
$LIMCHECK
 70
     0
  9
$BLIPMODE
 70
     0
  9
$CHAMFERA
 40
0.0
  9
$CHAMFERB
 40
0.0
  9
$SKPOLY
 70
     0
  9
$TDCREATE
 40
2458127.4807175928726792
  9
$TDUPDATE
 40
2458726.8953009261749685
  9
$TDINDWG
 40
0.06211125
  9
$TDUSRTIMER
 40
0.06211125
  9
$USRTIMER
 70
     1
  9
$ANGBASE
 50
0.0
  9
$ANGDIR
 70
     0
  9
$PDMODE
 70
     0
  9
$PDSIZE
 40
0.3125
  9
$PLINEWID
 40
0.0
  9
$COORDS
 70
     1
  9
$SPLFRAME
 70
     0
  9
$SPLINETYPE
 70
     6
  9
$SPLINESEGS
 70
     8
  9
$ATTDIA
 70
     1
  9
$ATTREQ
 70
     1
  9
$HANDLING
 70
     1
  9
$HANDSEED
  5
1587
  9
$SURFTAB1
 70
     6
  9
$SURFTAB2
 70
     6
  9
$SURFTYPE
 70
     6
  9
$SURFU
 70
     6
  9
$SURFV
 70
     6
  9
$UCSNAME
  2

  9
$UCSORG
 10
0.0
 20
0.0
 30
0.0
  9
$UCSXDIR
 10
1.0
 20
0.0
 30
0.0
  9
$UCSYDIR
 10
0.0
 20
1.0
 30
0.0
  9
$PUCSNAME
  2

  9
$PUCSORG
 10
0.0
 20
0.0
 30
0.0
  9
$PUCSXDIR
 10
1.0
 20
0.0
 30
0.0
  9
$PUCSYDIR
 10
0.0
 20
1.0
 30
0.0
  9
$USERI1
 70
     0
  9
$USERI2
 70
     0
  9
$USERI3
 70
     0
  9
$USERI4
 70
     0
  9
$USERI5
 70
     0
  9
$USERR1
 40
0.0
  9
$USERR2
 40
0.0
  9
$USERR3
 40
0.0
  9
$USERR4
 40
0.0
  9
$USERR5
 40
0.0
  9
$WORLDVIEW
 70
     1
  9
$SHADEDGE
 70
     3
  9
$SHADEDIF
 70
    70
  9
$TILEMODE
 70
     1
  9
$MAXACTVP
 70
    48
  9
$PLIMCHECK
 70
     0
  9
$PEXTMIN
 10
1.0000000000000000E+20
 20
1.0000000000000000E+20
 30
1.0000000000000000E+20
  9
$PEXTMAX
 10
-1.0000000000000000E+20
 20
-1.0000000000000000E+20
 30
-1.0000000000000000E+20
  9
$PLIMMIN
 10
0.0
 20
0.0
  9
$PLIMMAX
 10
12.0
 20
9.0
  9
$UNITMODE
 70
     0
  9
$VISRETAIN
 70
     1
  9
$PLINEGEN
 70
     0
  9
$PSLTSCALE
 70
     1
  0
ENDSEC
  0
SECTION
  2
TABLES
  0
TABLE
  2
VPORT
 70
     1
  0
VPORT
  2
*ACTIVE
 70
     0
 10
0.0
 20
0.0
 11
1.0
 21
1.0
 12
0.0
 22
0.0
 13
0.0
 23
0.0
 14
1.0
 24
1.0
 15
0.0
 25
0.0
 16
-0.0000000000000142
 26
0.0
 36
62.2866544145104584
 17
31.4573535919189489
 27
2.9716599671455941
 37
0.0
 40
21.7832856016528105
 41
2.1433408577878099
 42
50.0
 43
0.0
 44
0.0
 50
0.0
 51
0.0
 71
     0
 72
   100
 73
     1
 74
     1
 75
     0
 76
     0
 77
     0
 78
     0
  0
ENDTAB
  0
TABLE
  2
LTYPE
 70
     2
  0
LTYPE
  2
CONTINUOUS
 70
     0
  3
Solid line
 72
    65
 73
     0
 40
0.0
  0
LTYPE
  2
PHANTOM2
 70
     0
  3
___ _ _ ___ _ _ ___ _ _ ___ _ _
 72
    65
 73
     6
 40
1.25
 49
0.625
 49
-0.125
 49
0.125
 49
-0.125
 49
0.125
 49
-0.125
  0
ENDTAB
  0
TABLE
  2
LAYER
 70
     2
  0
LAYER
  2
0
 70
     0
 62
     7
  6
CONTINUOUS
  0
LAYER
  2
DEFPOINTS
 70
     0
 62
     7
  6
CONTINUOUS
  0
ENDTAB
  0
TABLE
  2
STYLE
 70
     1
  0
STYLE
  2
STANDARD
 70
     0
 40
0.0
 41
0.8
 50
0.0
 71
     0
 42
0.2
  3
txt
  4

  0
ENDTAB
  0
TABLE
  2
VIEW
 70
     0
  0
ENDTAB
  0
TABLE
  2
UCS
 70
     0
  0
ENDTAB
  0
TABLE
  2
APPID
 70
    14
  0
APPID
  2
ACAD
 70
     0
  0
APPID
  2
ACAD_MLEADERVER
 70
     0
  0
APPID
  2
ACAD_EXEMPT_FROM_CAD_STANDARDS
 70
     0
  0
APPID
  2
ACAD_NAV_VCDISPLAY
 70
     0
  0
APPID
  2
AEC_MEMBER_STYLE_AUTOTRIM_XDATA
 70
     0
  0
APPID
  2
ACAD_DSTYLE_DIMJAG
 70
     0
  0
APPID
  2
ACAD_DSTYLE_DIMTALN
 70
     0
  0
APPID
  2
AECBASE
 70
     0
  0
APPID
  2
ACAD_PSEXT
 70
     0
  0
APPID
  2
AEC_OBJVER_INFO
 70
     0
  0
APPID
  2
ACADANNOAV
 70
     0
  0
APPID
  2
ACADANNOTATIVE
 70
     0
  0
APPID
  2
ACDBATTR
 70
     0
  0
APPID
  2
MANULPOINTSASSOCIATIVE
 70
     0
  0
ENDTAB
  0
TABLE
  2
DIMSTYLE
 70
     1
  0
DIMSTYLE
  2
STANDARD
 70
     0
  3

  4

  5

  6

  7

 40
1.0
 41
0.1875
 42
0.0625
 43
0.38
 44
0.125
 45
0.0
 46
0.0
 47
1.5
 48
1.5
140
0.15625
141
0.09
142
0.0
143
25.3999999999999986
144
1.0
145
0.0
146
1.0
147
0.09
 71
     0
 72
     0
 73
     1
 74
     1
 75
     0
 76
     0
 77
     0
 78
     4
170
     0
171
     2
172
     0
173
     0
174
     0
175
     0
176
     0
177
     0
178
     0
  0
ENDTAB
  0
ENDSEC
  0
SECTION
  2
BLOCKS
  0
BLOCK
  8
0
  2
$MODEL_SPACE
 70
     0
 10
0.0
 20
0.0
 30
0.0
  3
$MODEL_SPACE
  1

  0
ENDBLK
  5
21
  8
0
  0
BLOCK
 67
     1
  8
0
  2
$PAPER_SPACE
 70
     0
 10
0.0
 20
0.0
 30
0.0
  3
$PAPER_SPACE
  1

  0
ENDBLK
  5
1D
 67
     1
  8
0
  0
ENDSEC
  0
SECTION
  2
ENTITIES
  0
ARC
  5
932
  8
0
 10
31.4573538488243791
 20
-19.2760143383624403
 30
0.0
 40
30.9306106604398288
 50
80.0460744671232476
 51
99.9538931509842854
  0
ARC
  5
933
  8
0
 10
27.0889449277043894
 20
5.616159926062827
 30
0.0
 40
5.658029944227728
 50
99.9549105491002337
 51
107.7677787838028962
  0
ARC
  5
934
  8
0
 10
25.4930038145030586
 20
10.4167379717932693
 30
0.0
 40
0.6019232512793256
 50
102.5372667910533977
 51
177.3853808886904062
  0
ARC
  5
935
  8
0
 10
26.37781099407173
 20
10.2799739497227396
 30
0.0
 40
1.4951500081704709
 50
173.6940925052626028
 51
194.482714778608198
  0
ARC
  5
936
  8
0
 10
5.9873283265882922
 20
6.1130943315500934
 30
0.0
 40
19.3188478823516689
 50
6.4098273908757699
 51
11.3227050021806406
  0
ARC
  5
97D
  8
0
 10
-330.3277381271503259
 20
-5.0784335206575077
 30
0.0
 40
355.7636502220884722
 50
359.9399266125907957
 51
2.1502455620502272
  0
ARC
  5
97E
  8
0
 10
25.681787432832401
 20
-5.4550902622938491
 30
0.0
 40
0.2460978988096094
 50
179.1510468134443954
 51
269.0853998964204266
  0
LINE
  5
97F
  8
0
 10
25.6778591922719599
 20
-5.7011568076115884
 30
0.0
 11
27.3252927725873498
 21
-5.7011568076115866
 31
0.0
  0
ARC
  5
980
  8
0
 10
27.3252000675922311
 20
-5.4511565874748458
 30
0.0
 40
0.2500002373251573
 50
270.0212464001572243
 51
356.5788568112885741
  0
ARC
  5
981
  8
0
 10
31.1953425902243389
 20
-5.5658747712087671
 30
0.0
 40
3.6219630144430011
 50
86.3754078367961569
 51
178.4210735828579004
  0
ARC
  5
982
  8
0
 10
35.8257753289607095
 20
5.6162002812102712
 30
0.0
 40
5.6579880258653032
 50
72.2322067397807643
 51
80.0449670468429844
  0
ARC
  5
983
  8
0
 10
37.4217050117280223
 20
10.4167379717932693
 30
0.0
 40
0.6019232512793256
 50
2.6146191113095392
 51
77.462733208946446
  0
ARC
  5
984
  8
0
 10
36.5368978321593403
 20
10.2799739497227396
 30
0.0
 40
1.4951500081704709
 50
345.5172852213917736
 51
6.3059074947373928
  0
ARC
  5
985
  8
0
 10
56.9273804996427799
 20
6.1130943315500934
 30
0.0
 40
19.3188478823516689
 50
168.6772949978193026
 51
173.5901726091242097
  0
ARC
  5
986
  8
0
 10
393.2424469533813181
 20
-5.0784335206575077
 30
0.0
 40
355.7636502220884722
 50
177.8497544379497981
 51
180.0600733874092043
  0
ARC
  5
987
  8
0
 10
37.2329213933986622
 20
-5.4550902622938411
 30
0.0
 40
0.246097898809621
 50
270.9146001035837799
 51
0.8489531865536863
  0
LINE
  5
988
  8
0
 10
37.2368496339591104
 20
-5.7011568076115866
 30
0.0
 11
35.5894160536437312
 21
-5.7011568076115866
 31
0.0
  0
ARC
  5
989
  8
0
 10
35.5895087586388428
 20
-5.4511565874748431
 30
0.0
 40
0.250000237325161
 50
183.421143188711909
 51
269.9787535998419798
  0
ARC
  5
98A
  8
0
 10
31.7193662360067314
 20
-5.5658747712087671
 30
0.0
 40
3.6219630144430011
 50
1.5789264171420969
 51
93.6245921632039284
  0
LINE
  5
98B
  8
0
 10
31.4243190390000002
 20
-1.9511568204000009
 30
0.0
 11
31.4903897872310701
 21
-1.9511568204000009
 31
0.0
  0
ARC
  5
9CD
  8
0
 10
26.4084158616252189
 20
6.1880506596067901
 30
0.0
 40
4.5183162832761257
 50
95.3129056424803451
 51
109.6138972435726942
  0
ARC
  5
9CE
  8
0
 10
32.2781063989155825
 20
-27.6665327908349816
 30
0.0
 40
38.8655350884493274
 50
97.3665243521158033
 51
99.3108222342620763
  0
ARC
  5
9CF
  8
0
 10
31.4573544391150612
 20
-21.5406128219260395
 30
0.0
 40
32.6849557477461801
 50
82.6834977558033586
 51
97.3165022455908968
  0
ARC
  5
A53
  8
0
 10
27.3487250446767192
 20
-5.48951133941818
 30
0.0
 40
0.4878100308014565
 50
175.8520370279318001
 51
205.7133263386247961
  0
LINE
  5
A54
  8
0
 10
26.8621927921999983
 20
-5.4542268746999998
 30
0.0
 11
26.9357447477224703
 21
2.9769962082625669
 31
0.0
  0
ARC
  5
A55
  8
0
 10
66.1987750950186751
 20
2.8348790341361378
 30
0.0
 40
39.2632875513995216
 50
174.7454171744772111
 51
179.7926120668458907
  0
ARC
  5
A57
  8
0
 10
31.1679739234572786
 20
6.2421859842407939
 30
0.0
 40
4.0718508856407976
 50
141.1804831254422083
 51
177.3469888704127868
  0
ARC
  5
A58
  8
0
 10
31.0049832888020198
 20
6.7613392398116989
 30
0.0
 40
3.6320229769930812
 50
89.0895703406501411
 51
145.955017454712106
  0
ARC
  5
A59
  8
0
 10
31.4597484730747787
 20
-2.875026148936362
 30
0.0
 40
13.2738696291066596
 50
88.3065643972382759
 51
91.71411638055271
  0
ARC
  5
A5A
  8
0
 10
36.5063093171236517
 20
6.1880506596067901
 30
0.0
 40
4.5183162832761257
 50
70.3861027564274622
 51
84.6870943575197259
  0
ARC
  5
A5B
  8
0
 10
30.6377323396550203
 20
-27.6593601254173613
 30
0.0
 40
38.858276758608298
 50
80.6890869698048334
 51
82.6337718471415741
  0
ARC
  5
A5C
  8
0
 10
35.5660001340721621
 20
-5.48951133941818
 30
0.0
 40
0.4878100308014565
 50
334.2866736613751186
 51
4.1479629720682007
  0
LINE
  5
A5D
  8
0
 10
36.0525323865488829
 20
-5.4542268746999998
 30
0.0
 11
35.9789804310264003
 21
2.9769962082625669
 31
0.0
  0
ARC
  5
A5E
  8
0
 10
-3.2840499162698
 20
2.8348790341361378
 30
0.0
 40
39.2632875513995216
 50
0.2073879331541268
 51
5.2545828255227569
  0
ARC
  5
A5F
  8
0
 10
31.7467512552915991
 20
6.2421859842408089
 30
0.0
 40
4.0718508856407798
 50
2.6530111295869592
 51
38.8195168745576566
  0
ARC
  5
A60
  8
0
 10
31.9093355827940215
 20
6.7608838296342952
 30
0.0
 40
3.6326146039752829
 50
34.047346600051263
 51
90.9041447351370238
  0
ATTDEF
  5
1135
  8
DEFPOINTS
 10
31.4544121368336995
 20
-5.7102178159529506
 30
0.0
 40
0.001
  1
FREESTANDING SEAT
  3

  2
PRODUCT
 70
     0
1001
ACDBATTR
1070
     0
1070
     1
  0
ATTDEF
  5
1136
  8
DEFPOINTS
 10
31.4544121368336995
 20
-5.7085511492862793
 30
0.0
 40
0.001
  1
ACCORD
  3

  2
TRADENAME
 70
     0
1001
ACDBATTR
1070
     0
1070
     1
  0
ATTDEF
  5
1137
  8
DEFPOINTS
 10
31.4544121368336995
 20
-5.7068844826196141
 30
0.0
 40
0.001
  1
72186104
  3

  2
MODELNUMBER
 70
     0
1001
ACDBATTR
1070
     0
1070
     1
  0
ENDSEC
  0
EOF
