  0
SECTION
  2
HEADER
  9
$ACADVER
  1
AC1009
  9
$INSBASE
 10
241.75622628482219
 20
101.3969197074
 30
0.0
  9
$EXTMIN
 10
211.7418629970222
 20
68.146919707400002
 30
0.0
  9
$EXTMAX
 10
271.77058957262221
 20
101.4034868564608
 30
0.0
  9
$LIMMIN
 10
0.0
 20
0.0
  9
$LIMMAX
 10
11.692913385800001
 20
8.2677165353999982
  9
$ORTHOMODE
 70
     0
  9
$REGENMODE
 70
     1
  9
$FILLMODE
 70
     1
  9
$QTEXTMODE
 70
     0
  9
$MIRRTEXT
 70
     0
  9
$DRAGMODE
 70
     2
  9
$LTSCALE
 40
0.6431102362
  9
$OSMODE
 70
  3071
  9
$ATTMODE
 70
     1
  9
$TEXTSIZE
 40
0.2
  9
$TRACEWID
 40
0.05
  9
$TEXTSTYLE
  7
STANDARD
  9
$CLAYER
  8
0
  9
$CELTYPE
  6
BYLAYER
  9
$CECOLOR
 62
   256
  9
$DIMSCALE
 40
1.0
  9
$DIMASZ
 40
0.1875
  9
$DIMEXO
 40
0.0625
  9
$DIMDLI
 40
0.4443307087
  9
$DIMRND
 40
0.0
  9
$DIMDLE
 40
0.0
  9
$DIMEXE
 40
0.125
  9
$DIMTP
 40
0.01
  9
$DIMTM
 40
0.01
  9
$DIMTXT
 40
1.0
  9
$DIMCEN
 40
0.1052362205
  9
$DIMTSZ
 40
0.0
  9
$DIMTOL
 70
     1
  9
$DIMLIM
 70
     0
  9
$DIMTIH
 70
     1
  9
$DIMTOH
 70
     1
  9
$DIMSE1
 70
     0
  9
$DIMSE2
 70
     0
  9
$DIMTAD
 70
     0
  9
$DIMZIN
 70
     0
  9
$DIMBLK
  1

  9
$DIMASO
 70
     1
  9
$DIMSHO
 70
     1
  9
$DIMPOST
  1
\X
  9
$DIMAPOST
  1

  9
$DIMALT
 70
     1
  9
$DIMALTD
 70
     2
  9
$DIMALTF
 40
25.399999999999999
  9
$DIMLFAC
 40
1.0
  9
$DIMTOFL
 70
     0
  9
$DIMTVP
 40
0.0
  9
$DIMTIX
 70
     0
  9
$DIMSOXD
 70
     0
  9
$DIMSAH
 70
     0
  9
$DIMBLK1
  1

  9
$DIMBLK2
  1

  9
$DIMSTYLE
  2
STANDARD
  9
$DIMCLRD
 70
     0
  9
$DIMCLRE
 70
     0
  9
$DIMCLRT
 70
     0
  9
$DIMTFAC
 40
1.0
  9
$DIMGAP
 40
0.09
  9
$LUNITS
 70
     2
  9
$LUPREC
 70
     4
  9
$SKETCHINC
 40
0.1
  9
$FILLETRAD
 40
0.0
  9
$AUNITS
 70
     0
  9
$AUPREC
 70
     0
  9
$MENU
  1
.
  9
$ELEVATION
 40
0.0
  9
$PELEVATION
 40
0.0
  9
$THICKNESS
 40
0.0
  9
$LIMCHECK
 70
     0
  9
$BLIPMODE
 70
     0
  9
$CHAMFERA
 40
0.0
  9
$CHAMFERB
 40
0.0
  9
$SKPOLY
 70
     0
  9
$TDCREATE
 40
2458144.6983769219
  9
$TDUPDATE
 40
2458148.5951881022
  9
$TDINDWG
 40
0.1689274769
  9
$TDUSRTIMER
 40
0.1689274769
  9
$USRTIMER
 70
     1
  9
$ANGBASE
 50
0.0
  9
$ANGDIR
 70
     0
  9
$PDMODE
 70
     0
  9
$PDSIZE
 40
0.3125
  9
$PLINEWID
 40
0.0
  9
$COORDS
 70
     1
  9
$SPLFRAME
 70
     0
  9
$SPLINETYPE
 70
     6
  9
$SPLINESEGS
 70
     8
  9
$ATTDIA
 70
     1
  9
$ATTREQ
 70
     1
  9
$HANDLING
 70
     1
  9
$HANDSEED
  5
2F0E
  9
$SURFTAB1
 70
     6
  9
$SURFTAB2
 70
     6
  9
$SURFTYPE
 70
     6
  9
$SURFU
 70
     6
  9
$SURFV
 70
     6
  9
$UCSNAME
  2

  9
$UCSORG
 10
0.0
 20
0.0
 30
0.0
  9
$UCSXDIR
 10
1.0
 20
0.0
 30
0.0
  9
$UCSYDIR
 10
0.0
 20
1.0
 30
0.0
  9
$PUCSNAME
  2

  9
$PUCSORG
 10
0.0
 20
0.0
 30
0.0
  9
$PUCSXDIR
 10
1.0
 20
0.0
 30
0.0
  9
$PUCSYDIR
 10
0.0
 20
1.0
 30
0.0
  9
$USERI1
 70
     0
  9
$USERI2
 70
     0
  9
$USERI3
 70
     0
  9
$USERI4
 70
     0
  9
$USERI5
 70
     0
  9
$USERR1
 40
0.0
  9
$USERR2
 40
0.0
  9
$USERR3
 40
0.0
  9
$USERR4
 40
0.0
  9
$USERR5
 40
0.0
  9
$WORLDVIEW
 70
     1
  9
$SHADEDGE
 70
     3
  9
$SHADEDIF
 70
    70
  9
$TILEMODE
 70
     1
  9
$MAXACTVP
 70
    64
  9
$PLIMCHECK
 70
     0
  9
$PEXTMIN
 10
1.0000000000000000E+020
 20
1.0000000000000000E+020
 30
1.0000000000000000E+020
  9
$PEXTMAX
 10
-1.0000000000000000E+020
 20
-1.0000000000000000E+020
 30
-1.0000000000000000E+020
  9
$PLIMMIN
 10
0.0
 20
0.0
  9
$PLIMMAX
 10
12.0
 20
9.0
  9
$UNITMODE
 70
     0
  9
$VISRETAIN
 70
     1
  9
$PLINEGEN
 70
     0
  9
$PSLTSCALE
 70
     1
  0
ENDSEC
  0
SECTION
  2
TABLES
  0
TABLE
  2
VPORT
 70
     1
  0
VPORT
  2
*ACTIVE
 70
     0
 10
0.0
 20
0.0
 11
1.0
 21
1.0
 12
0.0
 22
0.0
 13
0.0
 23
0.0
 14
1.0
 24
1.0
 15
0.0
 25
0.0
 16
-0.0000000000000568
 26
0.0
 36
192.97365371727901
 17
241.75622628482219
 27
84.775203281930416
 37
0.0
 40
68.630873192546531
 41
2.0983240223463682
 42
50.0
 43
0.0
 44
0.0
 50
0.0
 51
0.0
 71
     0
 72
   100
 73
     1
 74
     1
 75
     0
 76
     0
 77
     0
 78
     0
  0
ENDTAB
  0
TABLE
  2
LTYPE
 70
     2
  0
LTYPE
  2
CONTINUOUS
 70
     0
  3
Solid line
 72
    65
 73
     0
 40
0.0
  0
LTYPE
  2
PHANTOM2
 70
     0
  3
___ _ _ ___ _ _ ___ _ _ ___ _ _
 72
    65
 73
     6
 40
1.25
 49
0.625
 49
-0.125
 49
0.125
 49
-0.125
 49
0.125
 49
-0.125
  0
ENDTAB
  0
TABLE
  2
LAYER
 70
     2
  0
LAYER
  2
0
 70
     0
 62
   255
  6
CONTINUOUS
  0
LAYER
  2
DEFPOINTS
 70
     0
 62
     7
  6
CONTINUOUS
  0
ENDTAB
  0
TABLE
  2
STYLE
 70
     1
  0
STYLE
  2
STANDARD
 70
     0
 40
0.0
 41
0.8
 50
0.0
 71
     0
 42
0.2
  3
txt
  4

  0
ENDTAB
  0
TABLE
  2
VIEW
 70
     0
  0
ENDTAB
  0
TABLE
  2
UCS
 70
     0
  0
ENDTAB
  0
TABLE
  2
APPID
 70
     9
  0
APPID
  2
ACAD
 70
     0
  0
APPID
  2
ACAD_MLEADERVER
 70
     0
  0
APPID
  2
ACAD_EXEMPT_FROM_CAD_STANDARDS
 70
     0
  0
APPID
  2
ACAD_DSTYLE_DIMJAG
 70
     0
  0
APPID
  2
ACAD_DSTYLE_DIMTALN
 70
     0
  0
APPID
  2
ACAD_NAV_VCDISPLAY
 70
     0
  0
APPID
  2
ACAECLAYERSTANDARD
 70
     0
  0
APPID
  2
ACCMTRANSPARENCY
 70
     0
  0
APPID
  2
ACDBATTR
 70
     0
  0
ENDTAB
  0
TABLE
  2
DIMSTYLE
 70
     1
  0
DIMSTYLE
  2
STANDARD
 70
     0
  3

  4

  5

  6

  7

 40
1.0
 41
0.1875
 42
0.0625
 43
0.38
 44
0.125
 45
0.0
 46
0.0
 47
0.01
 48
0.01
140
0.15625
141
0.09
142
0.0
143
25.399999999999999
144
1.0
145
0.0
146
1.0
147
0.09
 71
     1
 72
     0
 73
     1
 74
     1
 75
     0
 76
     0
 77
     0
 78
     4
170
     0
171
     2
172
     0
173
     0
174
     0
175
     0
176
     0
177
     0
178
     0
  0
ENDTAB
  0
ENDSEC
  0
SECTION
  2
BLOCKS
  0
BLOCK
  8
0
  2
$MODEL_SPACE
 70
     0
 10
0.0
 20
0.0
 30
0.0
  3
$MODEL_SPACE
  1

  0
ENDBLK
  5
21
  8
0
  0
BLOCK
 67
     1
  8
0
  2
$PAPER_SPACE
 70
     0
 10
0.0
 20
0.0
 30
0.0
  3
$PAPER_SPACE
  1

  0
ENDBLK
  5
1D
 67
     1
  8
0
  0
ENDSEC
  0
SECTION
  2
ENTITIES
  0
LINE
  5
2A01
  8
0
 10
211.7418629970222
 20
101.1260542074
 30
0.0
 11
211.7418629970222
 21
68.146919707400002
 31
0.0
  0
LINE
  5
2A02
  8
0
 10
211.8518629970221
 20
68.211523330800006
 30
0.0
 11
211.8518629970221
 21
95.202315069600004
 31
0.0
  0
LINE
  5
2A03
  8
0
 10
212.483509058637
 20
95.49534936444752
 30
0.0
 11
212.50673612132221
 21
95.938490024599986
 31
0.0
  0
LINE
  5
2A04
  8
0
 10
212.3832262848222
 20
95.466919707299994
 30
0.0
 11
212.38127248162209
 21
95.444591036200009
 31
0.0
  0
LINE
  5
2A05
  8
0
 10
212.75502180762209
 20
95.797137343599999
 30
0.0
 11
212.77876521452211
 21
95.457590804999995
 31
0.0
  0
LINE
  5
2A06
  8
0
 10
212.83294400252211
 20
95.495349390200005
 30
0.0
 11
212.80971644832221
 21
95.938490024599986
 31
0.0
  0
LINE
  5
2A07
  8
0
 10
213.4128004528221
 20
69.946362796800003
 30
0.0
 11
213.3841933983073
 21
71.680748637186966
 31
0.0
  0
LINE
  5
2A08
  8
0
 10
212.5288629970222
 20
95.831919707400004
 30
0.0
 11
212.5288629970222
 21
95.439437061800007
 31
0.0
  0
LINE
  5
2A09
  8
0
 10
213.38391386342209
 20
73.312804324399991
 30
0.0
 11
213.73280768492211
 21
94.906470160200001
 31
0.0
  0
LINE
  5
2A0A
  8
0
 10
213.44696001302211
 20
95.652179873500003
 30
0.0
 11
213.46554511592211
 21
96.716919707399995
 31
0.0
  0
LINE
  5
2A0B
  8
0
 10
211.79709234162209
 20
68.151751648900003
 30
0.0
 11
211.7418629970222
 21
68.146919707400002
 31
0.0
  0
LINE
  5
2A0C
  8
0
 10
211.90976902482211
 20
69.402783115100007
 30
0.0
 11
212.9303182007221
 21
69.438421477600002
 31
0.0
  0
LINE
  5
2A0D
  8
0
 10
271.65054420418619
 20
69.376054207400003
 30
0.0
 11
211.86160736197979
 21
69.376054207400017
 31
0.0
  0
LINE
  5
2A0E
  8
0
 10
211.7970909636222
 20
95.262087886399996
 30
0.0
 11
211.7418629970222
 21
95.266919707399992
 31
0.0
  0
LINE
  5
2A0F
  8
0
 10
211.7418629970222
 20
95.466919707399967
 30
0.0
 11
212.4535496935263
 21
95.466920628806406
 31
0.0
  0
LINE
  5
2A10
  8
0
 10
213.15980570912211
 20
95.466919707399995
 30
0.0
 11
212.8629028760221
 21
95.466919707399995
 31
0.0
  0
LINE
  5
2A11
  8
0
 10
212.7797575747222
 20
95.966919707399995
 30
0.0
 11
212.53669499482211
 21
95.966919707399995
 31
0.0
  0
LINE
  5
2A12
  8
0
 10
213.2503226845221
 20
95.414243134300008
 30
0.0
 11
211.7418629970222
 21
95.466919707399995
 31
0.0
  0
LINE
  5
2A13
  8
0
 10
212.5288629970222
 20
95.831919707400004
 30
0.0
 11
212.72614250902211
 21
95.825026351900007
 31
0.0
  0
LINE
  5
2A14
  8
0
 10
213.72582177802209
 20
95.499060428999996
 30
0.0
 11
220.9033114451222
 21
96.316832080300003
 31
0.0
  0
LINE
  5
2A15
  8
0
 10
216.09622628482211
 20
99.471919707400005
 30
0.0
 11
267.41622628482207
 21
99.471919707400005
 31
0.0
  0
LINE
  5
2A16
  8
0
 10
211.85973481982211
 20
101.3969197074
 30
0.0
 11
271.65271774972211
 21
101.3969197074
 31
0.0
  0
ARC
  5
2A74
  8
0
 10
212.91286845242209
 20
69.938116891099995
 30
0.0
 40
0.5
 50
272.0000000000004
 51
0.9449540219999915
  0
ARC
  5
2A75
  8
0
 10
211.91263450335259
 20
69.340865270547297
 30
0.0
 40
0.0619841143641415
 50
92.649684733641578
 51
168.64810880530641
  0
ARC
  5
2A76
  8
0
 10
211.79185663743061
 20
68.211529158274473
 30
0.0
 40
0.0600063598745729
 50
275.00556428886642
 51
359.99443576158552
  0
ARC
  5
2A77
  8
0
 10
213.23287293612211
 20
94.914547720800002
 30
0.0
 40
0.5
 50
359.07433946660001
 51
87.999999999999616
  0
ARC
  5
2A78
  8
0
 10
211.79185850752151
 20
95.202311970070824
 30
0.0
 40
0.0600044895806772
 50
0.0029596108596737
 51
84.997392626599634
  0
ARC
  5
2A79
  8
0
 10
212.8629028760221
 20
95.496919707399996
 30
0.0
 40
0.03
 50
183.0004561495
 51
270.0
  0
ARC
  5
2A7A
  8
0
 10
212.45355031342211
 20
95.496920545899997
 30
0.0
 40
0.0299999171
 50
269.99881608290008
 51
356.99788267780002
  0
ARC
  5
2A7B
  8
0
 10
212.72509488612209
 20
95.795044649400012
 30
0.0
 40
0.03
 50
4.0000000010000134
 51
87.998780787899761
  0
ARC
  5
2A7C
  8
0
 10
212.7797575747222
 20
95.936919707399994
 30
0.0
 40
0.03
 50
3.0004561445000091
 51
90.0
  0
ARC
  5
2A7D
  8
0
 10
212.53669499482211
 20
95.936919707399994
 30
0.0
 40
0.03
 50
89.999999994699394
 51
176.99954385079999
  0
ARC
  5
2A7E
  8
0
 10
213.25948857022209
 20
95.655452199699994
 30
0.0
 40
0.1875
 50
271.18687079700032
 51
358.99999999969998
  0
ARC
  5
2A7F
  8
0
 10
213.15980570912211
 20
100.4669197074
 30
0.0
 40
5.0
 50
270.0
 51
276.50000000000063
  0
ARC
  5
2A80
  8
0
 10
212.074107412605
 20
101.068509073158
 30
0.0
 40
0.3371910351135223
 50
129.74254519007189
 51
170.17378559532489
  0
ARC
  5
2A81
  8
0
 10
220.86086023992209
 20
96.689421526200007
 30
0.0
 40
0.375
 50
276.50000000000063
 51
329.5065109171004
  0
ARC
  5
2A82
  8
0
 10
263.37739343992212
 20
72.505339201699996
 30
0.0
 40
50.0
 50
179.07467290349999
 51
180.9449540215
  0
CIRCLE
  5
2B75
  8
0
 10
220.25622628482211
 20
86.566919707400004
 30
0.0
 40
1.7369615241999981
  0
CIRCLE
  5
2B76
  8
0
 10
220.25622628482211
 20
86.566919707400004
 30
0.0
 40
2.2684228913000051
  0
LINE
  5
2B77
  8
0
 10
211.8585280462855
 20
101.3277836977902
 30
0.0
 11
211.85973481982211
 21
101.3969197074
 31
0.0
  0
ARC
  5
2B78
  8
0
 10
212.45198919608751
 20
95.490328841930136
 30
0.0
 40
0.0795723184031391
 50
320.6505518561799
 51
345.03577298203231
  0
ARC
  5
2B79
  8
0
 10
212.332026517549
 20
95.703520345688815
 30
0.0
 40
0.4894686289753076
 50
335.09584987899029
 51
1.6581190798588781
  0
ARC
  5
2B7A
  8
0
 10
212.82165791843121
 20
95.463433217813048
 30
0.0
 40
0.0432887726334476
 50
187.7565206945014
 51
230.18940451483431
  0
ARC
  5
2B7B
  8
0
 10
226.8395863897471
 20
92.997880086807371
 30
0.0
 40
6.6516538776322927
 50
112.82990819371081
 51
148.2392783055941
  0
ARC
  5
2B7C
  8
0
 10
230.8705285553807
 20
85.297453306854024
 30
0.0
 40
15.330095346904409
 50
112.3893310666907
 51
115.5496426746768
  0
ARC
  5
2B7D
  8
0
 10
216.42715135794671
 20
96.689478191255304
 30
0.0
 40
2.9617333724708259
 50
145.20591409066489
 51
179.46912656961791
  0
ARC
  5
2B7E
  8
0
 10
216.08925294501651
 20
96.918179331010066
 30
0.0
 40
2.553749897204554
 50
89.843546371972607
 51
145.09365947151019
  0
LINE
  5
2B7F
  8
0
 10
214.84446662605799
 20
73.508363190430515
 30
0.0
 11
268.66798594358619
 21
73.508363190430543
 31
0.0
  0
ARC
  5
2B80
  8
0
 10
214.8879064649478
 20
75.021850550906478
 30
0.0
 40
1.5141106333168599
 50
191.85298198887051
 51
268.35595831117439
  0
LINE
  5
2B81
  8
0
 10
271.77058957262221
 20
101.1260542074
 30
0.0
 11
271.77058957262221
 21
68.146919707400002
 31
0.0
  0
LINE
  5
2B82
  8
0
 10
271.6605895726222
 20
68.211523330800006
 30
0.0
 11
271.6605895726222
 21
95.202315069600004
 31
0.0
  0
LINE
  5
2B83
  8
0
 10
271.02894351100718
 20
95.49534936444752
 30
0.0
 11
271.00571644832212
 21
95.938490024599986
 31
0.0
  0
LINE
  5
2B84
  8
0
 10
271.12922628482221
 20
95.466919707299994
 30
0.0
 11
271.13118008802212
 21
95.444591036200009
 31
0.0
  0
LINE
  5
2B85
  8
0
 10
270.75743076202212
 20
95.797137343599999
 30
0.0
 11
270.73368735512207
 21
95.457590804999995
 31
0.0
  0
LINE
  5
2B86
  8
0
 10
270.67950856712213
 20
95.495349390200005
 30
0.0
 11
270.70273612132212
 21
95.938490024599986
 31
0.0
  0
LINE
  5
2B87
  8
0
 10
270.09965211682209
 20
69.946362796800003
 30
0.0
 11
270.12825917133688
 21
71.680748637186966
 31
0.0
  0
LINE
  5
2B88
  8
0
 10
270.98358957262212
 20
95.831919707400004
 30
0.0
 11
270.98358957262212
 21
95.439437061800007
 31
0.0
  0
LINE
  5
2B89
  8
0
 10
270.12853870622212
 20
73.312804324399991
 30
0.0
 11
269.77964488472207
 21
94.906470160200001
 31
0.0
  0
LINE
  5
2B8A
  8
0
 10
270.06549255662208
 20
95.652179873500003
 30
0.0
 11
270.04690745372221
 21
96.716919707399995
 31
0.0
  0
LINE
  5
2B8B
  8
0
 10
271.71536022802212
 20
68.151751648900003
 30
0.0
 11
271.77058957262221
 21
68.146919707400002
 31
0.0
  0
LINE
  5
2B8C
  8
0
 10
271.60268354482213
 20
69.402783115100007
 30
0.0
 11
270.58213436892208
 21
69.438421477600002
 31
0.0
  0
LINE
  5
2B8D
  8
0
 10
271.71536160602221
 20
95.262087886399996
 30
0.0
 11
271.77058957262221
 21
95.266919707399992
 31
0.0
  0
LINE
  5
2B8E
  8
0
 10
271.77058957262221
 20
95.466919707399967
 30
0.0
 11
271.05890287611788
 21
95.466920628806406
 31
0.0
  0
LINE
  5
2B8F
  8
0
 10
270.35264686052221
 20
95.466919707399995
 30
0.0
 11
270.64954969362208
 21
95.466919707399995
 31
0.0
  0
LINE
  5
2B90
  8
0
 10
270.73269499492221
 20
95.966919707399995
 30
0.0
 11
270.97575757482213
 21
95.966919707399995
 31
0.0
  0
LINE
  5
2B91
  8
0
 10
270.26212988512208
 20
95.414243134300008
 30
0.0
 11
271.77058957262221
 21
95.466919707399995
 31
0.0
  0
LINE
  5
2B92
  8
0
 10
270.98358957262212
 20
95.831919707400004
 30
0.0
 11
270.78631006062221
 21
95.825026351900007
 31
0.0
  0
LINE
  5
2B93
  8
0
 10
269.78663079162209
 20
95.499060428999996
 30
0.0
 11
262.60914112452213
 21
96.316832080300003
 31
0.0
  0
ARC
  5
2B94
  8
0
 10
270.59958411722209
 20
69.938116891099995
 30
0.0
 40
0.5
 50
179.05504597800001
 51
267.9999999999996
  0
ARC
  5
2B95
  8
0
 10
271.59981806629168
 20
69.340865270547297
 30
0.0
 40
0.0619841143641415
 50
11.3518911946936
 51
87.350315266358407
  0
ARC
  5
2B96
  8
0
 10
271.72059593221371
 20
68.211529158274473
 30
0.0
 40
0.0600063598745729
 50
180.00556423841451
 51
264.99443571113369
  0
ARC
  5
2B97
  8
0
 10
270.27957963352208
 20
94.914547720800002
 30
0.0
 40
0.5
 50
92.000000000000398
 51
180.92566053339991
  0
ARC
  5
2B98
  8
0
 10
271.7205940621227
 20
95.202311970070824
 30
0.0
 40
0.0600044895806772
 50
95.002607373400352
 51
179.9970403891403
  0
ARC
  5
2B99
  8
0
 10
270.64954969362208
 20
95.496919707399996
 30
0.0
 40
0.03
 50
270.0
 51
356.99954385049989
  0
ARC
  5
2B9A
  8
0
 10
271.05890225622221
 20
95.496920545899997
 30
0.0
 40
0.0299999171
 50
183.00211732220001
 51
270.00118391709992
  0
ARC
  5
2B9B
  8
0
 10
270.7873576835222
 20
95.795044649400012
 30
0.0
 40
0.03
 50
92.001219212100224
 51
175.9999999989999
  0
ARC
  5
2B9C
  8
0
 10
270.73269499492221
 20
95.936919707399994
 30
0.0
 40
0.03
 50
90.0
 51
176.99954385550001
  0
ARC
  5
2B9D
  8
0
 10
270.97575757482213
 20
95.936919707399994
 30
0.0
 40
0.03
 50
3.0004561491999948
 51
90.000000005300564
  0
ARC
  5
2B9E
  8
0
 10
270.25296399942209
 20
95.655452199699994
 30
0.0
 40
0.1875
 50
181.00000000029999
 51
268.81312920299968
  0
ARC
  5
2B9F
  8
0
 10
270.35264686052221
 20
100.4669197074
 30
0.0
 40
5.0
 50
263.49999999999937
 51
270.0
  0
ARC
  5
2BA0
  8
0
 10
271.43834515703929
 20
101.068509073158
 30
0.0
 40
0.3371910351135223
 50
9.8262144046750546
 51
50.257454809928049
  0
ARC
  5
2BA1
  8
0
 10
262.65159232972212
 20
96.689421526200007
 30
0.0
 40
0.375
 50
210.4934890828996
 51
263.49999999999937
  0
ARC
  5
2BA2
  8
0
 10
220.13505912972209
 20
72.505339201699996
 30
0.0
 40
50.0
 50
359.0550459785
 51
0.9253270965000078
  0
LINE
  5
2BA3
  8
0
 10
271.65392452335891
 20
101.3277836977902
 30
0.0
 11
271.65271774982222
 21
101.3969197074
 31
0.0
  0
ARC
  5
2BA4
  8
0
 10
271.06046337355679
 20
95.490328841930136
 30
0.0
 40
0.0795723184031391
 50
194.9642270179676
 51
219.3494481438201
  0
ARC
  5
2BA5
  8
0
 10
271.1804260520953
 20
95.703520345688815
 30
0.0
 40
0.4894686289753076
 50
178.34188092014111
 51
204.90415012100959
  0
ARC
  5
2BA6
  8
0
 10
270.69079465121308
 20
95.463433217813048
 30
0.0
 40
0.0432887726334476
 50
309.81059548516572
 51
352.24347930549862
  0
ARC
  5
2BA7
  8
0
 10
256.67286617989708
 20
92.997880086807371
 30
0.0
 40
6.6516538776322927
 50
31.760721694405799
 51
67.170091806289193
  0
ARC
  5
2BA8
  8
0
 10
252.64192401426359
 20
85.297453306854024
 30
0.0
 40
15.330095346904409
 50
64.450357325323196
 51
67.610668933309256
  0
ARC
  5
2BA9
  8
0
 10
267.08530121169758
 20
96.689478191255304
 30
0.0
 40
2.9617333724708259
 50
0.5308734303820881
 51
34.794085909335067
  0
ARC
  5
2BAA
  8
0
 10
267.42319962462773
 20
96.918179331010066
 30
0.0
 40
2.553749897204554
 50
34.906340528489707
 51
90.156453628027393
  0
ARC
  5
2BAB
  8
0
 10
268.62454610469649
 20
75.021850550906478
 30
0.0
 40
1.5141106333168599
 50
271.6440416888255
 51
348.14701801112949
  0
ATTDEF
  5
2DFD
  8
DEFPOINTS
 10
241.75438070601621
 20
101.4024868564608
 30
0.0
 40
0.001
  1
72180116
  3

  2
MODELNUMBER
 70
     0
1001
ACDBATTR
1070
     0
1070
     1
  0
ATTDEF
  5
2DFE
  8
DEFPOINTS
 10
241.75438070601621
 20
101.4008201897941
 30
0.0
 40
0.001
  1
ENSEMBLE
  3

  2
TRADENAME
 70
     0
1001
ACDBATTR
1070
     0
1070
     1
  0
ATTDEF
  5
2DFF
  8
DEFPOINTS
 10
241.75438070601621
 20
101.3991535231274
 30
0.0
 40
0.001
  1
SHOWER STALL
  3

  2
PRODUCT
 70
     0
1001
ACDBATTR
1070
     0
1070
     1
  0
ATTDEF
  5
2E00
  8
DEFPOINTS
 10
241.75438070601621
 20
101.3974868564608
 30
0.0
 40
0.001
  1
VIKRELL
  3

  2
MATERIAL
 70
     0
1001
ACDBATTR
1070
     0
1070
     1
  0
ENDSEC
  0
EOF
