  0
SECTION
  2
HEADER
  9
$ACADVER
  1
AC1009
  9
$INSBASE
 10
77.940485619884512
 20
2.6375104229337181
 30
0.0
  9
$EXTMIN
 10
47.94048871235367
 20
2.633603862350486
 30
0.0
  9
$EXTMAX
 10
77.962781485729295
 20
7.6374723616745461
 30
0.0
  9
$LIMMIN
 10
0.0
 20
0.0
  9
$LIMMAX
 10
11.692913385800001
 20
8.2677165353999982
  9
$ORTHOMODE
 70
     1
  9
$REGENMODE
 70
     1
  9
$FILLMODE
 70
     1
  9
$QTEXTMODE
 70
     0
  9
$MIRRTEXT
 70
     0
  9
$DRAGMODE
 70
     2
  9
$LTSCALE
 40
0.6431102362
  9
$OSMODE
 70
  3071
  9
$ATTMODE
 70
     1
  9
$TEXTSIZE
 40
0.2
  9
$TRACEWID
 40
0.05
  9
$TEXTSTYLE
  7
STANDARD
  9
$CLAYER
  8
0
  9
$CELTYPE
  6
BYLAYER
  9
$CECOLOR
 62
     1
  9
$DIMSCALE
 40
1.0
  9
$DIMASZ
 40
0.1875
  9
$DIMEXO
 40
0.0625
  9
$DIMDLI
 40
0.4443307087
  9
$DIMRND
 40
0.0
  9
$DIMDLE
 40
0.0
  9
$DIMEXE
 40
0.125
  9
$DIMTP
 40
0.0
  9
$DIMTM
 40
0.0
  9
$DIMTXT
 40
1.0
  9
$DIMCEN
 40
0.1052362205
  9
$DIMTSZ
 40
0.0
  9
$DIMTOL
 70
     0
  9
$DIMLIM
 70
     0
  9
$DIMTIH
 70
     1
  9
$DIMTOH
 70
     1
  9
$DIMSE1
 70
     0
  9
$DIMSE2
 70
     0
  9
$DIMTAD
 70
     0
  9
$DIMZIN
 70
     0
  9
$DIMBLK
  1

  9
$DIMASO
 70
     1
  9
$DIMSHO
 70
     1
  9
$DIMPOST
  1
\X
  9
$DIMAPOST
  1

  9
$DIMALT
 70
     1
  9
$DIMALTD
 70
     2
  9
$DIMALTF
 40
25.399999999999999
  9
$DIMLFAC
 40
1.0
  9
$DIMTOFL
 70
     0
  9
$DIMTVP
 40
0.0
  9
$DIMTIX
 70
     0
  9
$DIMSOXD
 70
     0
  9
$DIMSAH
 70
     0
  9
$DIMBLK1
  1

  9
$DIMBLK2
  1

  9
$DIMSTYLE
  2
STANDARD
  9
$DIMCLRD
 70
     0
  9
$DIMCLRE
 70
     0
  9
$DIMCLRT
 70
     0
  9
$DIMTFAC
 40
1.0
  9
$DIMGAP
 40
0.09
  9
$LUNITS
 70
     2
  9
$LUPREC
 70
     4
  9
$SKETCHINC
 40
0.1
  9
$FILLETRAD
 40
0.0
  9
$AUNITS
 70
     0
  9
$AUPREC
 70
     0
  9
$MENU
  1
.
  9
$ELEVATION
 40
0.0
  9
$PELEVATION
 40
0.0
  9
$THICKNESS
 40
0.0
  9
$LIMCHECK
 70
     0
  9
$BLIPMODE
 70
     0
  9
$CHAMFERA
 40
0.0
  9
$CHAMFERB
 40
0.0
  9
$SKPOLY
 70
     0
  9
$TDCREATE
 40
2457933.7365024081
  9
$TDUPDATE
 40
2458009.4885324659
  9
$TDINDWG
 40
0.7801510764
  9
$TDUSRTIMER
 40
0.7801510764
  9
$USRTIMER
 70
     1
  9
$ANGBASE
 50
0.0
  9
$ANGDIR
 70
     0
  9
$PDMODE
 70
     0
  9
$PDSIZE
 40
0.3125
  9
$PLINEWID
 40
0.0
  9
$COORDS
 70
     1
  9
$SPLFRAME
 70
     0
  9
$SPLINETYPE
 70
     6
  9
$SPLINESEGS
 70
     8
  9
$ATTDIA
 70
     1
  9
$ATTREQ
 70
     1
  9
$HANDLING
 70
     1
  9
$HANDSEED
  5
19C4
  9
$SURFTAB1
 70
     6
  9
$SURFTAB2
 70
     6
  9
$SURFTYPE
 70
     6
  9
$SURFU
 70
     6
  9
$SURFV
 70
     6
  9
$UCSNAME
  2

  9
$UCSORG
 10
0.0
 20
0.0
 30
0.0
  9
$UCSXDIR
 10
1.0
 20
0.0
 30
0.0
  9
$UCSYDIR
 10
0.0
 20
1.0
 30
0.0
  9
$PUCSNAME
  2

  9
$PUCSORG
 10
0.0
 20
0.0
 30
0.0
  9
$PUCSXDIR
 10
1.0
 20
0.0
 30
0.0
  9
$PUCSYDIR
 10
0.0
 20
1.0
 30
0.0
  9
$USERI1
 70
     0
  9
$USERI2
 70
     0
  9
$USERI3
 70
     0
  9
$USERI4
 70
     0
  9
$USERI5
 70
     0
  9
$USERR1
 40
0.0
  9
$USERR2
 40
0.0
  9
$USERR3
 40
0.0
  9
$USERR4
 40
0.0
  9
$USERR5
 40
0.0
  9
$WORLDVIEW
 70
     1
  9
$SHADEDGE
 70
     3
  9
$SHADEDIF
 70
    70
  9
$TILEMODE
 70
     1
  9
$MAXACTVP
 70
    48
  9
$PLIMCHECK
 70
     0
  9
$PEXTMIN
 10
1.0000000000000000E+020
 20
1.0000000000000000E+020
 30
1.0000000000000000E+020
  9
$PEXTMAX
 10
-1.0000000000000000E+020
 20
-1.0000000000000000E+020
 30
-1.0000000000000000E+020
  9
$PLIMMIN
 10
0.0
 20
0.0
  9
$PLIMMAX
 10
12.0
 20
9.0
  9
$UNITMODE
 70
     0
  9
$VISRETAIN
 70
     1
  9
$PLINEGEN
 70
     0
  9
$PSLTSCALE
 70
     1
  0
ENDSEC
  0
SECTION
  2
TABLES
  0
TABLE
  2
VPORT
 70
     1
  0
VPORT
  2
*ACTIVE
 70
     0
 10
0.0
 20
0.0
 11
1.0
 21
1.0
 12
0.0
 22
0.0
 13
0.0
 23
0.0
 14
1.0
 24
1.0
 15
0.0
 25
0.0
 16
-0.0000000000000213
 26
0.0
 36
89.973643323178223
 17
62.951635099041503
 27
5.1355381120125161
 37
0.0
 40
30.436438085439828
 41
2.233734939759036
 42
50.0
 43
0.0
 44
0.0
 50
0.0
 51
0.0
 71
     0
 72
   100
 73
     1
 74
     1
 75
     0
 76
     0
 77
     0
 78
     0
  0
ENDTAB
  0
TABLE
  2
LTYPE
 70
     3
  0
LTYPE
  2
CONTINUOUS
 70
     0
  3
Solid line
 72
    65
 73
     0
 40
0.0
  0
LTYPE
  2
PHANTOM2
 70
     0
  3
___ _ _ ___ _ _ ___ _ _ ___ _ _
 72
    65
 73
     6
 40
1.25
 49
0.625
 49
-0.125
 49
0.125
 49
-0.125
 49
0.125
 49
-0.125
  0
ENDTAB
  0
TABLE
  2
LAYER
 70
     2
  0
LAYER
  2
0
 70
     0
 62
     7
  6
CONTINUOUS
  0
LAYER
  2
DEFPOINTS
 70
     0
 62
     7
  6
CONTINUOUS
  0
ENDTAB
  0
TABLE
  2
STYLE
 70
     1
  0
STYLE
  2
STANDARD
 70
     0
 40
0.0
 41
0.8
 50
0.0
 71
     0
 42
0.2
  3
txt
  4

  0
ENDTAB
  0
TABLE
  2
VIEW
 70
     0
  0
ENDTAB
  0
TABLE
  2
UCS
 70
     0
  0
ENDTAB
  0
TABLE
  2
APPID
 70
     8
  0
APPID
  2
ACAD
 70
     0
  0
APPID
  2
ACAD_MLEADERVER
 70
     0
  0
APPID
  2
ACAD_NAV_VCDISPLAY
 70
     0
  0
APPID
  2
ACAD_EXEMPT_FROM_CAD_STANDARDS
 70
     0
  0
APPID
  2
ACAD_DSTYLE_DIMJAG
 70
     0
  0
APPID
  2
ACAD_DSTYLE_DIMTALN
 70
     0
  0
APPID
  2
ACADANNOTATIVE
 70
     0
  0
APPID
  2
ACDBATTR
 70
     0
  0
ENDTAB
  0
TABLE
  2
DIMSTYLE
 70
     2
  0
DIMSTYLE
  2
STANDARD
 70
     0
  3

  4

  5

  6

  7

 40
1.0
 41
0.1875
 42
0.0625
 43
0.38
 44
0.125
 45
0.0
 46
0.0
 47
1.5
 48
1.5
140
0.15625
141
0.09
142
0.0
143
25.399999999999999
144
1.0
145
0.0
146
1.0
147
0.09
 71
     0
 72
     0
 73
     1
 74
     1
 75
     0
 76
     0
 77
     0
 78
     4
170
     0
171
     2
172
     0
173
     0
174
     0
175
     0
176
     0
177
     0
178
     0
  0
ENDTAB
  0
ENDSEC
  0
SECTION
  2
BLOCKS
  0
BLOCK
  8
0
  2
$MODEL_SPACE
 70
     0
 10
0.0
 20
0.0
 30
0.0
  3
$MODEL_SPACE
  1

  0
ENDBLK
  5
21
  8
0
  0
BLOCK
 67
     1
  8
0
  2
$PAPER_SPACE
 70
     0
 10
0.0
 20
0.0
 30
0.0
  3
$PAPER_SPACE
  1

  0
ENDBLK
  5
1D
 67
     1
  8
0
  0
ENDSEC
  0
SECTION
  2
ENTITIES
  0
LINE
  5
15E9
  8
0
 10
53.648223449023511
 20
2.838300441668749
 30
0.0
 11
53.667624913523497
 21
2.6535532751687501
 31
0.0
  0
LINE
  5
15EA
  8
0
 10
54.2926244634235
 20
2.6535526653687489
 30
0.0
 11
54.289058577223507
 21
2.7559242618687518
 31
0.0
  0
LINE
  5
15EB
  8
0
 10
55.6604826351235
 20
2.9363582736687479
 30
0.0
 11
55.687297921023493
 21
2.6428306996687492
 31
0.0
  0
LINE
  5
15EC
  8
0
 10
55.6604826351235
 20
2.9363582736687479
 30
0.0
 11
55.555168426723498
 21
4.0308048940687469
 31
0.0
  0
LINE
  5
15ED
  8
0
 10
57.96061839726093
 20
2.6508835280230438
 30
0.0
 11
57.783487546872259
 21
5.2215872303554232
 31
0.0
  0
LINE
  5
15EE
  8
0
 10
58.06048204318283
 20
2.6513169461297248
 30
0.0
 11
57.881621535719972
 21
5.2212428006680964
 31
0.0
  0
LINE
  5
15EF
  8
0
 10
56.251040310623502
 20
4.0199061905687499
 30
0.0
 11
56.297699942923487
 21
2.9239605028687481
 31
0.0
  0
LINE
  5
15F0
  8
0
 10
56.312297470823502
 20
2.6428300899687498
 30
0.0
 11
56.297699942923487
 21
2.9239605028687481
 31
0.0
  0
LINE
  5
15F1
  8
0
 10
61.686887750523482
 20
2.83779684436875
 30
0.0
 11
61.578644323623479
 21
3.9532439555687482
 31
0.0
  0
LINE
  5
15F2
  8
0
 10
62.268244937023503
 20
3.9475865130687491
 30
0.0
 11
62.31584766532351
 21
2.831707951368752
 31
0.0
  0
LINE
  5
15F3
  8
0
 10
51.615929704723513
 20
4.4844647934687494
 30
0.0
 11
49.665707468723497
 21
4.484460526068748
 31
0.0
  0
LINE
  5
15F4
  8
0
 10
59.968874034301031
 20
3.9695076830282718
 30
0.0
 11
61.576130414323508
 21
3.9529643179687488
 31
0.0
  0
LINE
  5
15F5
  8
0
 10
57.962222702738821
 20
3.9953569021360482
 30
0.0
 11
59.868934979633799
 21
3.970692591600641
 31
0.0
  0
LINE
  5
15F6
  8
0
 10
63.443365538723498
 20
6.3876847383687512
 30
0.0
 11
63.464748937023501
 21
6.1842309555687498
 31
0.0
  0
LINE
  5
15F7
  8
0
 10
64.089748486723494
 20
6.1842303457687491
 30
0.0
 11
64.082676814523495
 21
6.3876861365687487
 31
0.0
  0
LINE
  5
15F8
  8
0
 10
67.699929862823495
 20
2.8549253657687501
 30
0.0
 11
67.592097293823514
 21
3.9650248686687521
 31
0.0
  0
LINE
  5
15F9
  8
0
 10
68.28223409542349
 20
3.972863267768747
 30
0.0
 11
68.329577474723493
 21
2.8642780956687481
 31
0.0
  0
LINE
  5
15FA
  8
0
 10
73.700059091823476
 20
2.9859455731687521
 30
0.0
 11
73.739281333223474
 21
2.6376420792687472
 31
0.0
  0
LINE
  5
15FB
  8
0
 10
73.700059091823476
 20
2.9859455731687521
 30
0.0
 11
73.593030290077394
 21
4.0718340233742012
 31
0.0
  0
LINE
  5
15FC
  8
0
 10
74.337941328623486
 20
3.0862486934687499
 30
0.0
 11
74.298492905404487
 21
4.2072028152160481
 31
0.0
  0
LINE
  5
15FD
  8
0
 10
74.364281329822461
 20
2.6376420792603379
 30
0.0
 11
74.337941328623486
 21
3.0862486934687499
 31
0.0
  0
LINE
  5
15FE
  8
0
 10
76.425035051223475
 20
5.8785543676687508
 30
0.0
 11
76.472293433519326
 21
6.2138322375712987
 31
0.0
  0
LINE
  5
15FF
  8
0
 10
48.097207037048292
 20
2.6375104229337181
 30
0.0
 11
47.94048871235367
 21
2.637510424393255
 31
0.0
  0
LINE
  5
1600
  8
0
 10
47.940488714467641
 20
2.6375104243949421
 30
0.0
 11
47.962748111890939
 21
6.1158085652936514
 31
0.0
  0
ARC
  5
1601
  8
0
 10
48.478936992296532
 20
6.1414202614632032
 30
0.0
 40
0.5168238764173508
 50
90.602565285294503
 51
182.84050998887571
  0
LINE
  5
1602
  8
0
 10
48.097207037048292
 20
2.6375104229337181
 30
0.0
 11
48.128093185123511
 21
6.1585462697687516
 31
0.0
  0
ARC
  5
1603
  8
0
 10
48.515785367257777
 20
6.1376349169189339
 30
0.0
 40
0.3882557311438712
 50
140.32173449442641
 51
176.91257026014651
  0
LINE
  5
1604
  8
0
 10
48.099671163928498
 20
2.9184220813007888
 30
0.0
 11
50.46120819552349
 21
5.2799623398687494
 31
0.0
  0
ARC
  5
1605
  8
0
 10
53.268597502482038
 20
2.4725768691223382
 30
0.0
 40
3.9702453201512871
 50
99.560277018238693
 51
135.00003914649699
  0
LINE
  5
1606
  8
0
 10
48.216967524023502
 20
6.3855268476687481
 30
0.0
 11
56.439496886623488
 21
6.3876694253687516
 31
0.0
  0
LINE
  5
1607
  8
0
 10
48.473367702023502
 20
6.3876519994687468
 30
0.0
 11
48.473580685323512
 21
7.1371243647687477
 31
0.0
  0
ARC
  5
1608
  8
0
 10
48.97404226180678
 20
7.1369821447710349
 30
0.0
 40
0.5004615966911615
 50
90.047667018372422
 51
179.9837178201187
  0
LINE
  5
1609
  8
0
 10
48.973625904623511
 20
7.637443568268754
 30
0.0
 11
77.940485619884512
 21
7.6374723616745461
 31
0.0
  0
LINE
  5
160A
  8
0
 10
77.940485619884512
 20
7.6374723616745461
 30
0.0
 11
77.899276112478745
 21
6.460411497216338
 31
0.0
  0
ARC
  5
160B
  8
0
 10
77.824367107139693
 20
6.462981970194555
 30
0.0
 40
0.0749530947474483
 50
269.96554560224001
 51
358.03468905766363
  0
LINE
  5
160C
  8
0
 10
77.824322034647324
 20
6.388028888999119
 30
0.0
 11
69.66923625380366
 21
6.3876988592496771
 31
0.0
  0
ARC
  5
160D
  8
0
 10
69.301460178521864
 20
6.5205128009195263
 30
0.0
 40
0.3910227418598286
 50
270.85535900983871
 51
340.14397051129652
  0
LINE
  5
160E
  8
0
 10
69.307297474123487
 20
6.1295336318687488
 30
0.0
 11
68.778986892090558
 21
6.1295324764687491
 31
0.0
  0
ARC
  5
160F
  8
0
 10
68.784851630622995
 20
6.5224203257997599
 30
0.0
 40
0.3929316191272974
 50
200.05186535938259
 51
269.14479459788959
  0
LINE
  5
1610
  8
0
 10
68.415738492086888
 20
6.3876956128848121
 30
0.0
 11
57.670433563457692
 21
6.3876721132036174
 31
0.0
  0
ARC
  5
1611
  8
0
 10
57.298909782529833
 20
6.5254910687079191
 30
0.0
 40
0.3962625194126097
 50
271.25510216653498
 51
339.6473649684412
  0
LINE
  5
1612
  8
0
 10
57.307589482423502
 20
6.1293236203972601
 30
0.0
 11
56.779022804390571
 21
6.129506232868752
 31
0.0
  0
ARC
  5
1613
  8
0
 10
56.765316801990743
 20
6.4638277041798204
 30
0.0
 40
0.3346023022655176
 50
193.15630624660361
 51
272.34761045888598
  0
ARC
  5
1614
  8
0
 10
51.624160688531397
 20
3.966155665987777
 30
0.0
 40
0.5183744755314068
 50
22.019878036325188
 51
90.909806427766085
  0
ARC
  5
1615
  8
0
 10
53.980209961995982
 20
90.053523365363418
 30
0.0
 40
87.400529066931014
 50
269.79508313749562
 51
270.2048050589666
  0
ARC
  5
1616
  8
0
 10
53.176135566164291
 20
4.1503952306393863
 30
0.0
 40
1.0714615659309761
 50
179.45916950137229
 51
241.809509883028
  0
ARC
  5
1617
  8
0
 10
55.272849712327059
 20
8.6452885439090412
 30
0.0
 40
6.0299685998333352
 50
244.42724449165269
 51
254.3699266548399
  0
ARC
  5
1618
  8
0
 10
54.412875427569702
 20
6.252978096255279
 30
0.0
 40
3.4992450804462329
 50
257.37793094541632
 51
267.9722300180515
  0
ARC
  5
1619
  8
0
 10
-23.23719183372922
 20
-2281.0382825132911
 30
0.0
 40
2285.1096906718858
 50
88.020862735498284
 51
88.055769692179638
  0
LINE
  5
161A
  8
0
 10
55.68729792452352
 20
2.6428306996687492
 30
0.0
 11
56.312297470823502
 21
2.6428300899687498
 31
0.0
  0
ARC
  5
161B
  8
0
 10
57.824510284115412
 20
34.401802681252988
 30
0.0
 40
31.751210882317672
 50
267.26602677567382
 51
270.4069952145727
  0
ARC
  5
161C
  8
0
 10
61.428839490273653
 20
678.65006290267684
 30
0.0
 40
676.00713780752017
 50
269.71362536356452
 51
271.04184105815068
  0
ARC
  5
161D
  8
0
 10
74.051781331539203
 20
-5529.3797118045841
 30
0.0
 40
5532.0173627103122
 50
89.996763399347046
 51
90.003236600653352
  0
ARC
  5
161E
  8
0
 10
74.005043273719451
 20
6.4499031839759331
 30
0.0
 40
3.6625174363971462
 50
275.47529369989161
 51
301.47159669083192
  0
ARC
  5
161F
  8
0
 10
75.297984601828745
 20
4.2010308400323906
 30
0.0
 40
1.0718192634958019
 50
305.28765645028773
 51
0.0263331039242914
  0
ARC
  5
1620
  8
0
 10
-5182.2747360899511
 20
-179.0345493724009
 30
0.0
 40
5261.8359745975686
 50
1.995648836241277
 51
2.0088766431919391
  0
ARC
  5
1621
  8
0
 10
74.139198146121231
 20
6.1139734214521537
 30
0.0
 40
2.2979278682351501
 50
306.31068315748479
 51
354.11982172490241
  0
ARC
  5
1622
  8
0
 10
76.686115641023491
 20
6.191358617968743
 30
0.0
 40
0.2149999999999987
 50
113.86307960842881
 51
173.99999999999861
  0
ARC
  5
1623
  8
0
 10
63.77738147375468
 20
142.25547125160909
 30
0.0
 40
136.0715994423737
 50
269.8683594466001
 51
270.13152874862902
  0
ARC
  5
1624
  8
0
 10
53.855114472243237
 20
6.3837606947269023
 30
0.0
 40
2.179241307600098
 50
187.19613404678711
 51
235.90705012653541
  0
ARC
  5
1625
  8
0
 10
54.181023203905767
 20
6.9086767387822441
 30
0.0
 40
2.7967295213797141
 50
236.4057098896333
 51
263.06079856640878
  0
ARC
  5
1626
  8
0
 10
55.377841288013457
 20
16.232710847492982
 30
0.0
 40
12.20319441008512
 50
263.2537476752608
 51
270.83260611071063
  0
ARC
  5
1627
  8
0
 10
57.801826832183771
 20
-3.5334419536860651
 30
0.0
 40
8.7550483918039887
 50
89.477791232168315
 51
90.120018116254897
  0
ARC
  5
1628
  8
0
 10
73.996042782604576
 20
4.5420048220212443
 30
0.0
 40
1.5297006107391951
 50
282.99356952715419
 51
349.46278133255828
  0
LINE
  5
1629
  8
0
 10
59.960313090365638
 20
2.6445201761927701
 30
0.0
 11
59.782828971990291
 21
5.2203508642496699
 31
0.0
  0
LINE
  5
162A
  8
0
 10
60.059775505553212
 20
2.6443114252789992
 30
0.0
 11
59.883098381290303
 21
5.2199778108496728
 31
0.0
  0
ARC
  5
162B
  8
0
 10
3.026118769315608
 20
-15263.341342030961
 30
0.0
 40
15268.667181319401
 50
89.786643296517525
 51
89.787019560775221
  0
LINE
  5
162C
  8
0
 10
61.965283169743223
 20
2.643137941922816
 30
0.0
 11
61.78793424584029
 21
5.2170065497996703
 31
0.0
  0
LINE
  5
162D
  8
0
 10
62.064725957142592
 20
2.643224168691233
 30
0.0
 11
61.888203655140309
 21
5.2166334963996688
 31
0.0
  0
ARC
  5
162E
  8
0
 10
5.031224043165615
 20
-15263.34468634541
 30
0.0
 40
15268.667181319401
 50
89.786643296517525
 51
89.787019560775221
  0
LINE
  5
162F
  8
0
 10
63.969841270963997
 20
2.6477007199206919
 30
0.0
 11
63.792912788340288
 21
5.2154674547996676
 31
0.0
  0
LINE
  5
1630
  8
0
 10
64.069265721078011
 20
2.6480817546661788
 30
0.0
 11
63.893182197640307
 21
5.2150944013996714
 31
0.0
  0
ARC
  5
1631
  8
0
 10
7.0362025856656132
 20
-15263.346225440409
 30
0.0
 40
15268.667181319401
 50
89.786643296517525
 51
89.787019560775221
  0
LINE
  5
1632
  8
0
 10
65.973986964950754
 20
2.658204962694696
 30
0.0
 11
65.797683488440271
 21
5.2169009708996681
 31
0.0
  0
LINE
  5
1633
  8
0
 10
66.073394005408971
 20
2.6588806524410411
 30
0.0
 11
65.897952897740282
 21
5.216527917499671
 31
0.0
  0
ARC
  5
1634
  8
0
 10
9.0409732857656095
 20
-15263.34479192431
 30
0.0
 40
15268.667181319401
 50
89.786643296517525
 51
89.787019560775221
  0
LINE
  5
1635
  8
0
 10
67.953300861340296
 20
3.0290639632496719
 30
0.0
 11
67.802304400640281
 21
5.2204787265496684
 31
0.0
  0
LINE
  5
1636
  8
0
 10
68.05299239854034
 20
3.0272462181496671
 30
0.0
 11
67.902573809940264
 21
5.2201056731496713
 31
0.0
  0
ARC
  5
1637
  8
0
 10
67.989239142673142
 20
2.2654195540982691
 30
0.0
 40
0.7644895968509675
 50
85.216364408313837
 51
92.694439545234772
  0
ARC
  5
1638
  8
0
 10
11.045594197965601
 20
-15263.34121416866
 30
0.0
 40
15268.667181319401
 50
89.786643296517525
 51
89.787019560775221
  0
LINE
  5
1639
  8
0
 10
69.981047913031858
 20
2.6970245207125449
 30
0.0
 11
69.806868697790293
 21
5.2248910810996696
 31
0.0
  0
LINE
  5
163A
  8
0
 10
70.08042407973582
 20
2.6982891415548802
 30
0.0
 11
69.907138107090276
 21
5.224518027699669
 31
0.0
  0
ARC
  5
163B
  8
0
 10
13.050158495115619
 20
-15263.33680181411
 30
0.0
 40
15268.667181319401
 50
89.786643296517525
 51
89.787019560775221
  0
LINE
  5
163C
  8
0
 10
71.983967720876336
 20
2.7253336356148452
 30
0.0
 11
71.811422356640293
 21
5.229488082499671
 31
0.0
  0
LINE
  5
163D
  8
0
 10
72.083331023557434
 20
2.7268925816094329
 30
0.0
 11
71.911691765940276
 21
5.2291150290996704
 31
0.0
  0
ARC
  5
163E
  8
0
 10
15.054712153965619
 20
-15263.33220481271
 30
0.0
 40
15268.667181319401
 50
89.786643296517525
 51
89.787019560775221
  0
LINE
  5
163F
  8
0
 10
55.929858801723491
 20
3.032274531468746
 30
0.0
 11
55.776169770117249
 21
5.2256368350674496
 31
0.0
  0
LINE
  5
1640
  8
0
 10
56.029812312187161
 20
3.0312605877312171
 30
0.0
 11
55.876470027919993
 21
5.2252613449682892
 31
0.0
  0
ARC
  5
1641
  8
0
 10
55.969603093898471
 20
2.023062080820174
 30
0.0
 40
1.0099947422163109
 50
86.582377631473364
 51
92.25522789223173
  0
ARC
  5
1642
  8
0
 10
56.010285171134271
 20
54.365930305229242
 30
0.0
 40
49.140851156186628
 50
269.72703209600922
 51
269.84397802964781
  0
LINE
  5
1643
  8
0
 10
53.941895897225471
 20
2.78557353159544
 30
0.0
 11
53.771201975317247
 21
5.2266074390679922
 31
0.0
  0
LINE
  5
1644
  8
0
 10
54.042244847272123
 20
2.7734164707088311
 30
0.0
 11
53.871512951619991
 21
5.225655171268822
 31
0.0
  0
ARC
  5
1645
  8
0
 10
53.914894488961529
 20
15.079231811780479
 30
0.0
 40
9.8536721362256152
 50
269.16444688964498
 51
269.74775017889522
  0
ARC
  5
1646
  8
0
 10
73.369565699364173
 20
6.434272442887905
 30
0.0
 40
1.1574622349238259
 50
292.20581590882563
 51
297.50336547928379
  0
ARC
  5
1647
  8
0
 10
-2790.9472334340162
 20
-192.80361175153729
 30
0.0
 40
2871.7000037872308
 50
3.9125419557912271
 51
3.9578312531679951
  0
ARC
  5
1648
  8
0
 10
74.157046731265297
 20
2.2674573712404711
 30
0.0
 40
0.8809653836196925
 50
96.331703038098965
 51
102.86620396003561
  0
ARC
  5
1649
  8
0
 10
-599.82491987385401
 20
-42.108282679213659
 30
0.0
 40
675.30250170354429
 50
3.840786868127402
 51
4.0309780009505181
  0
ARC
  5
164A
  8
0
 10
-17.828768527239749
 20
-5207.3354924282958
 30
0.0
 40
5211.8818970494194
 50
89.16787656377133
 51
89.185591038573278
  0
ARC
  5
164B
  8
0
 10
63.912292296739317
 20
230.62228109464769
 30
0.0
 40
226.68055383205569
 50
269.58509014335561
 51
269.99200916388969
  0
ARC
  5
164C
  8
0
 10
63.928905503421568
 20
270.33495639737453
 30
0.0
 40
266.39330257450519
 50
270.01110405844508
 51
270.42073233771998
  0
ARC
  5
164D
  8
0
 10
66.036845276836772
 20
122.2135233941006
 30
0.0
 40
118.2587257345326
 50
269.97463903482873
 51
270.75353378757512
  0
ARC
  5
164E
  8
0
 10
230.48937447114841
 20
-12256.18570574699
 30
0.0
 40
12261.23155697563
 50
90.750481979103142
 51
90.758003436956983
  0
ARC
  5
164F
  8
0
 10
-3040.8292690491521
 20
212841.37243774431
 30
0.0
 40
212860.10957869701
 50
270.83737269233978
 51
270.83788500361197
  0
ARC
  5
1650
  8
0
 10
72.271990873988472
 20
22.197292671587491
 30
0.0
 40
18.173536057979302
 50
269.12425983352028
 51
274.16845873120201
  0
ARC
  5
1651
  8
0
 10
73.39124664134556
 20
7.083709266341585
 30
0.0
 40
3.0161871869987951
 50
287.50520432931802
 51
315.5254448261112
  0
ARC
  5
1652
  8
0
 10
72.250486447489209
 20
4.8174819749285831
 30
0.0
 40
3.2965532218506319
 50
350.30377832650538
 51
2.6620762408776248
  0
ARC
  5
1653
  8
0
 10
59.691456985848198
 20
2.5821670028146739
 30
0.0
 40
2.0117381918394859
 50
1.7283833641930131
 51
7.3002617405933137
  0
ARC
  5
1654
  8
0
 10
65.144299812255809
 20
2.9087349826476538
 30
0.0
 40
2.8295007883076719
 50
181.5599462304929
 51
185.37830486419301
  0
ARC
  5
1655
  8
0
 10
65.324237294723304
 20
2.6044790710494641
 30
0.0
 40
3.0175738171995028
 50
1.849299488255141
 51
4.9396790947637781
  0
ARC
  5
1656
  8
0
 10
69.802854461760674
 20
2.925644532522635
 30
0.0
 40
2.1041133689422451
 50
181.92607161428191
 51
186.27444159450201
  0
LINE
  5
1658
  8
0
 10
77.899805468181711
 20
6.4600245990727458
 30
0.0
 11
77.893476455847008
 21
6.278838505905207
 31
0.0
  0
ARC
  5
1659
  8
0
 10
77.73864767572212
 20
6.284246830805019
 30
0.0
 40
0.1549232104404859
 50
270.00042264613393
 51
357.9994142604354
  0
LINE
  5
165A
  8
0
 10
77.738648818523501
 20
6.1293236203687487
 30
0.0
 11
77.63334100602637
 21
6.129322843558656
 31
0.0
  0
ARC
  5
165B
  8
0
 10
77.633339863243947
 20
6.2842434837059242
 30
0.0
 40
0.1549206401514823
 50
185.9992622458829
 51
270.00042264613393
  0
LINE
  5
165C
  8
0
 10
77.479267686068724
 20
6.268051851131192
 30
0.0
 11
77.466660674289173
 21
6.3880144147321012
 31
0.0
  0
ATTDEF
  5
166D
  8
DEFPOINTS
 10
77.952114819062672
 20
2.6395455570045558
 30
0.0
 40
0.001
  1
ENSEMBLE
  3

  2
TRADENAME
 70
     0
1001
ACDBATTR
1070
     0
1070
     1
  0
ATTDEF
  5
166E
  8
DEFPOINTS
 10
77.952114819062672
 20
2.6375104229337181
 30
0.0
 40
0.001
  1
SHOWER RECEPTOR
  3

  2
PRODUCTNAME
 70
     0
1001
ACDBATTR
1070
     0
1070
     1
  0
ATTDEF
  5
166F
  8
DEFPOINTS
 10
77.952114819062672
 20
2.6354758226919048
 30
0.0
 40
0.001
  1
VIKRELL
  3

  2
MATERIAL
 70
     0
1001
ACDBATTR
1070
     0
1070
     1
  0
ATTDEF
  5
1670
  8
DEFPOINTS
 10
77.952114819062672
 20
2.633603862350486
 30
0.0
 40
0.001
  1
72171120
  3

  2
MODELNUMBER
 70
     0
1001
ACDBATTR
1070
     0
1070
     1
  0
ENDSEC
  0
EOF
