  0
SECTION
  2
HEADER
  9
$ACADVER
  1
AC1009
  9
$INSBASE
 10
44.726820660378557
 20
56.240233531107187
 30
0.0
  9
$EXTMIN
 10
14.72630830982742
 20
26.23002722224934
 30
0.0
  9
$EXTMAX
 10
74.727355317096041
 20
56.254522865358368
 30
0.0
  9
$LIMMIN
 10
0.0
 20
0.0
  9
$LIMMAX
 10
11.692913385800001
 20
8.2677165353999982
  9
$ORTHOMODE
 70
     0
  9
$REGENMODE
 70
     1
  9
$FILLMODE
 70
     1
  9
$QTEXTMODE
 70
     0
  9
$MIRRTEXT
 70
     0
  9
$DRAGMODE
 70
     2
  9
$LTSCALE
 40
0.6431102362
  9
$OSMODE
 70
  3071
  9
$ATTMODE
 70
     1
  9
$TEXTSIZE
 40
0.2
  9
$TRACEWID
 40
0.05
  9
$TEXTSTYLE
  7
STANDARD
  9
$CLAYER
  8
0
  9
$CELTYPE
  6
BYLAYER
  9
$CECOLOR
 62
     1
  9
$DIMSCALE
 40
1.0
  9
$DIMASZ
 40
0.1875
  9
$DIMEXO
 40
0.0625
  9
$DIMDLI
 40
0.4443307087
  9
$DIMRND
 40
0.0
  9
$DIMDLE
 40
0.0
  9
$DIMEXE
 40
0.125
  9
$DIMTP
 40
0.0
  9
$DIMTM
 40
0.0
  9
$DIMTXT
 40
1.0
  9
$DIMCEN
 40
0.1052362205
  9
$DIMTSZ
 40
0.0
  9
$DIMTOL
 70
     0
  9
$DIMLIM
 70
     0
  9
$DIMTIH
 70
     1
  9
$DIMTOH
 70
     1
  9
$DIMSE1
 70
     0
  9
$DIMSE2
 70
     0
  9
$DIMTAD
 70
     0
  9
$DIMZIN
 70
     0
  9
$DIMBLK
  1

  9
$DIMASO
 70
     1
  9
$DIMSHO
 70
     1
  9
$DIMPOST
  1
\X
  9
$DIMAPOST
  1

  9
$DIMALT
 70
     1
  9
$DIMALTD
 70
     2
  9
$DIMALTF
 40
25.399999999999999
  9
$DIMLFAC
 40
1.0
  9
$DIMTOFL
 70
     0
  9
$DIMTVP
 40
0.0
  9
$DIMTIX
 70
     0
  9
$DIMSOXD
 70
     0
  9
$DIMSAH
 70
     0
  9
$DIMBLK1
  1

  9
$DIMBLK2
  1

  9
$DIMSTYLE
  2
STANDARD
  9
$DIMCLRD
 70
     0
  9
$DIMCLRE
 70
     0
  9
$DIMCLRT
 70
     0
  9
$DIMTFAC
 40
1.0
  9
$DIMGAP
 40
0.09
  9
$LUNITS
 70
     2
  9
$LUPREC
 70
     4
  9
$SKETCHINC
 40
0.1
  9
$FILLETRAD
 40
0.0
  9
$AUNITS
 70
     0
  9
$AUPREC
 70
     0
  9
$MENU
  1
.
  9
$ELEVATION
 40
0.0
  9
$PELEVATION
 40
0.0
  9
$THICKNESS
 40
0.0
  9
$LIMCHECK
 70
     0
  9
$BLIPMODE
 70
     0
  9
$CHAMFERA
 40
0.0
  9
$CHAMFERB
 40
0.0
  9
$SKPOLY
 70
     0
  9
$TDCREATE
 40
2457933.7365024081
  9
$TDUPDATE
 40
2458009.4778141901
  9
$TDINDWG
 40
0.7624467477
  9
$TDUSRTIMER
 40
0.7624467477
  9
$USRTIMER
 70
     1
  9
$ANGBASE
 50
0.0
  9
$ANGDIR
 70
     0
  9
$PDMODE
 70
     0
  9
$PDSIZE
 40
0.3125
  9
$PLINEWID
 40
0.0
  9
$COORDS
 70
     1
  9
$SPLFRAME
 70
     0
  9
$SPLINETYPE
 70
     6
  9
$SPLINESEGS
 70
     8
  9
$ATTDIA
 70
     1
  9
$ATTREQ
 70
     1
  9
$HANDLING
 70
     1
  9
$HANDSEED
  5
1708
  9
$SURFTAB1
 70
     6
  9
$SURFTAB2
 70
     6
  9
$SURFTYPE
 70
     6
  9
$SURFU
 70
     6
  9
$SURFV
 70
     6
  9
$UCSNAME
  2

  9
$UCSORG
 10
0.0
 20
0.0
 30
0.0
  9
$UCSXDIR
 10
1.0
 20
0.0
 30
0.0
  9
$UCSYDIR
 10
0.0
 20
1.0
 30
0.0
  9
$PUCSNAME
  2

  9
$PUCSORG
 10
0.0
 20
0.0
 30
0.0
  9
$PUCSXDIR
 10
1.0
 20
0.0
 30
0.0
  9
$PUCSYDIR
 10
0.0
 20
1.0
 30
0.0
  9
$USERI1
 70
     0
  9
$USERI2
 70
     0
  9
$USERI3
 70
     0
  9
$USERI4
 70
     0
  9
$USERI5
 70
     0
  9
$USERR1
 40
0.0
  9
$USERR2
 40
0.0
  9
$USERR3
 40
0.0
  9
$USERR4
 40
0.0
  9
$USERR5
 40
0.0
  9
$WORLDVIEW
 70
     1
  9
$SHADEDGE
 70
     3
  9
$SHADEDIF
 70
    70
  9
$TILEMODE
 70
     1
  9
$MAXACTVP
 70
    48
  9
$PLIMCHECK
 70
     0
  9
$PEXTMIN
 10
1.0000000000000000E+020
 20
1.0000000000000000E+020
 30
1.0000000000000000E+020
  9
$PEXTMAX
 10
-1.0000000000000000E+020
 20
-1.0000000000000000E+020
 30
-1.0000000000000000E+020
  9
$PLIMMIN
 10
0.0
 20
0.0
  9
$PLIMMAX
 10
12.0
 20
9.0
  9
$UNITMODE
 70
     0
  9
$VISRETAIN
 70
     1
  9
$PLINEGEN
 70
     0
  9
$PSLTSCALE
 70
     1
  0
ENDSEC
  0
SECTION
  2
TABLES
  0
TABLE
  2
VPORT
 70
     1
  0
VPORT
  2
*ACTIVE
 70
     0
 10
0.0
 20
0.0
 11
1.0
 21
1.0
 12
0.0
 22
0.0
 13
0.0
 23
0.0
 14
1.0
 24
1.0
 15
0.0
 25
0.0
 16
-0.0000000000000426
 26
0.0
 36
198.31986147718129
 17
44.726833613356362
 27
41.235645686337229
 37
0.0
 40
67.087982235884979
 41
2.233734939759036
 42
50.0
 43
0.0
 44
0.0
 50
0.0
 51
0.0
 71
     0
 72
   100
 73
     1
 74
     1
 75
     0
 76
     0
 77
     0
 78
     0
  0
ENDTAB
  0
TABLE
  2
LTYPE
 70
     2
  0
LTYPE
  2
CONTINUOUS
 70
     0
  3
Solid line
 72
    65
 73
     0
 40
0.0
  0
LTYPE
  2
PHANTOM2
 70
     0
  3
___ _ _ ___ _ _ ___ _ _ ___ _ _
 72
    65
 73
     6
 40
1.25
 49
0.625
 49
-0.125
 49
0.125
 49
-0.125
 49
0.125
 49
-0.125
  0
ENDTAB
  0
TABLE
  2
LAYER
 70
     2
  0
LAYER
  2
0
 70
     0
 62
     7
  6
CONTINUOUS
  0
LAYER
  2
DEFPOINTS
 70
     0
 62
     7
  6
CONTINUOUS
  0
ENDTAB
  0
TABLE
  2
STYLE
 70
     1
  0
STYLE
  2
STANDARD
 70
     0
 40
0.0
 41
0.8
 50
0.0
 71
     0
 42
0.2
  3
txt
  4

  0
ENDTAB
  0
TABLE
  2
VIEW
 70
     0
  0
ENDTAB
  0
TABLE
  2
UCS
 70
     0
  0
ENDTAB
  0
TABLE
  2
APPID
 70
     8
  0
APPID
  2
ACAD
 70
     0
  0
APPID
  2
ACAD_MLEADERVER
 70
     0
  0
APPID
  2
ACAD_NAV_VCDISPLAY
 70
     0
  0
APPID
  2
ACAD_EXEMPT_FROM_CAD_STANDARDS
 70
     0
  0
APPID
  2
ACAD_DSTYLE_DIMJAG
 70
     0
  0
APPID
  2
ACAD_DSTYLE_DIMTALN
 70
     0
  0
APPID
  2
ACADANNOTATIVE
 70
     0
  0
APPID
  2
ACDBATTR
 70
     0
  0
ENDTAB
  0
TABLE
  2
DIMSTYLE
 70
     2
  0
DIMSTYLE
  2
STANDARD
 70
     0
  3

  4

  5

  6

  7

 40
1.0
 41
0.1875
 42
0.0625
 43
0.38
 44
0.125
 45
0.0
 46
0.0
 47
1.5
 48
1.5
140
0.15625
141
0.09
142
0.0
143
25.399999999999999
144
1.0
145
0.0
146
1.0
147
0.09
 71
     0
 72
     0
 73
     1
 74
     1
 75
     0
 76
     0
 77
     0
 78
     4
170
     0
171
     2
172
     0
173
     0
174
     0
175
     0
176
     0
177
     0
178
     0
  0
ENDTAB
  0
ENDSEC
  0
SECTION
  2
BLOCKS
  0
BLOCK
  8
0
  2
$MODEL_SPACE
 70
     0
 10
0.0
 20
0.0
 30
0.0
  3
$MODEL_SPACE
  1

  0
ENDBLK
  5
21
  8
0
  0
BLOCK
 67
     1
  8
0
  2
$PAPER_SPACE
 70
     0
 10
0.0
 20
0.0
 30
0.0
  3
$PAPER_SPACE
  1

  0
ENDBLK
  5
1D
 67
     1
  8
0
  0
ENDSEC
  0
SECTION
  2
ENTITIES
  0
LINE
  5
15CD
  8
0
 10
14.97607924336228
 20
56.239202890769221
 30
0.0
 11
74.476955307050332
 21
56.24126415042511
 31
0.0
  0
ARC
  5
15CE
  8
0
 10
74.477012293777705
 20
55.9914600602661
 30
0.0
 40
0.2498040966590747
 50
359.9868427740858
 51
90.01307063830852
  0
LINE
  5
15CF
  8
0
 10
74.72681638385032
 20
55.991402696025098
 30
0.0
 11
74.72681638385032
 21
27.273689632625121
 31
0.0
  0
ARC
  5
15D0
  8
0
 10
69.673670583622027
 20
27.199886468847811
 30
0.0
 40
5.0536847334740118
 50
355.1626660754643
 51
0.8367676940458791
  0
LINE
  5
15D1
  8
0
 10
74.709354714850321
 20
26.773723687925099
 30
0.0
 11
74.584386822550329
 21
26.773882702925121
 31
0.0
  0
LINE
  5
15D2
  8
0
 10
74.692618691850313
 20
26.7736498238251
 30
0.0
 11
74.69261804565032
 21
26.232537283725101
 31
0.0
  0
LINE
  5
15D3
  8
0
 10
74.69261804565032
 20
26.232537283725101
 30
0.0
 11
14.76101453698293
 21
26.23002722224934
 31
0.0
  0
ARC
  5
15D4
  8
0
 10
69.540300194071079
 20
27.199990434227509
 30
0.0
 40
5.0620527174535512
 50
355.17130689652782
 51
0.8342074747442642
  0
LINE
  5
15D5
  8
0
 10
74.601816384150311
 20
27.2736896326251
 30
0.0
 11
74.567690380150339
 21
55.957200070725087
 31
0.0
  0
ARC
  5
15D6
  8
0
 10
74.44293161562689
 20
55.957379477207219
 30
0.0
 40
0.124758893519058
 50
359.91760717415889
 51
90.0825222406514
  0
LINE
  5
15D7
  8
0
 10
74.442751927350315
 20
56.08213824132509
 30
0.0
 11
15.01088967591282
 21
56.082124778293327
 31
0.0
  0
ARC
  5
15D8
  8
0
 10
60.31690654721509
 20
56.05227820922515
 30
0.0
 40
0.0314141354971487
 50
6.09909035462303
 51
71.883595173135674
  0
LINE
  5
15D9
  8
0
 10
60.348142867116302
 20
56.055615907243592
 30
0.0
 11
60.348496306000321
 21
55.905396129075093
 31
0.0
  0
ARC
  5
15DA
  8
0
 10
60.313095716040287
 20
55.905251065237259
 30
0.0
 40
0.0354008871786746
 50
269.11580111877782
 51
0.2347841986752906
  0
LINE
  5
15DB
  8
0
 10
60.312549424800324
 20
55.8698543933751
 30
0.0
 11
59.14108315560032
 21
55.866988386475093
 31
0.0
  0
ARC
  5
15DC
  8
0
 10
59.141424070860232
 20
55.901553277551393
 30
0.0
 40
0.0345665722676032
 50
186.3822852047264
 51
269.43490716723272
  0
LINE
  5
15DD
  8
0
 10
59.107071730600317
 20
55.897710799575101
 30
0.0
 11
59.10240774300032
 21
56.052730708775108
 31
0.0
  0
ARC
  5
15DE
  8
0
 10
59.136690191873939
 20
56.047481635119937
 30
0.0
 40
0.0346819704603001
 50
92.336425941438193
 51
171.29490201796989
  0
ARC
  5
15DF
  8
0
 10
45.315261338777461
 20
56.05227820922515
 30
0.0
 40
0.0314141354971487
 50
6.09909035462303
 51
71.863672832152545
  0
LINE
  5
15E0
  8
0
 10
45.346497658678672
 20
56.055615907243592
 30
0.0
 11
45.346851097562698
 21
55.905396129075093
 31
0.0
  0
ARC
  5
15E1
  8
0
 10
45.311450507602643
 20
55.905251065237259
 30
0.0
 40
0.0354008871786746
 50
269.11580111877782
 51
0.2347841986752906
  0
LINE
  5
15E2
  8
0
 10
45.310904216362687
 20
55.8698543933751
 30
0.0
 11
44.139437947162683
 21
55.866988386475093
 31
0.0
  0
ARC
  5
15E3
  8
0
 10
44.139778862422602
 20
55.901553277551393
 30
0.0
 40
0.0345665722676032
 50
186.3822852047264
 51
269.43490716723272
  0
LINE
  5
15E4
  8
0
 10
44.105426522162688
 20
55.897710799575101
 30
0.0
 11
44.100762534562698
 21
56.052730708775108
 31
0.0
  0
ARC
  5
15E5
  8
0
 10
44.135038093072531
 20
56.047485333002463
 30
0.0
 40
0.0346745998990367
 50
92.325527892409923
 51
171.2992187679736
  0
ARC
  5
15E6
  8
0
 10
30.315330201677479
 20
56.050882736619258
 30
0.0
 40
0.0314141354971487
 50
6.09909035462303
 51
84.060743973191776
  0
LINE
  5
15E7
  8
0
 10
30.346566521578669
 20
56.054220434637699
 30
0.0
 11
30.346919960462689
 21
55.904000656469208
 31
0.0
  0
ARC
  5
15E8
  8
0
 10
30.311519370502658
 20
55.903855592631373
 30
0.0
 40
0.0354008871786746
 50
269.11580111877782
 51
0.2347841986752906
  0
LINE
  5
15E9
  8
0
 10
30.310973079262691
 20
55.868458920769207
 30
0.0
 11
29.139506810062691
 21
55.865592913869207
 31
0.0
  0
ARC
  5
15EA
  8
0
 10
29.13984772532261
 20
55.900157804945501
 30
0.0
 40
0.0345665722676032
 50
186.3822852047264
 51
269.43490716723272
  0
LINE
  5
15EB
  8
0
 10
29.105495385062689
 20
55.896315326969209
 30
0.0
 11
29.100831397462692
 21
56.051335236169223
 31
0.0
  0
ARC
  5
15EC
  8
0
 10
29.138117367153001
 20
56.044474249486562
 30
0.0
 40
0.0379119595115657
 50
96.691152472328184
 51
169.57364411734471
  0
LINE
  5
15ED
  8
0
 10
19.304976693662262
 20
54.97508797159302
 30
0.0
 11
70.149609277079477
 21
54.966559209019429
 31
0.0
  0
ARC
  5
15EE
  8
0
 10
70.11064600586198
 20
50.977846458933463
 30
0.0
 40
3.9889030496117921
 50
80.353000782557871
 51
89.440330719816117
  0
ARC
  5
15EF
  8
0
 10
70.196908278031572
 20
51.532569561590947
 30
0.0
 40
3.427577865416755
 50
14.803954572310859
 51
80.220664575209582
  0
ARC
  5
15F0
  8
0
 10
69.770104138256102
 20
51.472847637353652
 30
0.0
 40
3.8558157292519231
 50
0.8080002641035136
 51
14.04142360581535
  0
LINE
  5
15F1
  8
0
 10
73.625536463350315
 20
51.527221570125121
 30
0.0
 11
73.68485351366229
 21
31.010660470269212
 31
0.0
  0
ARC
  5
15F2
  8
0
 10
72.602369439879254
 20
30.992219109855689
 30
0.0
 40
1.082641147272642
 50
269.04741723516793
 51
0.9760050454731803
  0
LINE
  5
15F3
  8
0
 10
72.584370596062286
 20
29.909727587769211
 30
0.0
 11
20.969988129462291
 21
29.81823656946921
 31
0.0
  0
LINE
  5
15F4
  8
0
 10
20.969988129462291
 20
29.81823656946921
 30
0.0
 11
16.993327888762291
 21
29.773722955069211
 31
0.0
  0
ARC
  5
15F5
  8
0
 10
74.541193151702998
 20
46.76535322355344
 30
0.0
 40
0.0431937643367607
 50
271.51635077639929
 51
330.13785347241918
  0
LINE
  5
15F6
  8
0
 10
74.542336154784564
 20
46.722174585067101
 30
0.0
 11
74.392116376616087
 21
46.721821146183082
 31
0.0
  0
ARC
  5
15F7
  8
0
 10
74.391971312778253
 20
46.757221736143123
 30
0.0
 40
0.0354008871786746
 50
179.1158011187778
 51
270.23478419867479
  0
LINE
  5
15F8
  8
0
 10
74.356574640916079
 20
46.757768027383086
 30
0.0
 11
74.353708634016073
 21
47.929234296583083
 31
0.0
  0
ARC
  5
15F9
  8
0
 10
74.388273525092387
 20
47.928893381323178
 30
0.0
 40
0.0345665722676032
 50
96.382285204726614
 51
179.43490716723269
  0
LINE
  5
15FA
  8
0
 10
74.384431047116067
 20
47.963245721583093
 30
0.0
 11
74.539450956316102
 21
47.967909709183083
 31
0.0
  0
ARC
  5
15FB
  8
0
 10
74.529028834965771
 20
47.917863109294089
 30
0.0
 40
0.0511202775216507
 50
19.439629693738929
 51
78.236378336600026
  0
ARC
  5
15FC
  8
0
 10
74.535132701687729
 20
34.798361243860157
 30
0.0
 40
0.0765264445441506
 50
275.40126228820839
 51
319.04075799330411
  0
LINE
  5
15FD
  8
0
 10
74.542336154784564
 20
34.722174585067101
 30
0.0
 11
74.392116376616087
 21
34.721821146183089
 31
0.0
  0
ARC
  5
15FE
  8
0
 10
74.391971312778253
 20
34.757221736143123
 30
0.0
 40
0.0354008871786746
 50
179.1158011187778
 51
270.23478419867479
  0
LINE
  5
15FF
  8
0
 10
74.356574640916079
 20
34.757768027383086
 30
0.0
 11
74.353708634016073
 21
35.92923429658309
 31
0.0
  0
ARC
  5
1600
  8
0
 10
74.388273525092387
 20
35.928893381323178
 30
0.0
 40
0.0345665722676032
 50
96.382285204726614
 51
179.43490716723269
  0
LINE
  5
1601
  8
0
 10
74.384431047116095
 20
35.963245721583093
 30
0.0
 11
74.539450956316102
 21
35.96790970918309
 31
0.0
  0
ARC
  5
1602
  8
0
 10
74.519493797087392
 20
35.886210519704697
 30
0.0
 40
0.0841014016881133
 50
31.08551917265088
 51
76.272833725914012
  0
CIRCLE
  5
1603
  8
0
 10
66.228289997553105
 20
42.341180079175082
 30
0.0
 40
2.1350076127919699
  0
CIRCLE
  5
1604
  8
0
 10
66.226816290250326
 20
42.343764151425077
 30
0.0
 40
1.68536155929944
  0
ARC
  5
1605
  8
0
 10
97.254699688502043
 20
1864.0342376009701
 30
0.0
 40
1811.8446356998629
 50
267.5353765842296
 51
269.01876041929319
  0
ARC
  5
1606
  8
0
 10
66.342533356918153
 20
360.17561625644709
 30
0.0
 40
307.72034000300482
 50
269.9784541389306
 51
270.6151372787366
  0
ARC
  5
1607
  8
0
 10
69.648491373316176
 20
51.302977010039818
 30
0.0
 40
1.1700360496602831
 50
83.001292449739395
 51
90.111813240836042
  0
ARC
  5
1608
  8
0
 10
69.656677849773246
 20
51.4391396935656
 30
0.0
 40
1.0339250880662569
 50
358.035486350018
 51
82.532163141084425
  0
ARC
  5
1609
  8
0
 10
329.81619206203339
 20
42.34613430236675
 30
0.0
 40
259.284448632352
 50
177.99808403733181
 51
181.8837138085581
  0
ARC
  5
160A
  8
0
 10
69.547431535154317
 20
33.785910233054913
 30
0.0
 40
1.1250465105178269
 50
269.33467428767841
 51
1.898044792732303
  0
ARC
  5
160B
  8
0
 10
66.371663571733109
 20
-220.8964437236545
 30
0.0
 40
253.57710725021971
 50
89.285368084238286
 51
90.032728263342648
  0
ARC
  5
160C
  8
0
 10
101.74793939325509
 20
-1663.439589507431
 30
0.0
 40
1696.4921227648431
 50
91.199745725391097
 51
92.842425491868497
  0
ARC
  5
160D
  8
0
 10
17.598355234502119
 20
31.464848634546279
 30
0.0
 40
0.4999927882897076
 50
179.4886678982613
 51
272.48342012384842
  0
ARC
  5
160E
  8
0
 10
-680.83353144155785
 20
41.976129168782101
 30
0.0
 40
698.0109952805409
 50
359.13752205551617
 51
0.7812385605347774
  0
ARC
  5
160F
  8
0
 10
19.677272118008212
 20
51.316989500703649
 30
0.0
 40
2.5707498609858601
 50
97.520760989106904
 51
176.06640997943441
  0
ARC
  5
1610
  8
0
 10
14.974620684217991
 20
55.991402695625098
 30
0.0
 40
0.2478044876676686
 50
89.662759272589014
 51
180.6177679590123
  0
ARC
  5
1611
  8
0
 10
15.010678076677801
 20
55.957388938029013
 30
0.0
 40
0.1247360197404134
 50
89.902804747543286
 51
180.08688321719521
  0
ARC
  5
1612
  8
0
 10
19.308410846937822
 20
51.494634624230969
 30
0.0
 40
3.4807669485939599
 50
100.4803826750526
 51
164.77588258967791
  0
ARC
  5
1613
  8
0
 10
19.668235667567139
 20
51.485473413043657
 30
0.0
 40
3.831327234355661
 50
166.05682596539049
 51
179.37516119409241
  0
LINE
  5
1614
  8
0
 10
15.837136260462289
 20
51.527255102769217
 30
0.0
 11
15.887685697264169
 21
30.86538744915017
 31
0.0
  0
ARC
  5
1615
  8
0
 10
16.985346292919239
 20
30.871370839567032
 30
0.0
 40
1.097676903380377
 50
180.3123184196964
 51
270.41662148866169
  0
LINE
  5
1616
  8
0
 10
14.72683067176229
 20
55.98874020486921
 30
0.0
 11
14.726816290650319
 21
27.27110377856922
 31
0.0
  0
ARC
  5
1617
  8
0
 10
19.77791176587457
 20
27.19946595813413
 30
0.0
 40
5.0516034560471539
 50
179.18744961124631
 51
184.83454515427289
  0
LINE
  5
1618
  8
0
 10
14.74428077060835
 20
26.773723687925099
 30
0.0
 11
14.86927786555032
 21
26.773723687925099
 31
0.0
  0
ARC
  5
1619
  8
0
 10
20.05992976245405
 20
27.20528650730758
 30
0.0
 40
5.2085615655287834
 50
179.24843572408389
 51
184.75277250163791
  0
LINE
  5
161A
  8
0
 10
14.85181629035031
 20
27.273606662425092
 30
0.0
 11
14.88594220035033
 21
55.95719978862509
 31
0.0
  0
LINE
  5
161B
  8
0
 10
14.76101453698293
 20
26.23002722224934
 30
0.0
 11
14.761014509605859
 21
26.260806535107371
 31
0.0
  0
LINE
  5
161C
  8
0
 10
14.761014509605859
 20
26.260806535107371
 30
0.0
 11
14.761014509605859
 21
26.773723687925099
 31
0.0
  0
ARC
  5
161D
  8
0
 10
19.35342702686432
 20
50.985019422504656
 30
0.0
 40
3.9903626979525941
 50
90.695693106465399
 51
99.7849350369966
  0
ARC
  5
161E
  8
0
 10
14.913607537513389
 20
46.764425581379541
 30
0.0
 40
0.0431937643367607
 50
206.5898423354742
 51
268.48364922360059
  0
LINE
  5
161F
  8
0
 10
14.91246453443183
 20
46.721246942893181
 30
0.0
 11
15.06268431260032
 21
46.720893504009183
 31
0.0
  0
ARC
  5
1620
  8
0
 10
15.062829376438151
 20
46.75629409396921
 30
0.0
 40
0.0354008871786746
 50
269.7652158013251
 51
0.8841988812221789
  0
LINE
  5
1621
  8
0
 10
15.09822604830031
 20
46.756840385209173
 30
0.0
 11
15.10109205520032
 21
47.928306654409177
 31
0.0
  0
ARC
  5
1622
  8
0
 10
15.06652716412402
 20
47.927965739149258
 30
0.0
 40
0.0345665722676032
 50
0.5650928327672991
 51
83.617714795273386
  0
LINE
  5
1623
  8
0
 10
15.07036964210033
 20
47.962318079409172
 30
0.0
 11
14.90424310111681
 21
47.9633252032692
 31
0.0
  0
ARC
  5
1624
  8
0
 10
14.935031000305511
 20
47.902680674473032
 30
0.0
 40
0.0680121578055259
 50
116.9159074196948
 51
149.54864476598189
  0
ARC
  5
1625
  8
0
 10
14.92109677566217
 20
34.796923222745889
 30
0.0
 40
0.0765264445441506
 50
217.90018017934119
 51
264.5987377117915
  0
LINE
  5
1626
  8
0
 10
14.91389332256532
 20
34.720736563952833
 30
0.0
 11
15.06411310073381
 21
34.720383125068821
 31
0.0
  0
ARC
  5
1627
  8
0
 10
15.06425816457164
 20
34.755783715028862
 30
0.0
 40
0.0354008871786746
 50
269.7652158013251
 51
0.8841988812221789
  0
LINE
  5
1628
  8
0
 10
15.099654836433819
 20
34.756330006268811
 30
0.0
 11
15.102520843333821
 21
35.927796275468822
 31
0.0
  0
ARC
  5
1629
  8
0
 10
15.06795595225751
 20
35.92745536020891
 30
0.0
 40
0.0345665722676032
 50
0.5650928327672991
 51
83.617714795273386
  0
LINE
  5
162A
  8
0
 10
15.071798430233811
 20
35.96180770046881
 30
0.0
 11
14.916778521033789
 21
35.966471688068822
 31
0.0
  0
ARC
  5
162B
  8
0
 10
14.936735680262499
 20
35.884772498590443
 30
0.0
 40
0.0841014016881133
 50
103.727166274086
 51
152.5433864275148
  0
ATTDEF
  5
163E
  8
DEFPOINTS
 10
44.721141138405159
 20
56.247581170704308
 30
0.0
 40
0.001
  1
72171120
  3

  2
MODELNUMBER
 70
     0
1001
ACDBATTR
1070
     0
1070
     1
  0
ATTDEF
  5
163F
  8
DEFPOINTS
 10
44.721141138405159
 20
56.249453131045719
 30
0.0
 40
0.001
  1
VIKRELL
  3

  2
MATERIAL
 70
     0
1001
ACDBATTR
1070
     0
1070
     1
  0
ATTDEF
  5
1640
  8
DEFPOINTS
 10
44.721141138405159
 20
56.25148773128754
 30
0.0
 40
0.001
  1
SHOWER RECEPTOR
  3

  2
PRODUCTNAME
 70
     0
1001
ACDBATTR
1070
     0
1070
     1
  0
ATTDEF
  5
1641
  8
DEFPOINTS
 10
44.721141138405159
 20
56.253522865358377
 30
0.0
 40
0.001
  1
ENSEMBLE
  3

  2
TRADENAME
 70
     0
1001
ACDBATTR
1070
     0
1070
     1
  0
ENDSEC
  0
EOF
