  0
SECTION
  2
HEADER
  9
$ACADVER
  1
AC1009
  9
$INSBASE
 10
5.3873173939000143
 20
87.666796420799983
 30
0.0
  9
$EXTMIN
 10
-24.612682606100002
 20
52.416796420799997
 30
0.0
  9
$EXTMAX
 10
35.387317393900013
 20
87.679283429145784
 30
0.0
  9
$LIMMIN
 10
0.0
 20
0.0
  9
$LIMMAX
 10
11.692913385800001
 20
8.2677165353999982
  9
$ORTHOMODE
 70
     0
  9
$REGENMODE
 70
     1
  9
$FILLMODE
 70
     1
  9
$QTEXTMODE
 70
     0
  9
$MIRRTEXT
 70
     0
  9
$DRAGMODE
 70
     2
  9
$LTSCALE
 40
0.6431102362
  9
$OSMODE
 70
  3071
  9
$ATTMODE
 70
     1
  9
$TEXTSIZE
 40
0.2
  9
$TRACEWID
 40
0.05
  9
$TEXTSTYLE
  7
STANDARD
  9
$CLAYER
  8
0
  9
$CELTYPE
  6
BYLAYER
  9
$CECOLOR
 62
   256
  9
$DIMSCALE
 40
1.0
  9
$DIMASZ
 40
0.1875
  9
$DIMEXO
 40
0.0625
  9
$DIMDLI
 40
0.4443307087
  9
$DIMRND
 40
0.0
  9
$DIMDLE
 40
0.0
  9
$DIMEXE
 40
0.125
  9
$DIMTP
 40
0.0
  9
$DIMTM
 40
0.0
  9
$DIMTXT
 40
1.0
  9
$DIMCEN
 40
0.1052362205
  9
$DIMTSZ
 40
0.0
  9
$DIMTOL
 70
     0
  9
$DIMLIM
 70
     0
  9
$DIMTIH
 70
     1
  9
$DIMTOH
 70
     1
  9
$DIMSE1
 70
     0
  9
$DIMSE2
 70
     0
  9
$DIMTAD
 70
     0
  9
$DIMZIN
 70
     0
  9
$DIMBLK
  1

  9
$DIMASO
 70
     1
  9
$DIMSHO
 70
     1
  9
$DIMPOST
  1
\X
  9
$DIMAPOST
  1

  9
$DIMALT
 70
     1
  9
$DIMALTD
 70
     2
  9
$DIMALTF
 40
25.399999999999999
  9
$DIMLFAC
 40
1.0
  9
$DIMTOFL
 70
     0
  9
$DIMTVP
 40
0.0
  9
$DIMTIX
 70
     0
  9
$DIMSOXD
 70
     0
  9
$DIMSAH
 70
     0
  9
$DIMBLK1
  1

  9
$DIMBLK2
  1

  9
$DIMSTYLE
  2
STANDARD
  9
$DIMCLRD
 70
     0
  9
$DIMCLRE
 70
     0
  9
$DIMCLRT
 70
     0
  9
$DIMTFAC
 40
1.0
  9
$DIMGAP
 40
0.09
  9
$LUNITS
 70
     2
  9
$LUPREC
 70
     4
  9
$SKETCHINC
 40
0.1
  9
$FILLETRAD
 40
0.0
  9
$AUNITS
 70
     0
  9
$AUPREC
 70
     0
  9
$MENU
  1
.
  9
$ELEVATION
 40
0.0
  9
$PELEVATION
 40
0.0
  9
$THICKNESS
 40
0.0
  9
$LIMCHECK
 70
     0
  9
$BLIPMODE
 70
     0
  9
$CHAMFERA
 40
0.0
  9
$CHAMFERB
 40
0.0
  9
$SKPOLY
 70
     0
  9
$TDCREATE
 40
2458141.4480530792
  9
$TDUPDATE
 40
2458141.6265653358
  9
$TDINDWG
 40
0.1780250231
  9
$TDUSRTIMER
 40
0.1780250231
  9
$USRTIMER
 70
     1
  9
$ANGBASE
 50
0.0
  9
$ANGDIR
 70
     0
  9
$PDMODE
 70
     0
  9
$PDSIZE
 40
0.3125
  9
$PLINEWID
 40
0.0
  9
$COORDS
 70
     1
  9
$SPLFRAME
 70
     0
  9
$SPLINETYPE
 70
     6
  9
$SPLINESEGS
 70
     8
  9
$ATTDIA
 70
     1
  9
$ATTREQ
 70
     1
  9
$HANDLING
 70
     1
  9
$HANDSEED
  5
35EB
  9
$SURFTAB1
 70
     6
  9
$SURFTAB2
 70
     6
  9
$SURFTYPE
 70
     6
  9
$SURFU
 70
     6
  9
$SURFV
 70
     6
  9
$UCSNAME
  2

  9
$UCSORG
 10
0.0
 20
0.0
 30
0.0
  9
$UCSXDIR
 10
1.0
 20
0.0
 30
0.0
  9
$UCSYDIR
 10
0.0
 20
1.0
 30
0.0
  9
$PUCSNAME
  2

  9
$PUCSORG
 10
0.0
 20
0.0
 30
0.0
  9
$PUCSXDIR
 10
1.0
 20
0.0
 30
0.0
  9
$PUCSYDIR
 10
0.0
 20
1.0
 30
0.0
  9
$USERI1
 70
     0
  9
$USERI2
 70
     0
  9
$USERI3
 70
     0
  9
$USERI4
 70
     0
  9
$USERI5
 70
     0
  9
$USERR1
 40
0.0
  9
$USERR2
 40
0.0
  9
$USERR3
 40
0.0
  9
$USERR4
 40
0.0
  9
$USERR5
 40
0.0
  9
$WORLDVIEW
 70
     1
  9
$SHADEDGE
 70
     3
  9
$SHADEDIF
 70
    70
  9
$TILEMODE
 70
     1
  9
$MAXACTVP
 70
    48
  9
$PLIMCHECK
 70
     0
  9
$PEXTMIN
 10
1.0000000000000000E+020
 20
1.0000000000000000E+020
 30
1.0000000000000000E+020
  9
$PEXTMAX
 10
-1.0000000000000000E+020
 20
-1.0000000000000000E+020
 30
-1.0000000000000000E+020
  9
$PLIMMIN
 10
0.0
 20
0.0
  9
$PLIMMAX
 10
12.0
 20
9.0
  9
$UNITMODE
 70
     0
  9
$VISRETAIN
 70
     1
  9
$PLINEGEN
 70
     0
  9
$PSLTSCALE
 70
     1
  0
ENDSEC
  0
SECTION
  2
TABLES
  0
TABLE
  2
VPORT
 70
     1
  0
VPORT
  2
*ACTIVE
 70
     0
 10
0.0
 20
0.0
 11
1.0
 21
1.0
 12
0.0
 22
0.0
 13
0.0
 23
0.0
 14
1.0
 24
1.0
 15
0.0
 25
0.0
 16
-0.0000000000000435
 26
0.0
 36
194.2980559271046
 17
5.3873176574707031
 27
70.048040533542604
 37
0.0
 40
69.608791069525282
 41
2.0792616720955479
 42
50.0
 43
0.0
 44
0.0
 50
0.0
 51
0.0
 71
     0
 72
   100
 73
     1
 74
     1
 75
     0
 76
     0
 77
     0
 78
     0
  0
ENDTAB
  0
TABLE
  2
LTYPE
 70
     2
  0
LTYPE
  2
CONTINUOUS
 70
     0
  3
Solid line
 72
    65
 73
     0
 40
0.0
  0
LTYPE
  2
PHANTOM2
 70
     0
  3
___ _ _ ___ _ _ ___ _ _ ___ _ _
 72
    65
 73
     6
 40
1.25
 49
0.625
 49
-0.125
 49
0.125
 49
-0.125
 49
0.125
 49
-0.125
  0
ENDTAB
  0
TABLE
  2
LAYER
 70
     2
  0
LAYER
  2
0
 70
     0
 62
     7
  6
CONTINUOUS
  0
LAYER
  2
DEFPOINTS
 70
     0
 62
     7
  6
CONTINUOUS
  0
ENDTAB
  0
TABLE
  2
STYLE
 70
     1
  0
STYLE
  2
STANDARD
 70
     0
 40
0.0
 41
0.8
 50
0.0
 71
     0
 42
0.2
  3
txt
  4

  0
ENDTAB
  0
TABLE
  2
VIEW
 70
     0
  0
ENDTAB
  0
TABLE
  2
UCS
 70
     0
  0
ENDTAB
  0
TABLE
  2
APPID
 70
     7
  0
APPID
  2
ACAD
 70
     0
  0
APPID
  2
ACAD_MLEADERVER
 70
     0
  0
APPID
  2
ACAD_NAV_VCDISPLAY
 70
     0
  0
APPID
  2
ACAD_DSTYLE_DIMJAG
 70
     0
  0
APPID
  2
ACAD_DSTYLE_DIMTALN
 70
     0
  0
APPID
  2
ACAD_EXEMPT_FROM_CAD_STANDARDS
 70
     0
  0
APPID
  2
AcDbAttr
 70
     0
  0
ENDTAB
  0
TABLE
  2
DIMSTYLE
 70
     1
  0
DIMSTYLE
  2
STANDARD
 70
     0
  3

  4

  5

  6

  7

 40
1.0
 41
0.1875
 42
0.0625
 43
0.38
 44
0.125
 45
0.0
 46
0.0
 47
1.5
 48
1.5
140
0.15625
141
0.09
142
0.0
143
25.399999999999999
144
1.0
145
0.0
146
1.0
147
0.09
 71
     0
 72
     0
 73
     1
 74
     1
 75
     0
 76
     0
 77
     0
 78
     4
170
     0
171
     2
172
     0
173
     0
174
     0
175
     0
176
     0
177
     0
178
     0
  0
ENDTAB
  0
ENDSEC
  0
SECTION
  2
BLOCKS
  0
BLOCK
  8
0
  2
$MODEL_SPACE
 70
     0
 10
0.0
 20
0.0
 30
0.0
  3
$MODEL_SPACE
  1

  0
ENDBLK
  5
21
  8
0
  0
BLOCK
 67
     1
  8
0
  2
$PAPER_SPACE
 70
     0
 10
0.0
 20
0.0
 30
0.0
  3
$PAPER_SPACE
  1

  0
ENDBLK
  5
1D
 67
     1
  8
0
  0
ENDSEC
  0
SECTION
  2
ENTITIES
  0
LINE
  5
1E04
  8
0
 10
35.288172625100003
 20
87.666796420799983
 30
0.0
 11
-24.513537837299999
 21
87.666796420799983
 31
0.0
  0
LINE
  5
1E06
  8
0
 10
-24.612682606100002
 20
87.496796541303283
 30
0.0
 11
-24.612682606100002
 21
52.416796420799997
 31
0.0
  0
LINE
  5
1E07
  8
0
 10
-24.612682606100002
 20
52.416796420799997
 30
0.0
 11
-24.502682606100009
 21
52.416796420799997
 31
0.0
  0
LINE
  5
1E08
  8
0
 10
-24.502682606100009
 20
52.416796420799997
 30
0.0
 11
-24.502989583448791
 21
81.984881721967184
 31
0.0
  0
LINE
  5
1E09
  8
0
 10
-24.502699060012191
 20
81.984876650860755
 30
0.0
 11
-24.405441139135458
 21
87.556796376600005
 31
0.0
  0
LINE
  5
1E0A
  8
0
 10
-24.405441139135458
 20
87.556796376600005
 30
0.0
 11
35.180075926900003
 21
87.556796376600005
 31
0.0
  0
ARC
  5
1E4C
  8
0
 10
-24.40032529872061
 20
87.486859510503805
 30
0.0
 40
0.2125896765568132
 50
122.17724384041099
 51
177.32086022918219
  0
LINE
  5
1E4D
  8
0
 10
-24.612682606100002
 20
81.986796420800005
 30
0.0
 11
-23.112516172699909
 21
81.960610918284956
 31
0.0
  0
ARC
  5
1E4E
  8
0
 10
-23.12200188888567
 20
81.417174602313864
 30
0.0
 40
0.5435190965621858
 50
29.629003914623691
 51
88.99999999935342
  0
ARC
  5
1E4F
  8
0
 10
-23.49701404373139
 20
81.448996870750236
 30
0.0
 40
0.8799476960576962
 50
354.84929746578712
 51
15.616792454169779
  0
LINE
  5
1E57
  8
0
 10
-22.620619567199999
 20
81.369998963800001
 30
0.0
 11
-22.471511221749999
 21
58.14214242664999
 31
0.0
  0
ARC
  5
1E58
  8
0
 10
-22.88951443945578
 20
58.133651583824552
 30
0.0
 40
0.4180894454829924
 50
274.9382190913077
 51
1.1636813876623979
  0
ARC
  5
1E59
  8
0
 10
-22.843481827347858
 20
57.600880483978138
 30
0.0
 40
0.1166666168566833
 50
94.938219091308284
 51
168.5692003053222
  0
LINE
  5
1E5A
  8
0
 10
-22.957834336319571
 20
57.624001971401313
 30
0.0
 11
-22.9336546774
 21
53.819735639699992
 31
0.0
  0
ARC
  5
1E5B
  8
0
 10
-23.05865215260863
 20
53.818941164203082
 30
0.0
 40
0.1250000000086088
 50
271.00000000254198
 51
0.364163195032674
  0
LINE
  5
1E5C
  8
0
 10
-23.056470601798271
 20
53.693960202300019
 30
0.0
 11
-24.502682606098269
 21
53.668716477800821
 31
0.0
  0
ARC
  5
1E5D
  8
0
 10
-23.94995053327715
 20
82.032743551470489
 30
0.0
 40
0.0668845437625828
 50
299.70742335816237
 51
344.81684322911877
  0
LINE
  5
1E5E
  8
0
 10
-23.885400692936859
 20
82.015226122824373
 30
0.0
 11
-23.86217276960026
 21
82.458366737994993
 31
0.0
  0
ARC
  5
1E5F
  8
0
 10
-23.832213896100011
 20
82.456796420800046
 30
0.0
 40
0.0299999999999859
 50
90.000000954899207
 51
176.9995438559861
  0
LINE
  5
1E60
  8
0
 10
-23.832213896599999
 20
82.486796420800005
 30
0.0
 11
-23.589151316199999
 21
82.486796424850908
 31
0.0
  0
ARC
  5
1E61
  8
0
 10
-23.589151315700011
 20
82.456796425545718
 30
0.0
 40
0.029999999305204
 50
3.0004469531542362
 51
90.000000954884683
  0
LINE
  5
1E62
  8
0
 10
-23.559192442600001
 20
82.458366737899993
 30
0.0
 11
-23.53596495950146
 21
82.015226099868656
 31
0.0
  0
ARC
  5
1E63
  8
0
 10
-23.481133727580101
 20
82.018100111871661
 30
0.0
 40
0.0549065017917446
 50
183.0004469531516
 51
247.3897975124784
  0
ARC
  5
1EA5
  8
0
 10
-23.01076783160007
 20
82.154927625260356
 30
0.0
 40
0.2053368852906165
 50
269.44676914747799
 51
347.25122479166339
  0
LINE
  5
1EA6
  8
0
 10
-22.81049310872805
 20
82.109614582553149
 30
0.0
 11
-22.790801520599999
 21
83.213910658499984
 31
0.0
  0
ARC
  5
1EA7
  8
0
 10
-19.945835212975592
 20
83.068715062575833
 30
0.0
 40
2.8486689966708831
 50
90.938340747003068
 51
177.07838955281781
  0
LINE
  5
1EA8
  8
0
 10
-19.992486165799999
 20
85.916796420799997
 30
0.0
 11
-13.4682083415
 21
85.916795475900003
 31
0.0
  0
ARC
  5
1EA9
  8
0
 10
-13.47441307625189
 20
85.784722937114907
 30
0.0
 40
0.1322182068948219
 50
35.645689838344481
 51
87.310236339672187
  0
ARC
  5
1EAA
  8
0
 10
-12.874679123445141
 20
86.214814069900939
 30
0.0
 40
0.6057920888669561
 50
215.64568983834471
 51
254.031373732871
  0
ARC
  5
1EAB
  8
0
 10
-12.990026963233509
 20
85.265607132730153
 30
0.0
 40
0.3703626288836069
 50
97.963708509143913
 51
179.26584043188561
  0
LINE
  5
1EED
  8
0
 10
-13.36035918838607
 20
85.270352645044326
 30
0.0
 11
-13.383376609800001
 21
83.951886292500006
 31
0.0
  0
ARC
  5
1EEE
  8
0
 10
-15.38307190746603
 20
83.986796420943904
 30
0.0
 40
2.0000000001439009
 50
270.00000001621572
 51
358.99984770119931
  0
LINE
  5
1EEF
  8
0
 10
-15.3830719069
 20
81.986796420800005
 30
0.0
 11
-22.876278773799999
 21
82.001701342800004
 31
0.0
  0
LINE
  5
1EF0
  8
0
 10
-13.04133916154996
 20
85.632397992999984
 30
0.0
 11
23.815973949349999
 21
85.632397992999984
 31
0.0
  0
CIRCLE
  5
1F32
  8
0
 10
5.3873173939000001
 20
71.836796420799999
 30
0.0
 40
1.781500000000001
  0
CIRCLE
  5
1F33
  8
0
 10
5.3873173939000001
 20
71.836796420799999
 30
0.0
 40
2.3047850526000011
  0
LINE
  5
1F75
  8
0
 10
-24.502682606100009
 20
53.668716477899999
 30
0.0
 11
35.277317393899999
 21
53.668716477899999
 31
0.0
  0
ARC
  5
1F76
  8
0
 10
-20.252206048240101
 20
60.4004742352652
 30
0.0
 40
3.0040368601628549
 50
222.33010819480231
 51
267.89241327883138
  0
LINE
  5
1F77
  8
0
 10
-20.362682606099071
 20
57.39846950719086
 30
0.0
 11
31.137317393899998
 21
57.398566595299997
 31
0.0
  0
LINE
  5
1F78
  8
0
 10
35.387317393900013
 20
87.496796548450646
 30
0.0
 11
35.387317393900013
 21
52.416796420799997
 31
0.0
  0
LINE
  5
1F79
  8
0
 10
35.387317393900013
 20
52.416796420799997
 30
0.0
 11
35.277317393900013
 21
52.416796420799997
 31
0.0
  0
LINE
  5
1F7A
  8
0
 10
35.277317393900013
 20
52.416796420799997
 30
0.0
 11
35.277624371248791
 21
81.984881721967184
 31
0.0
  0
LINE
  5
1F7B
  8
0
 10
35.277333847812201
 20
81.984876650860755
 30
0.0
 11
35.180075926935459
 21
87.556796376600005
 31
0.0
  0
ARC
  5
1F7C
  8
0
 10
35.174960085431813
 20
87.486859509450994
 30
0.0
 40
0.212589678027741
 50
2.6791419647430739
 51
57.822756062322028
  0
LINE
  5
1F7D
  8
0
 10
35.387317393900013
 20
81.986796420800005
 30
0.0
 11
33.887150960499909
 21
81.960610918284956
 31
0.0
  0
ARC
  5
1F7E
  8
0
 10
33.896636676685667
 20
81.417174602313864
 30
0.0
 40
0.5435190965621858
 50
91.000000000646637
 51
150.37099608537631
  0
ARC
  5
1F7F
  8
0
 10
34.271648831531387
 20
81.448996870750236
 30
0.0
 40
0.8799476960576962
 50
164.3832075458302
 51
185.15070253421291
  0
LINE
  5
1F80
  8
0
 10
33.395254355000013
 20
81.369998963800001
 30
0.0
 11
33.246146009550003
 21
58.14214242664999
 31
0.0
  0
ARC
  5
1F81
  8
0
 10
33.664149227255777
 20
58.133651583824552
 30
0.0
 40
0.4180894454829924
 50
178.83631861233761
 51
265.06178090869241
  0
ARC
  5
1F82
  8
0
 10
33.618116615147869
 20
57.600880483978138
 30
0.0
 40
0.1166666168566833
 50
11.430799694677811
 51
85.061780908691745
  0
LINE
  5
1F83
  8
0
 10
33.732469124119568
 20
57.624001971401313
 30
0.0
 11
33.708289465199996
 21
53.819735639699992
 31
0.0
  0
ARC
  5
1F84
  8
0
 10
33.833286940408627
 20
53.818941164203082
 30
0.0
 40
0.1250000000086088
 50
179.63583680496731
 51
268.99999999745802
  0
LINE
  5
1F85
  8
0
 10
33.831105389598278
 20
53.693960202300019
 30
0.0
 11
35.277330391394649
 21
53.668716250928661
 31
0.0
  0
ARC
  5
1F86
  8
0
 10
34.724585321077157
 20
82.032743551470489
 30
0.0
 40
0.0668845437625828
 50
195.1831567708812
 51
240.2925766418376
  0
LINE
  5
1F87
  8
0
 10
34.660035480736873
 20
82.015226122824373
 30
0.0
 11
34.63680755740026
 21
82.458366737994993
 31
0.0
  0
ARC
  5
1F88
  8
0
 10
34.606848683900012
 20
82.456796420800046
 30
0.0
 40
0.0299999999999859
 50
3.0004561440138562
 51
89.999999045100793
  0
LINE
  5
1F89
  8
0
 10
34.606848684399999
 20
82.486796420800005
 30
0.0
 11
34.363786103999999
 21
82.486796424850908
 31
0.0
  0
ARC
  5
1F8A
  8
0
 10
34.363786103500011
 20
82.456796425545718
 30
0.0
 40
0.029999999305204
 50
89.999999045115345
 51
176.9995530468457
  0
LINE
  5
1F8B
  8
0
 10
34.333827230400011
 20
82.458366737899993
 30
0.0
 11
34.310599747301453
 21
82.015226099868656
 31
0.0
  0
ARC
  5
1F8C
  8
0
 10
34.255768515380097
 20
82.018100111871661
 30
0.0
 40
0.0549065017917446
 50
292.61020248752152
 51
356.99955304684829
  0
ARC
  5
1F8D
  8
0
 10
33.785402619400081
 20
82.154927625260356
 30
0.0
 40
0.2053368852906165
 50
192.7487752083365
 51
270.55323085252212
  0
LINE
  5
1F8E
  8
0
 10
33.58512789652805
 20
82.109614582553149
 30
0.0
 11
33.565436308400002
 21
83.213910658499984
 31
0.0
  0
ARC
  5
1F8F
  8
0
 10
30.720470000775592
 20
83.068715062575833
 30
0.0
 40
2.8486689966708831
 50
2.9216104471821529
 51
89.061659252996989
  0
LINE
  5
1F90
  8
0
 10
30.767120953599999
 20
85.916796420799997
 30
0.0
 11
24.242843129299999
 21
85.916795475900003
 31
0.0
  0
ARC
  5
1F91
  8
0
 10
24.249047864051889
 20
85.784722937114907
 30
0.0
 40
0.1322182068948219
 50
92.689763660327756
 51
144.35431016165549
  0
ARC
  5
1F92
  8
0
 10
23.649313911245141
 20
86.214814069900939
 30
0.0
 40
0.6057920888669561
 50
285.96862626712908
 51
324.35431016165529
  0
ARC
  5
1F93
  8
0
 10
23.764661751033511
 20
85.265607132730153
 30
0.0
 40
0.3703626288836069
 50
0.734159568114362
 51
82.036291490856044
  0
LINE
  5
1F94
  8
0
 10
24.134993976186081
 20
85.270352645044326
 30
0.0
 11
24.158011397599999
 21
83.951886292500006
 31
0.0
  0
ARC
  5
1F95
  8
0
 10
26.157706695266029
 20
83.986796420943904
 30
0.0
 40
2.0000000001439009
 50
181.00015229880071
 51
269.99999998378428
  0
LINE
  5
1F96
  8
0
 10
26.1577066947
 20
81.986796420800005
 30
0.0
 11
33.650913561600007
 21
82.001701342800004
 31
0.0
  0
ARC
  5
1F97
  8
0
 10
31.026840836040101
 20
60.4004742352652
 30
0.0
 40
3.0040368601628549
 50
272.1075867211685
 51
317.66989180519772
  0
ATTDEF
  5
3560
  8
DEFPOINTS
 10
5.385320006035669
 20
87.678283429145765
 30
0.0
 40
0.001
  1
72130100
  3

  2
MODELNUMBER
 70
     0
1001
AcDbAttr
1070
     0
1070
     1
  0
ATTDEF
  5
3561
  8
DEFPOINTS
 10
5.385320006035669
 20
87.676616762479085
 30
0.0
 40
0.001
  1
ENSEMBLE
  3

  2
TRADENAME
 70
     0
1001
AcDbAttr
1070
     0
1070
     1
  0
ATTDEF
  5
3562
  8
DEFPOINTS
 10
5.385320006035669
 20
87.674950095812406
 30
0.0
 40
0.001
  1
SHOWER STALL
  3

  2
PRODUCT
 70
     0
1001
AcDbAttr
1070
     0
1070
     1
  0
ATTDEF
  5
3563
  8
DEFPOINTS
 10
5.385320006035669
 20
87.673283429145741
 30
0.0
 40
0.001
  1
VIKRELL
  3

  2
MATERIAL
 70
     0
1001
AcDbAttr
1070
     0
1070
     1
  0
ENDSEC
  0
EOF
