  0
SECTION
  2
HEADER
  9
$ACADVER
  1
AC1009
  9
$INSBASE
 10
5.387317393900001
 20
-34.940113316000001
 30
0.0
  9
$EXTMIN
 10
-24.612682606100002
 20
-34.951953579001987
 30
0.0
  9
$EXTMAX
 10
35.387317393900013
 20
41.973236654699988
 30
0.0
  9
$LIMMIN
 10
0.0
 20
0.0
  9
$LIMMAX
 10
11.692913385800001
 20
8.2677165353999982
  9
$ORTHOMODE
 70
     0
  9
$REGENMODE
 70
     1
  9
$FILLMODE
 70
     1
  9
$QTEXTMODE
 70
     0
  9
$MIRRTEXT
 70
     0
  9
$DRAGMODE
 70
     2
  9
$LTSCALE
 40
0.6431102362
  9
$OSMODE
 70
  3071
  9
$ATTMODE
 70
     1
  9
$TEXTSIZE
 40
0.2
  9
$TRACEWID
 40
0.05
  9
$TEXTSTYLE
  7
STANDARD
  9
$CLAYER
  8
0
  9
$CELTYPE
  6
BYLAYER
  9
$CECOLOR
 62
   256
  9
$DIMSCALE
 40
1.0
  9
$DIMASZ
 40
0.1875
  9
$DIMEXO
 40
0.0625
  9
$DIMDLI
 40
0.4443307087
  9
$DIMRND
 40
0.0
  9
$DIMDLE
 40
0.0
  9
$DIMEXE
 40
0.125
  9
$DIMTP
 40
0.0
  9
$DIMTM
 40
0.0
  9
$DIMTXT
 40
1.0
  9
$DIMCEN
 40
0.1052362205
  9
$DIMTSZ
 40
0.0
  9
$DIMTOL
 70
     0
  9
$DIMLIM
 70
     0
  9
$DIMTIH
 70
     1
  9
$DIMTOH
 70
     1
  9
$DIMSE1
 70
     0
  9
$DIMSE2
 70
     0
  9
$DIMTAD
 70
     0
  9
$DIMZIN
 70
     0
  9
$DIMBLK
  1

  9
$DIMASO
 70
     1
  9
$DIMSHO
 70
     1
  9
$DIMPOST
  1
\X
  9
$DIMAPOST
  1

  9
$DIMALT
 70
     1
  9
$DIMALTD
 70
     2
  9
$DIMALTF
 40
25.399999999999999
  9
$DIMLFAC
 40
1.0
  9
$DIMTOFL
 70
     0
  9
$DIMTVP
 40
0.0
  9
$DIMTIX
 70
     0
  9
$DIMSOXD
 70
     0
  9
$DIMSAH
 70
     0
  9
$DIMBLK1
  1

  9
$DIMBLK2
  1

  9
$DIMSTYLE
  2
STANDARD
  9
$DIMCLRD
 70
     0
  9
$DIMCLRE
 70
     0
  9
$DIMCLRT
 70
     0
  9
$DIMTFAC
 40
1.0
  9
$DIMGAP
 40
0.09
  9
$LUNITS
 70
     2
  9
$LUPREC
 70
     4
  9
$SKETCHINC
 40
0.1
  9
$FILLETRAD
 40
0.0
  9
$AUNITS
 70
     0
  9
$AUPREC
 70
     0
  9
$MENU
  1
.
  9
$ELEVATION
 40
0.0
  9
$PELEVATION
 40
0.0
  9
$THICKNESS
 40
0.0
  9
$LIMCHECK
 70
     0
  9
$BLIPMODE
 70
     0
  9
$CHAMFERA
 40
0.0
  9
$CHAMFERB
 40
0.0
  9
$SKPOLY
 70
     0
  9
$TDCREATE
 40
2458141.4480530792
  9
$TDUPDATE
 40
2458141.6267883801
  9
$TDINDWG
 40
0.1781955324
  9
$TDUSRTIMER
 40
0.1781955324
  9
$USRTIMER
 70
     1
  9
$ANGBASE
 50
0.0
  9
$ANGDIR
 70
     0
  9
$PDMODE
 70
     0
  9
$PDSIZE
 40
0.3125
  9
$PLINEWID
 40
0.0
  9
$COORDS
 70
     1
  9
$SPLFRAME
 70
     0
  9
$SPLINETYPE
 70
     6
  9
$SPLINESEGS
 70
     8
  9
$ATTDIA
 70
     1
  9
$ATTREQ
 70
     1
  9
$HANDLING
 70
     1
  9
$HANDSEED
  5
35AA
  9
$SURFTAB1
 70
     6
  9
$SURFTAB2
 70
     6
  9
$SURFTYPE
 70
     6
  9
$SURFU
 70
     6
  9
$SURFV
 70
     6
  9
$UCSNAME
  2

  9
$UCSORG
 10
0.0
 20
0.0
 30
0.0
  9
$UCSXDIR
 10
1.0
 20
0.0
 30
0.0
  9
$UCSYDIR
 10
0.0
 20
1.0
 30
0.0
  9
$PUCSNAME
  2

  9
$PUCSORG
 10
0.0
 20
0.0
 30
0.0
  9
$PUCSXDIR
 10
1.0
 20
0.0
 30
0.0
  9
$PUCSYDIR
 10
0.0
 20
1.0
 30
0.0
  9
$USERI1
 70
     0
  9
$USERI2
 70
     0
  9
$USERI3
 70
     0
  9
$USERI4
 70
     0
  9
$USERI5
 70
     0
  9
$USERR1
 40
0.0
  9
$USERR2
 40
0.0
  9
$USERR3
 40
0.0
  9
$USERR4
 40
0.0
  9
$USERR5
 40
0.0
  9
$WORLDVIEW
 70
     1
  9
$SHADEDGE
 70
     3
  9
$SHADEDIF
 70
    70
  9
$TILEMODE
 70
     1
  9
$MAXACTVP
 70
    48
  9
$PLIMCHECK
 70
     0
  9
$PEXTMIN
 10
1.0000000000000000E+020
 20
1.0000000000000000E+020
 30
1.0000000000000000E+020
  9
$PEXTMAX
 10
-1.0000000000000000E+020
 20
-1.0000000000000000E+020
 30
-1.0000000000000000E+020
  9
$PLIMMIN
 10
0.0
 20
0.0
  9
$PLIMMAX
 10
12.0
 20
9.0
  9
$UNITMODE
 70
     0
  9
$VISRETAIN
 70
     1
  9
$PLINEGEN
 70
     0
  9
$PSLTSCALE
 70
     1
  0
ENDSEC
  0
SECTION
  2
TABLES
  0
TABLE
  2
VPORT
 70
     1
  0
VPORT
  2
*ACTIVE
 70
     0
 10
0.0
 20
0.0
 11
1.0
 21
1.0
 12
0.0
 22
0.0
 13
0.0
 23
0.0
 14
1.0
 24
1.0
 15
0.0
 25
0.0
 16
-0.0000000000000604
 26
0.0
 36
272.36572798437868
 17
5.3873176574707031
 27
3.510641252491197
 37
0.0
 40
97.573741992182988
 41
2.0792616720955479
 42
50.0
 43
0.0
 44
0.0
 50
0.0
 51
0.0
 71
     0
 72
   100
 73
     1
 74
     1
 75
     0
 76
     0
 77
     0
 78
     0
  0
ENDTAB
  0
TABLE
  2
LTYPE
 70
     2
  0
LTYPE
  2
CONTINUOUS
 70
     0
  3
Solid line
 72
    65
 73
     0
 40
0.0
  0
LTYPE
  2
PHANTOM2
 70
     0
  3
___ _ _ ___ _ _ ___ _ _ ___ _ _
 72
    65
 73
     6
 40
1.25
 49
0.625
 49
-0.125
 49
0.125
 49
-0.125
 49
0.125
 49
-0.125
  0
ENDTAB
  0
TABLE
  2
LAYER
 70
     2
  0
LAYER
  2
0
 70
     0
 62
     7
  6
CONTINUOUS
  0
LAYER
  2
DEFPOINTS
 70
     0
 62
     7
  6
CONTINUOUS
  0
ENDTAB
  0
TABLE
  2
STYLE
 70
     1
  0
STYLE
  2
STANDARD
 70
     0
 40
0.0
 41
0.8
 50
0.0
 71
     0
 42
0.2
  3
txt
  4

  0
ENDTAB
  0
TABLE
  2
VIEW
 70
     0
  0
ENDTAB
  0
TABLE
  2
UCS
 70
     0
  0
ENDTAB
  0
TABLE
  2
APPID
 70
     7
  0
APPID
  2
ACAD
 70
     0
  0
APPID
  2
ACAD_MLEADERVER
 70
     0
  0
APPID
  2
ACAD_NAV_VCDISPLAY
 70
     0
  0
APPID
  2
ACAD_DSTYLE_DIMJAG
 70
     0
  0
APPID
  2
ACAD_DSTYLE_DIMTALN
 70
     0
  0
APPID
  2
ACAD_EXEMPT_FROM_CAD_STANDARDS
 70
     0
  0
APPID
  2
AcDbAttr
 70
     0
  0
ENDTAB
  0
TABLE
  2
DIMSTYLE
 70
     1
  0
DIMSTYLE
  2
STANDARD
 70
     0
  3

  4

  5

  6

  7

 40
1.0
 41
0.1875
 42
0.0625
 43
0.38
 44
0.125
 45
0.0
 46
0.0
 47
1.5
 48
1.5
140
0.15625
141
0.09
142
0.0
143
25.399999999999999
144
1.0
145
0.0
146
1.0
147
0.09
 71
     0
 72
     0
 73
     1
 74
     1
 75
     0
 76
     0
 77
     0
 78
     4
170
     0
171
     2
172
     0
173
     0
174
     0
175
     0
176
     0
177
     0
178
     0
  0
ENDTAB
  0
ENDSEC
  0
SECTION
  2
BLOCKS
  0
BLOCK
  8
0
  2
$MODEL_SPACE
 70
     0
 10
0.0
 20
0.0
 30
0.0
  3
$MODEL_SPACE
  1

  0
ENDBLK
  5
21
  8
0
  0
BLOCK
 67
     1
  8
0
  2
$PAPER_SPACE
 70
     0
 10
0.0
 20
0.0
 30
0.0
  3
$PAPER_SPACE
  1

  0
ENDBLK
  5
1D
 67
     1
  8
0
  0
ENDSEC
  0
SECTION
  2
ENTITIES
  0
LINE
  5
1F98
  8
0
 10
35.288172625100003
 20
41.973236654699988
 30
0.0
 11
-24.513537837299999
 21
41.973236654699988
 31
0.0
  0
LINE
  5
1F99
  8
0
 10
-24.513537837299999
 20
41.973236654699988
 30
0.0
 11
-24.589522491499999
 21
41.821221030300002
 31
0.0
  0
LINE
  5
1F9A
  8
0
 10
-24.589522491499999
 20
41.821221030300002
 30
0.0
 11
-24.59385196131452
 21
41.773899811727937
 31
0.0
  0
LINE
  5
1F9B
  8
0
 10
-24.612682606100002
 20
41.774886684000002
 30
0.0
 11
-24.502682606100009
 21
41.769121828300001
 31
0.0
  0
LINE
  5
1F9C
  8
0
 10
-24.502682606100009
 20
41.769121828300001
 30
0.0
 11
-24.502682606100009
 21
-30.2760726056
 31
0.0
  0
LINE
  5
1F9D
  8
0
 10
-24.502682606100009
 20
-30.2760726056
 30
0.0
 11
-24.612682606100002
 21
-30.2760726056
 31
0.0
  0
LINE
  5
1F9E
  8
0
 10
-24.612682606100002
 20
41.774886684000002
 30
0.0
 11
-24.612682606100002
 21
-30.475113316000002
 31
0.0
  0
LINE
  5
1F9F
  8
0
 10
-24.612682606100002
 20
-30.475113316000002
 30
0.0
 11
35.387317393899998
 21
-30.475113316000002
 31
0.0
  0
LINE
  5
1FA0
  8
0
 10
-24.57766139726743
 20
-30.475113316000002
 30
0.0
 11
-24.577698137900001
 21
-34.840113316
 31
0.0
  0
LINE
  5
1FA1
  8
0
 10
-24.577698137900001
 20
-34.840113316
 30
0.0
 11
-24.552675277700001
 21
-34.940113316000001
 31
0.0
  0
LINE
  5
1FA2
  8
0
 10
-24.552675277700001
 20
-34.940113316000001
 30
0.0
 11
35.327310065399999
 21
-34.940113316000001
 31
0.0
  0
LINE
  5
1FE4
  8
0
 10
-24.589525558263009
 20
41.821187510500003
 30
0.0
 11
-24.479522490200001
 21
41.821187510500003
 31
0.0
  0
LINE
  5
1FE5
  8
0
 10
-24.479522490200001
 20
41.821187510500003
 30
0.0
 11
-24.405441138400001
 21
41.969395373100909
 31
0.0
  0
LINE
  5
1FE6
  8
0
 10
-24.405441138400001
 20
41.969395373100909
 30
0.0
 11
35.180075926199997
 21
41.969395373100909
 31
0.0
  0
LINE
  5
1FE7
  8
0
 10
-24.405441137600011
 20
41.969395368500003
 30
0.0
 11
-24.405441138400001
 21
40.708527687622329
 31
0.0
  0
LINE
  5
1FE8
  8
0
 10
-24.405441138400001
 20
40.708527687622329
 30
0.0
 11
-24.502682606100009
 21
40.519121828235697
 31
0.0
  0
LINE
  5
1FE9
  8
0
 10
-24.405441138400001
 20
40.708527684699988
 30
0.0
 11
-22.922248039999999
 21
40.630749444599999
 31
0.0
  0
ARC
  5
1FEA
  8
0
 10
-18.735368249324779
 20
120.4725046884341
 30
0.0
 40
79.951459291234201
 50
266.99817458861168
 51
269.99999764143831
  0
LINE
  5
1FEB
  8
0
 10
-18.735371540500001
 20
40.521045397199998
 30
0.0
 11
29.510006329683382
 21
40.521043411195052
 31
0.0
  0
CIRCLE
  5
202D
  8
0
 10
-23.487682606100002
 20
41.399886684000002
 30
0.0
 40
0.0939997297000004
  0
CIRCLE
  5
202E
  8
0
 10
-22.737682606100002
 20
41.399886684000002
 30
0.0
 40
0.0939997297000004
  0
CIRCLE
  5
202F
  8
0
 10
-21.987682606100002
 20
41.399886684000002
 30
0.0
 40
0.0939997297000004
  0
CIRCLE
  5
2030
  8
0
 10
-21.237682606100002
 20
41.399886684000002
 30
0.0
 40
0.0939997297000004
  0
CIRCLE
  5
2031
  8
0
 10
-20.487682606100002
 20
41.399886684000002
 30
0.0
 40
0.0939997297000004
  0
CIRCLE
  5
2032
  8
0
 10
-19.737682606100002
 20
41.399886684000002
 30
0.0
 40
0.0939997297000004
  0
CIRCLE
  5
2033
  8
0
 10
-18.987682606099991
 20
41.399886684000002
 30
0.0
 40
0.0939997297000004
  0
CIRCLE
  5
2034
  8
0
 10
-18.237682606100002
 20
41.399886684000002
 30
0.0
 40
0.0939997297000004
  0
CIRCLE
  5
2035
  8
0
 10
-17.487682606100002
 20
41.399886684000002
 30
0.0
 40
0.0939997297000004
  0
CIRCLE
  5
2036
  8
0
 10
-16.737682606100002
 20
41.399886684000002
 30
0.0
 40
0.0939997297000004
  0
CIRCLE
  5
2037
  8
0
 10
-15.9876826061
 20
41.399886684000002
 30
0.0
 40
0.0939997297000004
  0
CIRCLE
  5
2038
  8
0
 10
-15.237682606099989
 20
41.399886684000002
 30
0.0
 40
0.0939997297000004
  0
CIRCLE
  5
2039
  8
0
 10
-14.4876826061
 20
41.399886684000002
 30
0.0
 40
0.0939997297000004
  0
CIRCLE
  5
203A
  8
0
 10
-13.7376826061
 20
41.399886684000002
 30
0.0
 40
0.0939997297000004
  0
CIRCLE
  5
203B
  8
0
 10
-12.9876826061
 20
41.399886684000002
 30
0.0
 40
0.0939997297000004
  0
CIRCLE
  5
203C
  8
0
 10
-12.2376826061
 20
41.399886684000002
 30
0.0
 40
0.0939997297000004
  0
CIRCLE
  5
203D
  8
0
 10
-11.4876826061
 20
41.399886684000002
 30
0.0
 40
0.0939997297000004
  0
CIRCLE
  5
203E
  8
0
 10
-10.7376826061
 20
41.399886684000002
 30
0.0
 40
0.0939997297000004
  0
CIRCLE
  5
203F
  8
0
 10
-9.9876826060999981
 20
41.399886684000002
 30
0.0
 40
0.0939997297000004
  0
CIRCLE
  5
2040
  8
0
 10
-9.2376826060999981
 20
41.399886684000002
 30
0.0
 40
0.0939997297000004
  0
CIRCLE
  5
2042
  8
0
 10
-8.4876826060999981
 20
41.399886684000002
 30
0.0
 40
0.0939997297000004
  0
CIRCLE
  5
2043
  8
0
 10
-7.737682606099999
 20
41.399886684000002
 30
0.0
 40
0.0939997297000004
  0
CIRCLE
  5
2044
  8
0
 10
-6.9876826061000008
 20
41.399886684000002
 30
0.0
 40
0.0939997297000004
  0
CIRCLE
  5
2045
  8
0
 10
-6.2376826061000008
 20
41.399886684000002
 30
0.0
 40
0.0939997297000004
  0
CIRCLE
  5
2046
  8
0
 10
-5.4876826061000008
 20
41.399886684000002
 30
0.0
 40
0.0939997297000004
  0
CIRCLE
  5
2047
  8
0
 10
-4.7376826061000008
 20
41.399886684000002
 30
0.0
 40
0.0939997297000004
  0
CIRCLE
  5
2048
  8
0
 10
-3.9876826061000008
 20
41.399886684000002
 30
0.0
 40
0.0939997297000004
  0
CIRCLE
  5
2049
  8
0
 10
-3.2376826061000008
 20
41.399886684000002
 30
0.0
 40
0.0939997297000004
  0
CIRCLE
  5
204A
  8
0
 10
-2.4876826061000008
 20
41.399886684000002
 30
0.0
 40
0.0939997297000004
  0
CIRCLE
  5
204B
  8
0
 10
-1.737682606100001
 20
41.399886684000002
 30
0.0
 40
0.0939997297000004
  0
CIRCLE
  5
204C
  8
0
 10
-0.9876826061000016
 20
41.399886684000002
 30
0.0
 40
0.0939997297000004
  0
CIRCLE
  5
204D
  8
0
 10
-0.2376826061000017
 20
41.399886684000002
 30
0.0
 40
0.0939997297000004
  0
CIRCLE
  5
204E
  8
0
 10
0.5123173938999983
 20
41.399886684000002
 30
0.0
 40
0.0939997297000004
  0
CIRCLE
  5
204F
  8
0
 10
1.2623173938999981
 20
41.399886684000002
 30
0.0
 40
0.0939997297000004
  0
CIRCLE
  5
2050
  8
0
 10
2.0123173938999979
 20
41.399886684000002
 30
0.0
 40
0.0939997297000004
  0
CIRCLE
  5
2051
  8
0
 10
2.7623173938999979
 20
41.399886684000002
 30
0.0
 40
0.0939997297000004
  0
CIRCLE
  5
2052
  8
0
 10
3.5123173938999979
 20
41.399886684000002
 30
0.0
 40
0.0939997297000004
  0
CIRCLE
  5
2053
  8
0
 10
4.2623173938999983
 20
41.399886684000002
 30
0.0
 40
0.0939997297000004
  0
CIRCLE
  5
2054
  8
0
 10
5.0123173938999983
 20
41.399886684000002
 30
0.0
 40
0.0939997297000004
  0
LINE
  5
2097
  8
0
 10
-24.502682606100009
 20
40.519121828235697
 30
0.0
 11
-22.961540348260939
 21
40.438353987368622
 31
0.0
  0
ARC
  5
2098
  8
0
 10
-22.996125337306061
 20
39.778433064237177
 30
0.0
 40
0.6608265629148916
 50
53.233890282415132
 51
87.000000089927795
  0
ARC
  5
2099
  8
0
 10
-22.947204138813628
 20
39.97424045243546
 30
0.0
 40
0.4810537650737192
 50
351.95485590973618
 51
43.901266717482969
  0
ARC
  5
209A
  8
0
 10
-14.842077270882941
 20
39.480031292239431
 30
0.0
 40
7.6407417949962451
 50
176.7972482445891
 51
178.9023364228097
  0
LINE
  5
209B
  8
0
 10
-22.481416944900001
 20
39.626402473799999
 30
0.0
 11
-22.4813874727
 21
-29.663159744699989
 31
0.0
  0
ARC
  5
209C
  8
0
 10
-25.402460786241189
 20
-29.91405636318046
 30
0.0
 40
2.93182851071604
 50
356.89745804621452
 51
4.9091962164635019
  0
ARC
  5
209D
  8
0
 10
-22.89061371927562
 20
-30.05020490399874
 30
0.0
 40
0.416294350146864
 50
315.55719692707248
 51
356.8974580462143
  0
ARC
  5
209E
  8
0
 10
-22.98165718743186
 20
-29.845001626177019
 30
0.0
 40
0.6304328100774485
 50
271.82881810472401
 51
308.01424951299413
  0
ARC
  5
209F
  8
0
 10
-23.05865636643896
 20
40.31826866021165
 30
0.0
 40
0.1250034139901582
 50
0.30099937789001
 51
86.998151834502238
  0
LINE
  5
20A0
  8
0
 10
-22.9336546774
 20
40.318925353899992
 30
0.0
 11
-22.9336546774
 21
-30.350113316000002
 31
0.0
  0
ARC
  5
20A1
  8
0
 10
-23.0586573262824
 20
-30.350108142317598
 30
0.0
 40
0.1250051737894633
 50
270.00237134317842
 51
359.99762865681993
  0
LINE
  5
2124
  8
0
 10
-22.481416405751911
 20
38.358857651519379
 30
0.0
 11
-13.82036179709924
 21
38.358857651573523
 31
0.0
  0
ARC
  5
2125
  8
0
 10
-13.82036179711916
 20
41.544902441312793
 30
0.0
 40
3.186044789739277
 50
270.00000000035823
 51
275.06553965932392
  0
ARC
  5
2126
  8
0
 10
-13.553323443756581
 20
38.532333825840119
 30
0.0
 40
0.1616640026859113
 50
275.06553965932358
 51
325.2935434816988
  0
ARC
  5
2168
  8
0
 10
-9.3152064610523464
 20
38.369644863677429
 30
0.0
 40
4.1058240115357894
 50
175.2432068775374
 51
179.01415965338089
  0
ARC
  5
2169
  8
0
 10
-21.24020101114624
 20
39.603330410451917
 30
0.0
 40
7.8840723096384
 50
353.49486405446549
 51
2.3465474425293751
  0
ARC
  5
216A
  8
0
 10
-12.75073311337211
 20
39.917982549852013
 30
0.0
 40
0.6120609404976131
 50
99.836691194833023
 51
179.2370816217645
  0
LINE
  5
21ED
  8
0
 10
-22.481416694499998
 20
22.488145102407369
 30
0.0
 11
-13.8203617971
 21
22.480677615600001
 31
0.0
  0
ARC
  5
21EE
  8
0
 10
-13.8207649147145
 20
22.0131275710735
 30
0.0
 40
0.4675502183087261
 50
10.0291414766376
 51
89.950600085477006
  0
LINE
  5
21EF
  8
0
 10
-13.3603591884
 20
22.0945509941
 30
0.0
 11
-13.3603591884
 21
21.179886684
 31
0.0
  0
ARC
  5
21F0
  8
0
 10
-13.7132760066879
 20
21.182660676221829
 30
0.0
 40
0.3529277201684518
 50
271.68956108228701
 51
359.54965372745261
  0
LINE
  5
21F1
  8
0
 10
-13.702870239799999
 20
20.829886391900001
 30
0.0
 11
-22.481408949833281
 21
20.829886684000002
 31
0.0
  0
LINE
  5
21F2
  8
0
 10
-22.481404001032651
 20
9.1951858667353168
 30
0.0
 11
-13.7973443757
 21
9.1876985454499955
 31
0.0
  0
ARC
  5
21F3
  8
0
 10
-13.7977474933145
 20
8.7201485009235018
 30
0.0
 40
0.4675502183087261
 50
10.02914147663761
 51
89.950600085477006
  0
LINE
  5
21F4
  8
0
 10
-13.337341766999989
 20
8.8015719239499948
 30
0.0
 11
-13.337341766999989
 21
7.8869076138499974
 31
0.0
  0
ARC
  5
21F5
  8
0
 10
-13.6902585852879
 20
7.8896816060718233
 30
0.0
 40
0.3529277201684518
 50
271.68956108228701
 51
359.54965372745249
  0
LINE
  5
21F6
  8
0
 10
-13.679852818400001
 20
7.5369073217499976
 30
0.0
 11
-22.48140329568675
 21
7.5369076146157008
 31
0.0
  0
LINE
  5
21F7
  8
0
 10
-22.481416694499998
 20
-20.321306987488519
 30
0.0
 11
-13.80341647039999
 21
-20.324593305400001
 31
0.0
  0
ARC
  5
21F8
  8
0
 10
-13.77561128320961
 20
-20.737914588945291
 30
0.0
 40
0.414255491051382
 50
3.3333644516675101
 51
93.848635839788827
  0
LINE
  5
21F9
  8
0
 10
-13.362056659966379
 20
-20.713827549684169
 30
0.0
 11
-13.3373505243
 21
-21.716682921250001
 31
0.0
  0
ARC
  5
21FA
  8
0
 10
-13.846361551281779
 20
-21.767287779751928
 30
0.0
 40
0.5115203586300758
 50
275.72159899064133
 51
5.6775752793849854
  0
LINE
  5
21FB
  8
0
 10
-13.795365604700001
 20
-22.2762597738
 30
0.0
 11
-22.481416694499998
 21
-22.27779428508336
 31
0.0
  0
LINE
  5
223D
  8
0
 10
-13.820361797099221
 20
38.356439465100003
 30
0.0
 11
-13.82036179711851
 21
22.480677615600019
 31
0.0
  0
LINE
  5
223E
  8
0
 10
-22.48138809750068
 20
-28.194244434918041
 30
0.0
 11
-13.820361797180061
 21
-28.194346967900032
 31
0.0
  0
ARC
  5
223F
  8
0
 10
-13.820395465798301
 20
-31.03835659719654
 30
0.0
 40
2.8440096294958028
 50
84.285459270066653
 51
89.999321707737067
  0
ARC
  5
2240
  8
0
 10
-13.55312478004876
 20
-28.367508328256669
 30
0.0
 40
0.1598218389043744
 50
33.86915345387655
 51
84.285459270066426
  0
ARC
  5
2241
  8
0
 10
-26.67761932855085
 20
-28.652247243029379
 30
0.0
 40
13.26246560284841
 50
1.1189135705719839
 51
1.615115917787324
  0
ARC
  5
2242
  8
0
 10
-26.386150789319959
 20
-29.661220854067711
 30
0.0
 40
13.030306211055111
 50
0.8183657957230497
 51
5.5841880783330176
  0
LINE
  5
2243
  8
0
 10
-13.357173706599999
 20
-29.475113004099999
 30
0.0
 11
-13.361939806500001
 21
-29.929843048199999
 31
0.0
  0
ARC
  5
2244
  8
0
 10
-12.817529492410371
 20
-29.945180574924979
 30
0.0
 40
0.5446263212636825
 50
178.38624812598479
 51
256.66068875350538
  0
LINE
  5
2286
  8
0
 10
-13.82036179712051
 20
20.829886395809449
 30
0.0
 11
-13.820361797134661
 21
9.1877183908721687
 31
0.0
  0
LINE
  5
2288
  8
0
 10
-13.820361797136661
 20
7.5369073264253403
 30
0.0
 11
-13.8203617971705
 21
-20.324586888284369
 31
0.0
  0
LINE
  5
2289
  8
0
 10
-13.82036179717287
 20
-22.276264189723761
 30
0.0
 11
-13.820361797180061
 21
-28.194346967896539
 31
0.0
  0
ARC
  5
22CB
  8
0
 10
-11.281417129011549
 20
38.334494017095523
 30
0.0
 40
0.1367303584463698
 50
94.726075919381444
 51
175.2739387483407
  0
LINE
  5
22CC
  8
0
 10
-11.4176826061
 20
38.3457594809
 30
0.0
 11
-11.4176826061
 21
-28.350113305299999
 31
0.0
  0
ARC
  5
22CD
  8
0
 10
-11.28141712902563
 20
-28.338847841836639
 30
0.0
 40
0.1367303584042291
 50
184.726061109689
 51
265.27392408508149
  0
LINE
  5
22CE
  8
0
 10
-11.2926826277
 20
-28.475113316000002
 30
0.0
 11
22.0673174155
 21
-28.475113316000002
 31
0.0
  0
LINE
  5
22D0
  8
0
 10
-10.8020511272
 20
37.860255205100003
 30
0.0
 11
-5.1353140851000001
 21
37.860255205100003
 31
0.0
  0
LINE
  5
22D1
  8
0
 10
-5.1353140851000001
 20
37.860255205100003
 30
0.0
 11
-5.1353140851000001
 21
32.19351816299929
 31
0.0
  0
LINE
  5
22D2
  8
0
 10
-5.1353140851000001
 20
32.19351816299929
 30
0.0
 11
-10.8020511272
 21
32.19351816299929
 31
0.0
  0
LINE
  5
22D3
  8
0
 10
-10.8020511272
 20
32.19351816299929
 30
0.0
 11
-10.8020511272
 21
37.860255205100003
 31
0.0
  0
LINE
  5
22D4
  8
0
 10
-10.8020511272
 20
31.187255205000721
 30
0.0
 11
-5.1353140851000001
 21
31.187255205000721
 31
0.0
  0
LINE
  5
22D5
  8
0
 10
-5.1353140851000001
 20
31.187255205000721
 30
0.0
 11
-5.1353140851000001
 21
25.5205181629
 31
0.0
  0
LINE
  5
22D6
  8
0
 10
-5.1353140851000001
 20
25.5205181629
 30
0.0
 11
-10.8020511272
 21
25.5205181629
 31
0.0
  0
LINE
  5
22D7
  8
0
 10
-10.8020511272
 20
25.5205181629
 30
0.0
 11
-10.8020511272
 21
31.187255205000721
 31
0.0
  0
LINE
  5
22D8
  8
0
 10
-10.8020511272
 20
24.514255205000719
 30
0.0
 11
-5.1353140851000001
 21
24.514255205000719
 31
0.0
  0
LINE
  5
22D9
  8
0
 10
-5.1353140851000001
 20
24.514255205000719
 30
0.0
 11
-5.1353140851000001
 21
18.847518162899998
 31
0.0
  0
LINE
  5
22DA
  8
0
 10
-5.1353140851000001
 20
18.847518162899998
 30
0.0
 11
-10.8020511272
 21
18.847518162899998
 31
0.0
  0
LINE
  5
22DB
  8
0
 10
-10.8020511272
 20
18.847518162899998
 30
0.0
 11
-10.8020511272
 21
24.514255205000719
 31
0.0
  0
LINE
  5
22DC
  8
0
 10
-10.8020511272
 20
17.841255205000721
 30
0.0
 11
-5.1353140851000001
 21
17.841255205000721
 31
0.0
  0
LINE
  5
22DD
  8
0
 10
-5.1353140851000001
 20
17.841255205000721
 30
0.0
 11
-5.1353140851000001
 21
12.1745181629
 31
0.0
  0
LINE
  5
22DE
  8
0
 10
-5.1353140851000001
 20
12.1745181629
 30
0.0
 11
-10.8020511272
 21
12.1745181629
 31
0.0
  0
LINE
  5
22DF
  8
0
 10
-10.8020511272
 20
12.1745181629
 30
0.0
 11
-10.8020511272
 21
17.841255205000721
 31
0.0
  0
LINE
  5
22E0
  8
0
 10
-10.8020511272
 20
11.168255205000721
 30
0.0
 11
-5.1353140851000001
 21
11.168255205000721
 31
0.0
  0
LINE
  5
22E1
  8
0
 10
-5.1353140851000001
 20
11.168255205000721
 30
0.0
 11
-5.1353140851000001
 21
5.5015181628999983
 31
0.0
  0
LINE
  5
22E2
  8
0
 10
-5.1353140851000001
 20
5.5015181628999983
 30
0.0
 11
-10.8020511272
 21
5.5015181628999983
 31
0.0
  0
LINE
  5
22E3
  8
0
 10
-10.8020511272
 20
5.5015181628999983
 30
0.0
 11
-10.8020511272
 21
11.168255205000721
 31
0.0
  0
LINE
  5
22E4
  8
0
 10
-10.8020511272
 20
4.4952552050007171
 30
0.0
 11
-5.1353140851000001
 21
4.4952552050007171
 31
0.0
  0
LINE
  5
22E5
  8
0
 10
-5.1353140851000001
 20
4.4952552050007171
 30
0.0
 11
-5.1353140851000001
 21
-1.1714818371000031
 31
0.0
  0
LINE
  5
22E6
  8
0
 10
-5.1353140851000001
 20
-1.1714818371000031
 30
0.0
 11
-10.8020511272
 21
-1.1714818371000031
 31
0.0
  0
LINE
  5
22E7
  8
0
 10
-10.8020511272
 20
-1.1714818371000031
 30
0.0
 11
-10.8020511272
 21
4.4952552050007171
 31
0.0
  0
LINE
  5
22E8
  8
0
 10
-10.8020511272
 20
-2.1777447949992772
 30
0.0
 11
-5.1353140851000001
 21
-2.1777447949992772
 31
0.0
  0
LINE
  5
22E9
  8
0
 10
-5.1353140851000001
 20
-2.1777447949992772
 30
0.0
 11
-5.1353140851000001
 21
-7.8444818370999982
 31
0.0
  0
LINE
  5
22EA
  8
0
 10
-5.1353140851000001
 20
-7.8444818370999982
 30
0.0
 11
-10.8020511272
 21
-7.8444818370999982
 31
0.0
  0
LINE
  5
22EB
  8
0
 10
-10.8020511272
 20
-7.8444818370999982
 30
0.0
 11
-10.8020511272
 21
-2.1777447949992772
 31
0.0
  0
LINE
  5
22EC
  8
0
 10
-10.8020511272
 20
-8.8507447949992795
 30
0.0
 11
-5.1353140851000001
 21
-8.8507447949992795
 31
0.0
  0
LINE
  5
22ED
  8
0
 10
-5.1353140851000001
 20
-8.8507447949992795
 30
0.0
 11
-5.1353140851000001
 21
-14.5174818371
 31
0.0
  0
LINE
  5
22EE
  8
0
 10
-5.1353140851000001
 20
-14.5174818371
 30
0.0
 11
-10.8020511272
 21
-14.5174818371
 31
0.0
  0
LINE
  5
22EF
  8
0
 10
-10.8020511272
 20
-14.5174818371
 30
0.0
 11
-10.8020511272
 21
-8.8507447949992795
 31
0.0
  0
LINE
  5
22F0
  8
0
 10
-10.8020511272
 20
-15.52374479499928
 30
0.0
 11
-5.1353140851000001
 21
-15.52374479499928
 31
0.0
  0
LINE
  5
22F1
  8
0
 10
-5.1353140851000001
 20
-15.52374479499928
 30
0.0
 11
-5.1353140851000001
 21
-21.190481837099998
 31
0.0
  0
LINE
  5
22F2
  8
0
 10
-5.1353140851000001
 20
-21.190481837099998
 30
0.0
 11
-10.8020511272
 21
-21.190481837099998
 31
0.0
  0
LINE
  5
22F3
  8
0
 10
-10.8020511272
 20
-21.190481837099998
 30
0.0
 11
-10.8020511272
 21
-15.52374479499928
 31
0.0
  0
LINE
  5
22F4
  8
0
 10
-10.8020511272
 20
-22.196744794899281
 30
0.0
 11
-5.1353140851000001
 21
-22.196744794899281
 31
0.0
  0
LINE
  5
22F5
  8
0
 10
-5.1353140851000001
 20
-22.196744794899281
 30
0.0
 11
-5.1353140851000001
 21
-27.863481836999991
 31
0.0
  0
LINE
  5
22F6
  8
0
 10
-5.1353140851000001
 20
-27.863481836999991
 30
0.0
 11
-10.8020511272
 21
-27.863481836999991
 31
0.0
  0
LINE
  5
22F7
  8
0
 10
-10.8020511272
 20
-27.863481836999991
 30
0.0
 11
-10.8020511272
 21
-22.196744794899281
 31
0.0
  0
LINE
  5
22F8
  8
0
 10
-4.1240511271999987
 20
37.860255205100003
 30
0.0
 11
1.5426859149000001
 21
37.860255205100003
 31
0.0
  0
LINE
  5
22F9
  8
0
 10
1.5426859149000001
 20
37.860255205100003
 30
0.0
 11
1.5426859149000001
 21
32.19351816299929
 31
0.0
  0
LINE
  5
22FA
  8
0
 10
1.5426859149000001
 20
32.19351816299929
 30
0.0
 11
-4.1240511271999987
 21
32.19351816299929
 31
0.0
  0
LINE
  5
22FB
  8
0
 10
-4.1240511271999987
 20
32.19351816299929
 30
0.0
 11
-4.1240511271999987
 21
37.860255205100003
 31
0.0
  0
LINE
  5
22FC
  8
0
 10
-4.1240511271999987
 20
31.187255205000721
 30
0.0
 11
1.5426859149000001
 21
31.187255205000721
 31
0.0
  0
LINE
  5
22FD
  8
0
 10
1.5426859149000001
 20
31.187255205000721
 30
0.0
 11
1.5426859149000001
 21
25.5205181629
 31
0.0
  0
LINE
  5
22FE
  8
0
 10
1.5426859149000001
 20
25.5205181629
 30
0.0
 11
-4.1240511271999987
 21
25.5205181629
 31
0.0
  0
LINE
  5
22FF
  8
0
 10
-4.1240511271999987
 20
25.5205181629
 30
0.0
 11
-4.1240511271999987
 21
31.187255205000721
 31
0.0
  0
LINE
  5
2300
  8
0
 10
-4.1240511271999987
 20
24.514255205000719
 30
0.0
 11
1.5426859149000001
 21
24.514255205000719
 31
0.0
  0
LINE
  5
2301
  8
0
 10
1.5426859149000001
 20
24.514255205000719
 30
0.0
 11
1.5426859149000001
 21
18.847518162899998
 31
0.0
  0
LINE
  5
2302
  8
0
 10
1.5426859149000001
 20
18.847518162899998
 30
0.0
 11
-4.1240511271999987
 21
18.847518162899998
 31
0.0
  0
LINE
  5
2303
  8
0
 10
-4.1240511271999987
 20
18.847518162899998
 30
0.0
 11
-4.1240511271999987
 21
24.514255205000719
 31
0.0
  0
LINE
  5
2304
  8
0
 10
-4.1240511271999987
 20
17.841255205000721
 30
0.0
 11
1.5426859149000001
 21
17.841255205000721
 31
0.0
  0
LINE
  5
2305
  8
0
 10
1.5426859149000001
 20
17.841255205000721
 30
0.0
 11
1.5426859149000001
 21
12.1745181629
 31
0.0
  0
LINE
  5
2306
  8
0
 10
1.5426859149000001
 20
12.1745181629
 30
0.0
 11
-4.1240511271999987
 21
12.1745181629
 31
0.0
  0
LINE
  5
2307
  8
0
 10
-4.1240511271999987
 20
12.1745181629
 30
0.0
 11
-4.1240511271999987
 21
17.841255205000721
 31
0.0
  0
LINE
  5
2308
  8
0
 10
-4.1240511271999987
 20
11.168255205000721
 30
0.0
 11
1.5426859149000001
 21
11.168255205000721
 31
0.0
  0
LINE
  5
2309
  8
0
 10
1.5426859149000001
 20
11.168255205000721
 30
0.0
 11
1.5426859149000001
 21
5.5015181628999983
 31
0.0
  0
LINE
  5
230A
  8
0
 10
1.5426859149000001
 20
5.5015181628999983
 30
0.0
 11
-4.1240511271999987
 21
5.5015181628999983
 31
0.0
  0
LINE
  5
230B
  8
0
 10
-4.1240511271999987
 20
5.5015181628999983
 30
0.0
 11
-4.1240511271999987
 21
11.168255205000721
 31
0.0
  0
LINE
  5
230C
  8
0
 10
-4.1240511271999987
 20
4.4952552050007171
 30
0.0
 11
1.5426859149000001
 21
4.4952552050007171
 31
0.0
  0
LINE
  5
230D
  8
0
 10
1.5426859149000001
 20
4.4952552050007171
 30
0.0
 11
1.5426859149000001
 21
-1.1714818371000031
 31
0.0
  0
LINE
  5
230E
  8
0
 10
1.5426859149000001
 20
-1.1714818371000031
 30
0.0
 11
-4.1240511271999987
 21
-1.1714818371000031
 31
0.0
  0
LINE
  5
230F
  8
0
 10
-4.1240511271999987
 20
-1.1714818371000031
 30
0.0
 11
-4.1240511271999987
 21
4.4952552050007171
 31
0.0
  0
LINE
  5
2310
  8
0
 10
-4.1240511271999987
 20
-2.1777447949992772
 30
0.0
 11
1.5426859149000001
 21
-2.1777447949992772
 31
0.0
  0
LINE
  5
2311
  8
0
 10
1.5426859149000001
 20
-2.1777447949992772
 30
0.0
 11
1.5426859149000001
 21
-7.8444818370999982
 31
0.0
  0
LINE
  5
2312
  8
0
 10
1.5426859149000001
 20
-7.8444818370999982
 30
0.0
 11
-4.1240511271999987
 21
-7.8444818370999982
 31
0.0
  0
LINE
  5
2313
  8
0
 10
-4.1240511271999987
 20
-7.8444818370999982
 30
0.0
 11
-4.1240511271999987
 21
-2.1777447949992772
 31
0.0
  0
LINE
  5
2314
  8
0
 10
-4.1240511271999987
 20
-8.8507447949992795
 30
0.0
 11
1.5426859149000001
 21
-8.8507447949992795
 31
0.0
  0
LINE
  5
2315
  8
0
 10
1.5426859149000001
 20
-8.8507447949992795
 30
0.0
 11
1.5426859149000001
 21
-14.5174818371
 31
0.0
  0
LINE
  5
2316
  8
0
 10
1.5426859149000001
 20
-14.5174818371
 30
0.0
 11
-4.1240511271999987
 21
-14.5174818371
 31
0.0
  0
LINE
  5
2317
  8
0
 10
-4.1240511271999987
 20
-14.5174818371
 30
0.0
 11
-4.1240511271999987
 21
-8.8507447949992795
 31
0.0
  0
LINE
  5
2318
  8
0
 10
-4.1240511271999987
 20
-15.52374479499928
 30
0.0
 11
1.5426859149000001
 21
-15.52374479499928
 31
0.0
  0
LINE
  5
2319
  8
0
 10
1.5426859149000001
 20
-15.52374479499928
 30
0.0
 11
1.5426859149000001
 21
-21.190481837099998
 31
0.0
  0
LINE
  5
231A
  8
0
 10
1.5426859149000001
 20
-21.190481837099998
 30
0.0
 11
-4.1240511271999987
 21
-21.190481837099998
 31
0.0
  0
LINE
  5
231B
  8
0
 10
-4.1240511271999987
 20
-21.190481837099998
 30
0.0
 11
-4.1240511271999987
 21
-15.52374479499928
 31
0.0
  0
LINE
  5
231C
  8
0
 10
-4.1240511271999987
 20
-22.196744794899281
 30
0.0
 11
1.5426859149000001
 21
-22.196744794899281
 31
0.0
  0
LINE
  5
231D
  8
0
 10
1.5426859149000001
 20
-22.196744794899281
 30
0.0
 11
1.5426859149000001
 21
-27.863481836999991
 31
0.0
  0
LINE
  5
231E
  8
0
 10
1.5426859149000001
 20
-27.863481836999991
 30
0.0
 11
-4.1240511271999987
 21
-27.863481836999991
 31
0.0
  0
LINE
  5
231F
  8
0
 10
-4.1240511271999987
 20
-27.863481836999991
 30
0.0
 11
-4.1240511271999987
 21
-22.196744794899281
 31
0.0
  0
LINE
  5
2320
  8
0
 10
2.5539488728499999
 20
37.860255205100003
 30
0.0
 11
8.2206859149499998
 21
37.860255205100003
 31
0.0
  0
LINE
  5
2321
  8
0
 10
8.2206859149499998
 20
37.860255205100003
 30
0.0
 11
8.2206859149499998
 21
32.19351816299929
 31
0.0
  0
LINE
  5
2322
  8
0
 10
8.2206859149499998
 20
32.19351816299929
 30
0.0
 11
2.5539488728499999
 21
32.19351816299929
 31
0.0
  0
LINE
  5
2323
  8
0
 10
2.5539488728499999
 20
32.19351816299929
 30
0.0
 11
2.5539488728499999
 21
37.860255205100003
 31
0.0
  0
LINE
  5
2324
  8
0
 10
2.5539488728499999
 20
31.187255205000721
 30
0.0
 11
8.2206859149499998
 21
31.187255205000721
 31
0.0
  0
LINE
  5
2325
  8
0
 10
8.2206859149499998
 20
31.187255205000721
 30
0.0
 11
8.2206859149499998
 21
25.5205181629
 31
0.0
  0
LINE
  5
2326
  8
0
 10
8.2206859149499998
 20
25.5205181629
 30
0.0
 11
2.5539488728499999
 21
25.5205181629
 31
0.0
  0
LINE
  5
2327
  8
0
 10
2.5539488728499999
 20
25.5205181629
 30
0.0
 11
2.5539488728499999
 21
31.187255205000721
 31
0.0
  0
LINE
  5
2328
  8
0
 10
2.5539488728499999
 20
24.514255205000719
 30
0.0
 11
8.2206859149499998
 21
24.514255205000719
 31
0.0
  0
LINE
  5
2329
  8
0
 10
8.2206859149499998
 20
24.514255205000719
 30
0.0
 11
8.2206859149499998
 21
18.847518162899998
 31
0.0
  0
LINE
  5
232A
  8
0
 10
8.2206859149499998
 20
18.847518162899998
 30
0.0
 11
2.5539488728499999
 21
18.847518162899998
 31
0.0
  0
LINE
  5
232B
  8
0
 10
2.5539488728499999
 20
18.847518162899998
 30
0.0
 11
2.5539488728499999
 21
24.514255205000719
 31
0.0
  0
LINE
  5
232C
  8
0
 10
2.5539488728499999
 20
17.841255205000721
 30
0.0
 11
8.2206859149499998
 21
17.841255205000721
 31
0.0
  0
LINE
  5
232D
  8
0
 10
8.2206859149499998
 20
17.841255205000721
 30
0.0
 11
8.2206859149499998
 21
12.1745181629
 31
0.0
  0
LINE
  5
232E
  8
0
 10
8.2206859149499998
 20
12.1745181629
 30
0.0
 11
2.5539488728499999
 21
12.1745181629
 31
0.0
  0
LINE
  5
232F
  8
0
 10
2.5539488728499999
 20
12.1745181629
 30
0.0
 11
2.5539488728499999
 21
17.841255205000721
 31
0.0
  0
LINE
  5
2330
  8
0
 10
2.5539488728499999
 20
11.168255205000721
 30
0.0
 11
8.2206859149499998
 21
11.168255205000721
 31
0.0
  0
LINE
  5
2331
  8
0
 10
8.2206859149499998
 20
11.168255205000721
 30
0.0
 11
8.2206859149499998
 21
5.5015181628999983
 31
0.0
  0
LINE
  5
2332
  8
0
 10
8.2206859149499998
 20
5.5015181628999983
 30
0.0
 11
2.5539488728499999
 21
5.5015181628999983
 31
0.0
  0
LINE
  5
2333
  8
0
 10
2.5539488728499999
 20
5.5015181628999983
 30
0.0
 11
2.5539488728499999
 21
11.168255205000721
 31
0.0
  0
LINE
  5
2334
  8
0
 10
2.5539488728499999
 20
4.4952552050007171
 30
0.0
 11
8.2206859149499998
 21
4.4952552050007171
 31
0.0
  0
LINE
  5
2335
  8
0
 10
8.2206859149499998
 20
4.4952552050007171
 30
0.0
 11
8.2206859149499998
 21
-1.1714818371000031
 31
0.0
  0
LINE
  5
2336
  8
0
 10
8.2206859149499998
 20
-1.1714818371000031
 30
0.0
 11
2.5539488728499999
 21
-1.1714818371000031
 31
0.0
  0
LINE
  5
2337
  8
0
 10
2.5539488728499999
 20
-1.1714818371000031
 30
0.0
 11
2.5539488728499999
 21
4.4952552050007171
 31
0.0
  0
LINE
  5
2338
  8
0
 10
2.5539488728499999
 20
-2.1777447949992772
 30
0.0
 11
8.2206859149499998
 21
-2.1777447949992772
 31
0.0
  0
LINE
  5
2339
  8
0
 10
8.2206859149499998
 20
-2.1777447949992772
 30
0.0
 11
8.2206859149499998
 21
-7.8444818370999982
 31
0.0
  0
LINE
  5
233A
  8
0
 10
8.2206859149499998
 20
-7.8444818370999982
 30
0.0
 11
2.5539488728499999
 21
-7.8444818370999982
 31
0.0
  0
LINE
  5
233B
  8
0
 10
2.5539488728499999
 20
-7.8444818370999982
 30
0.0
 11
2.5539488728499999
 21
-2.1777447949992772
 31
0.0
  0
LINE
  5
233C
  8
0
 10
2.5539488728499999
 20
-8.8507447949992795
 30
0.0
 11
8.2206859149499998
 21
-8.8507447949992795
 31
0.0
  0
LINE
  5
233D
  8
0
 10
8.2206859149499998
 20
-8.8507447949992795
 30
0.0
 11
8.2206859149499998
 21
-14.5174818371
 31
0.0
  0
LINE
  5
233E
  8
0
 10
8.2206859149499998
 20
-14.5174818371
 30
0.0
 11
2.5539488728499999
 21
-14.5174818371
 31
0.0
  0
LINE
  5
233F
  8
0
 10
2.5539488728499999
 20
-14.5174818371
 30
0.0
 11
2.5539488728499999
 21
-8.8507447949992795
 31
0.0
  0
LINE
  5
2340
  8
0
 10
2.5539488728499999
 20
-15.52374479499928
 30
0.0
 11
8.2206859149499998
 21
-15.52374479499928
 31
0.0
  0
LINE
  5
2341
  8
0
 10
8.2206859149499998
 20
-15.52374479499928
 30
0.0
 11
8.2206859149499998
 21
-21.190481837099998
 31
0.0
  0
LINE
  5
2342
  8
0
 10
8.2206859149499998
 20
-21.190481837099998
 30
0.0
 11
2.5539488728499999
 21
-21.190481837099998
 31
0.0
  0
LINE
  5
2343
  8
0
 10
2.5539488728499999
 20
-21.190481837099998
 30
0.0
 11
2.5539488728499999
 21
-15.52374479499928
 31
0.0
  0
LINE
  5
2344
  8
0
 10
2.5539488728499999
 20
-22.196744794899281
 30
0.0
 11
8.2206859149499998
 21
-22.196744794899281
 31
0.0
  0
LINE
  5
2345
  8
0
 10
8.2206859149499998
 20
-22.196744794899281
 30
0.0
 11
8.2206859149499998
 21
-27.863481836999991
 31
0.0
  0
LINE
  5
2346
  8
0
 10
8.2206859149499998
 20
-27.863481836999991
 30
0.0
 11
2.5539488728499999
 21
-27.863481836999991
 31
0.0
  0
LINE
  5
2347
  8
0
 10
2.5539488728499999
 20
-27.863481836999991
 30
0.0
 11
2.5539488728499999
 21
-22.196744794899281
 31
0.0
  0
LINE
  5
2348
  8
0
 10
-11.292682627699991
 20
38.470759491300001
 30
0.0
 11
22.067317415400002
 21
38.470759491300001
 31
0.0
  0
LINE
  5
238A
  8
0
 10
35.288172625100003
 20
41.973236654699988
 30
0.0
 11
35.364157279300009
 21
41.821221030300002
 31
0.0
  0
LINE
  5
238B
  8
0
 10
35.364157279300009
 20
41.821221030300002
 30
0.0
 11
35.36848674911451
 21
41.773899811727937
 31
0.0
  0
LINE
  5
238C
  8
0
 10
35.387317393900013
 20
41.774886684000002
 30
0.0
 11
35.277317393900013
 21
41.769121828300001
 31
0.0
  0
LINE
  5
238D
  8
0
 10
35.277317393900013
 20
41.769121828300001
 30
0.0
 11
35.277317393900013
 21
-30.2760726056
 31
0.0
  0
LINE
  5
238E
  8
0
 10
35.277317393900013
 20
-30.2760726056
 30
0.0
 11
35.387317393900013
 21
-30.2760726056
 31
0.0
  0
LINE
  5
238F
  8
0
 10
35.387317393900013
 20
41.774886684000002
 30
0.0
 11
35.387317393900013
 21
-30.475113316000002
 31
0.0
  0
LINE
  5
2390
  8
0
 10
35.352296185067431
 20
-30.475113316000002
 30
0.0
 11
35.352332925699997
 21
-34.840113316
 31
0.0
  0
LINE
  5
2391
  8
0
 10
35.352332925699997
 20
-34.840113316
 30
0.0
 11
35.327310065500001
 21
-34.940113316000001
 31
0.0
  0
LINE
  5
2392
  8
0
 10
35.364160346063002
 20
41.821187510500003
 30
0.0
 11
35.254157278000001
 21
41.821187510500003
 31
0.0
  0
LINE
  5
2393
  8
0
 10
35.254157278000001
 20
41.821187510500003
 30
0.0
 11
35.180075926199997
 21
41.969395373100909
 31
0.0
  0
LINE
  5
2394
  8
0
 10
35.180075925399997
 20
41.969395368500003
 30
0.0
 11
35.180075926199997
 21
40.708527687622329
 31
0.0
  0
LINE
  5
2395
  8
0
 10
35.180075926199997
 20
40.708527687622329
 30
0.0
 11
35.277317393900013
 21
40.519121828235697
 31
0.0
  0
LINE
  5
2396
  8
0
 10
35.180075926199997
 20
40.708527684699988
 30
0.0
 11
33.696882827800003
 21
40.630749444599999
 31
0.0
  0
ARC
  5
2397
  8
0
 10
29.51000303712479
 20
120.4725046884341
 30
0.0
 40
79.951459291234201
 50
270.0000023585618
 51
273.00182541138832
  0
CIRCLE
  5
2398
  8
0
 10
34.262317393900013
 20
41.399886684000002
 30
0.0
 40
0.0939997297000004
  0
CIRCLE
  5
2399
  8
0
 10
33.512317393900013
 20
41.399886684000002
 30
0.0
 40
0.0939997297000004
  0
CIRCLE
  5
239A
  8
0
 10
32.762317393900013
 20
41.399886684000002
 30
0.0
 40
0.0939997297000004
  0
CIRCLE
  5
239B
  8
0
 10
32.012317393899998
 20
41.399886684000002
 30
0.0
 40
0.0939997297000004
  0
CIRCLE
  5
239C
  8
0
 10
31.262317393899998
 20
41.399886684000002
 30
0.0
 40
0.0939997297000004
  0
CIRCLE
  5
239D
  8
0
 10
30.512317393899998
 20
41.399886684000002
 30
0.0
 40
0.0939997297000004
  0
CIRCLE
  5
239E
  8
0
 10
29.762317393899998
 20
41.399886684000002
 30
0.0
 40
0.0939997297000004
  0
CIRCLE
  5
239F
  8
0
 10
29.012317393899998
 20
41.399886684000002
 30
0.0
 40
0.0939997297000004
  0
CIRCLE
  5
23A0
  8
0
 10
28.262317393899998
 20
41.399886684000002
 30
0.0
 40
0.0939997297000004
  0
CIRCLE
  5
23A1
  8
0
 10
27.512317393899998
 20
41.399886684000002
 30
0.0
 40
0.0939997297000004
  0
CIRCLE
  5
23A2
  8
0
 10
26.762317393899998
 20
41.399886684000002
 30
0.0
 40
0.0939997297000004
  0
CIRCLE
  5
23A3
  8
0
 10
26.012317393899998
 20
41.399886684000002
 30
0.0
 40
0.0939997297000004
  0
CIRCLE
  5
23A4
  8
0
 10
25.262317393899998
 20
41.399886684000002
 30
0.0
 40
0.0939997297000004
  0
CIRCLE
  5
23A5
  8
0
 10
24.512317393899998
 20
41.399886684000002
 30
0.0
 40
0.0939997297000004
  0
CIRCLE
  5
23A6
  8
0
 10
23.762317393899998
 20
41.399886684000002
 30
0.0
 40
0.0939997297000004
  0
CIRCLE
  5
23A7
  8
0
 10
23.012317393899998
 20
41.399886684000002
 30
0.0
 40
0.0939997297000004
  0
CIRCLE
  5
23A8
  8
0
 10
22.262317393899998
 20
41.399886684000002
 30
0.0
 40
0.0939997297000004
  0
CIRCLE
  5
23A9
  8
0
 10
21.512317393899998
 20
41.399886684000002
 30
0.0
 40
0.0939997297000004
  0
CIRCLE
  5
23AA
  8
0
 10
20.762317393899998
 20
41.399886684000002
 30
0.0
 40
0.0939997297000004
  0
CIRCLE
  5
23AB
  8
0
 10
20.012317393899998
 20
41.399886684000002
 30
0.0
 40
0.0939997297000004
  0
CIRCLE
  5
23AC
  8
0
 10
19.262317393899998
 20
41.399886684000002
 30
0.0
 40
0.0939997297000004
  0
CIRCLE
  5
23AD
  8
0
 10
18.512317393899998
 20
41.399886684000002
 30
0.0
 40
0.0939997297000004
  0
CIRCLE
  5
23AE
  8
0
 10
17.762317393899998
 20
41.399886684000002
 30
0.0
 40
0.0939997297000004
  0
CIRCLE
  5
23AF
  8
0
 10
17.012317393899998
 20
41.399886684000002
 30
0.0
 40
0.0939997297000004
  0
CIRCLE
  5
23B0
  8
0
 10
16.262317393899998
 20
41.399886684000002
 30
0.0
 40
0.0939997297000004
  0
CIRCLE
  5
23B1
  8
0
 10
15.5123173939
 20
41.399886684000002
 30
0.0
 40
0.0939997297000004
  0
CIRCLE
  5
23B2
  8
0
 10
14.7623173939
 20
41.399886684000002
 30
0.0
 40
0.0939997297000004
  0
CIRCLE
  5
23B3
  8
0
 10
14.0123173939
 20
41.399886684000002
 30
0.0
 40
0.0939997297000004
  0
CIRCLE
  5
23B4
  8
0
 10
13.2623173939
 20
41.399886684000002
 30
0.0
 40
0.0939997297000004
  0
CIRCLE
  5
23B5
  8
0
 10
12.5123173939
 20
41.399886684000002
 30
0.0
 40
0.0939997297000004
  0
CIRCLE
  5
23B6
  8
0
 10
11.7623173939
 20
41.399886684000002
 30
0.0
 40
0.0939997297000004
  0
CIRCLE
  5
23B7
  8
0
 10
11.0123173939
 20
41.399886684000002
 30
0.0
 40
0.0939997297000004
  0
CIRCLE
  5
23B8
  8
0
 10
10.2623173939
 20
41.399886684000002
 30
0.0
 40
0.0939997297000004
  0
CIRCLE
  5
23B9
  8
0
 10
9.5123173939000019
 20
41.399886684000002
 30
0.0
 40
0.0939997297000004
  0
CIRCLE
  5
23BA
  8
0
 10
8.7623173939000019
 20
41.399886684000002
 30
0.0
 40
0.0939997297000004
  0
CIRCLE
  5
23BB
  8
0
 10
8.0123173939000019
 20
41.399886684000002
 30
0.0
 40
0.0939997297000004
  0
CIRCLE
  5
23BC
  8
0
 10
7.262317393900001
 20
41.399886684000002
 30
0.0
 40
0.0939997297000004
  0
CIRCLE
  5
23BD
  8
0
 10
6.512317393900001
 20
41.399886684000002
 30
0.0
 40
0.0939997297000004
  0
CIRCLE
  5
23BE
  8
0
 10
5.762317393900001
 20
41.399886684000002
 30
0.0
 40
0.0939997297000004
  0
LINE
  5
23BF
  8
0
 10
35.277317393900013
 20
40.519121828235697
 30
0.0
 11
33.736175136060943
 21
40.438353987368622
 31
0.0
  0
ARC
  5
23C0
  8
0
 10
33.770760125106051
 20
39.778433064237177
 30
0.0
 40
0.6608265629148916
 50
92.999999910072233
 51
126.7661097175849
  0
ARC
  5
23C1
  8
0
 10
33.721838926613628
 20
39.97424045243546
 30
0.0
 40
0.4810537650737192
 50
136.098733282517
 51
188.04514409026379
  0
ARC
  5
23C2
  8
0
 10
25.616712058682939
 20
39.480031292239431
 30
0.0
 40
7.6407417949962451
 50
1.097663577190332
 51
3.2027517554108411
  0
LINE
  5
23C3
  8
0
 10
33.256051732700001
 20
39.626402473799999
 30
0.0
 11
33.256022260500004
 21
-29.663159744699989
 31
0.0
  0
ARC
  5
23C4
  8
0
 10
36.177095574041189
 20
-29.91405636318046
 30
0.0
 40
2.93182851071604
 50
175.09080378353639
 51
183.1025419537855
  0
ARC
  5
23C5
  8
0
 10
33.665248507075617
 20
-30.05020490399874
 30
0.0
 40
0.416294350146864
 50
183.10254195378579
 51
224.4428030729276
  0
ARC
  5
23C6
  8
0
 10
33.756291975231861
 20
-29.845001626177019
 30
0.0
 40
0.6304328100774485
 50
231.98575048700599
 51
268.17118189527599
  0
ARC
  5
23C7
  8
0
 10
33.833291154238957
 20
40.31826866021165
 30
0.0
 40
0.1250034139901582
 50
93.001848165497805
 51
179.69900062210999
  0
LINE
  5
23C8
  8
0
 10
33.708289465199996
 20
40.318925353899992
 30
0.0
 11
33.708289465199996
 21
-30.350113316000002
 31
0.0
  0
ARC
  5
23C9
  8
0
 10
33.833292114082397
 20
-30.350108142317598
 30
0.0
 40
0.1250051737894633
 50
180.00237134317999
 51
269.99762865682158
  0
LINE
  5
23CA
  8
0
 10
33.256051193551912
 20
38.358857651519379
 30
0.0
 11
24.594996584899238
 21
38.358857651573523
 31
0.0
  0
ARC
  5
23CB
  8
0
 10
24.594996584919159
 20
41.544902441312793
 30
0.0
 40
3.186044789739277
 50
264.93446034067608
 51
269.99999999964177
  0
ARC
  5
23CC
  8
0
 10
24.327958231556579
 20
38.532333825840119
 30
0.0
 40
0.1616640026859113
 50
214.7064565183012
 51
264.93446034067642
  0
ARC
  5
23CD
  8
0
 10
20.089841248852341
 20
38.369644863677429
 30
0.0
 40
4.1058240115357894
 50
0.9858403466190219
 51
4.7567931224626117
  0
ARC
  5
23CE
  8
0
 10
32.014835798946237
 20
39.603330410451917
 30
0.0
 40
7.8840723096384
 50
177.65345255747059
 51
186.50513594553459
  0
ARC
  5
23CF
  8
0
 10
23.52536790117211
 20
39.917982549852013
 30
0.0
 40
0.6120609404976131
 50
0.7629183782354521
 51
80.163308805167034
  0
LINE
  5
23D0
  8
0
 10
33.256051482300002
 20
22.488145102407369
 30
0.0
 11
24.594996584899999
 21
22.480677615600001
 31
0.0
  0
ARC
  5
23D1
  8
0
 10
24.595399702514499
 20
22.0131275710735
 30
0.0
 40
0.4675502183087261
 50
90.049399914523008
 51
169.97085852336241
  0
LINE
  5
23D2
  8
0
 10
24.134993976200001
 20
22.0945509941
 30
0.0
 11
24.134993976200001
 21
21.179886684
 31
0.0
  0
ARC
  5
23D3
  8
0
 10
24.48791079448791
 20
21.182660676221829
 30
0.0
 40
0.3529277201684518
 50
180.45034627254751
 51
268.3104389177131
  0
LINE
  5
23D4
  8
0
 10
24.477505027599999
 20
20.829886391900001
 30
0.0
 11
33.256043737633277
 21
20.829886684000002
 31
0.0
  0
LINE
  5
23D5
  8
0
 10
33.256038788832662
 20
9.1951858667353168
 30
0.0
 11
24.5719791635
 21
9.1876985454499955
 31
0.0
  0
ARC
  5
23D6
  8
0
 10
24.5723822811145
 20
8.7201485009235018
 30
0.0
 40
0.4675502183087261
 50
90.049399914523008
 51
169.97085852336241
  0
LINE
  5
23D7
  8
0
 10
24.111976554799998
 20
8.8015719239499948
 30
0.0
 11
24.111976554799998
 21
7.8869076138499974
 31
0.0
  0
ARC
  5
23D8
  8
0
 10
24.4648933730879
 20
7.8896816060718233
 30
0.0
 40
0.3529277201684518
 50
180.45034627254751
 51
268.3104389177131
  0
LINE
  5
23D9
  8
0
 10
24.454487606200001
 20
7.5369073217499976
 30
0.0
 11
33.256038083486757
 21
7.5369076146157008
 31
0.0
  0
LINE
  5
23DA
  8
0
 10
33.256051482300002
 20
-20.321306987488519
 30
0.0
 11
24.578051258199999
 21
-20.324593305400001
 31
0.0
  0
ARC
  5
23DB
  8
0
 10
24.55024607100961
 20
-20.737914588945291
 30
0.0
 40
0.414255491051382
 50
86.151364160211216
 51
176.66663554833249
  0
LINE
  5
23DC
  8
0
 10
24.136691447766381
 20
-20.713827549684169
 30
0.0
 11
24.1119853121
 21
-21.716682921250001
 31
0.0
  0
ARC
  5
23DD
  8
0
 10
24.620996339081781
 20
-21.767287779751928
 30
0.0
 40
0.5115203586300758
 50
174.322424720615
 51
264.27840100935867
  0
LINE
  5
23DE
  8
0
 10
24.570000392499999
 20
-22.2762597738
 30
0.0
 11
33.256051482300002
 21
-22.27779428508336
 31
0.0
  0
LINE
  5
23DF
  8
0
 10
24.594996584899231
 20
38.356439465100003
 30
0.0
 11
24.594996584918508
 21
22.480677615600019
 31
0.0
  0
LINE
  5
23E0
  8
0
 10
24.594996584920519
 20
20.829886395809449
 30
0.0
 11
24.594996584934659
 21
9.1877183908721687
 31
0.0
  0
LINE
  5
23E1
  8
0
 10
24.59499658493667
 20
7.5369073264253403
 30
0.0
 11
24.594996584970499
 21
-20.324586888284369
 31
0.0
  0
LINE
  5
23E2
  8
0
 10
24.594996584972868
 20
-22.276264189723761
 30
0.0
 11
24.59499658498007
 21
-28.194346967896539
 31
0.0
  0
LINE
  5
23E3
  8
0
 10
33.256022885300681
 20
-28.194244434918041
 30
0.0
 11
24.59499658498007
 21
-28.194346967900032
 31
0.0
  0
ARC
  5
23E4
  8
0
 10
24.59503025359831
 20
-31.03835659719654
 30
0.0
 40
2.8440096294958028
 50
90.000678292262961
 51
95.71454072993329
  0
ARC
  5
23E5
  8
0
 10
24.327759567848769
 20
-28.367508328256669
 30
0.0
 40
0.1598218389043744
 50
95.714540729933589
 51
146.13084654612339
  0
ARC
  5
23E6
  8
0
 10
37.452254116350851
 20
-28.652247243029379
 30
0.0
 40
13.26246560284841
 50
178.38488408221269
 51
178.881086429428
  0
ARC
  5
23E7
  8
0
 10
37.16078557711996
 20
-29.661220854067711
 30
0.0
 40
13.030306211055111
 50
174.41581192166689
 51
179.18163420427689
  0
LINE
  5
23E8
  8
0
 10
24.131808494400001
 20
-29.475113004099999
 30
0.0
 11
24.136574594300001
 21
-29.929843048199999
 31
0.0
  0
ARC
  5
23E9
  8
0
 10
23.592164280210369
 20
-29.945180574924979
 30
0.0
 40
0.5446263212636825
 50
283.33931124649462
 51
1.6137518740151851
  0
ARC
  5
23EA
  8
0
 10
22.056051916811551
 20
38.334494017095523
 30
0.0
 40
0.1367303584463698
 50
4.726061251659317
 51
85.273924080618556
  0
LINE
  5
23EB
  8
0
 10
22.192317393900002
 20
38.3457594809
 30
0.0
 11
22.192317393900002
 21
-28.350113305299999
 31
0.0
  0
ARC
  5
23EC
  8
0
 10
22.056051916825631
 20
-28.338847841836639
 30
0.0
 40
0.1367303584042291
 50
274.72607591491851
 51
355.273938890311
  0
LINE
  5
23ED
  8
0
 10
21.576685914999999
 20
37.860255205100003
 30
0.0
 11
15.909948872899999
 21
37.860255205100003
 31
0.0
  0
LINE
  5
23EE
  8
0
 10
15.909948872899999
 20
37.860255205100003
 30
0.0
 11
15.909948872899999
 21
32.19351816299929
 31
0.0
  0
LINE
  5
23EF
  8
0
 10
15.909948872899999
 20
32.19351816299929
 30
0.0
 11
21.576685914999999
 21
32.19351816299929
 31
0.0
  0
LINE
  5
23F0
  8
0
 10
21.576685914999999
 20
32.19351816299929
 30
0.0
 11
21.576685914999999
 21
37.860255205100003
 31
0.0
  0
LINE
  5
23F1
  8
0
 10
21.576685914999999
 20
31.187255205000721
 30
0.0
 11
15.909948872899999
 21
31.187255205000721
 31
0.0
  0
LINE
  5
23F2
  8
0
 10
15.909948872899999
 20
31.187255205000721
 30
0.0
 11
15.909948872899999
 21
25.5205181629
 31
0.0
  0
LINE
  5
23F3
  8
0
 10
15.909948872899999
 20
25.5205181629
 30
0.0
 11
21.576685914999999
 21
25.5205181629
 31
0.0
  0
LINE
  5
23F4
  8
0
 10
21.576685914999999
 20
25.5205181629
 30
0.0
 11
21.576685914999999
 21
31.187255205000721
 31
0.0
  0
LINE
  5
23F5
  8
0
 10
21.576685914999999
 20
24.514255205000719
 30
0.0
 11
15.909948872899999
 21
24.514255205000719
 31
0.0
  0
LINE
  5
23F6
  8
0
 10
15.909948872899999
 20
24.514255205000719
 30
0.0
 11
15.909948872899999
 21
18.847518162899998
 31
0.0
  0
LINE
  5
23F7
  8
0
 10
15.909948872899999
 20
18.847518162899998
 30
0.0
 11
21.576685914999999
 21
18.847518162899998
 31
0.0
  0
LINE
  5
23F8
  8
0
 10
21.576685914999999
 20
18.847518162899998
 30
0.0
 11
21.576685914999999
 21
24.514255205000719
 31
0.0
  0
LINE
  5
23F9
  8
0
 10
21.576685914999999
 20
17.841255205000721
 30
0.0
 11
15.909948872899999
 21
17.841255205000721
 31
0.0
  0
LINE
  5
23FA
  8
0
 10
15.909948872899999
 20
17.841255205000721
 30
0.0
 11
15.909948872899999
 21
12.1745181629
 31
0.0
  0
LINE
  5
23FB
  8
0
 10
15.909948872899999
 20
12.1745181629
 30
0.0
 11
21.576685914999999
 21
12.1745181629
 31
0.0
  0
LINE
  5
23FC
  8
0
 10
21.576685914999999
 20
12.1745181629
 30
0.0
 11
21.576685914999999
 21
17.841255205000721
 31
0.0
  0
LINE
  5
23FD
  8
0
 10
21.576685914999999
 20
11.168255205000721
 30
0.0
 11
15.909948872899999
 21
11.168255205000721
 31
0.0
  0
LINE
  5
23FE
  8
0
 10
15.909948872899999
 20
11.168255205000721
 30
0.0
 11
15.909948872899999
 21
5.5015181628999983
 31
0.0
  0
LINE
  5
23FF
  8
0
 10
15.909948872899999
 20
5.5015181628999983
 30
0.0
 11
21.576685914999999
 21
5.5015181628999983
 31
0.0
  0
LINE
  5
2400
  8
0
 10
21.576685914999999
 20
5.5015181628999983
 30
0.0
 11
21.576685914999999
 21
11.168255205000721
 31
0.0
  0
LINE
  5
2401
  8
0
 10
21.576685914999999
 20
4.4952552050007171
 30
0.0
 11
15.909948872899999
 21
4.4952552050007171
 31
0.0
  0
LINE
  5
2402
  8
0
 10
15.909948872899999
 20
4.4952552050007171
 30
0.0
 11
15.909948872899999
 21
-1.1714818371000031
 31
0.0
  0
LINE
  5
2403
  8
0
 10
15.909948872899999
 20
-1.1714818371000031
 30
0.0
 11
21.576685914999999
 21
-1.1714818371000031
 31
0.0
  0
LINE
  5
2404
  8
0
 10
21.576685914999999
 20
-1.1714818371000031
 30
0.0
 11
21.576685914999999
 21
4.4952552050007171
 31
0.0
  0
LINE
  5
2405
  8
0
 10
21.576685914999999
 20
-2.1777447949992772
 30
0.0
 11
15.909948872899999
 21
-2.1777447949992772
 31
0.0
  0
LINE
  5
2406
  8
0
 10
15.909948872899999
 20
-2.1777447949992772
 30
0.0
 11
15.909948872899999
 21
-7.8444818370999982
 31
0.0
  0
LINE
  5
2407
  8
0
 10
15.909948872899999
 20
-7.8444818370999982
 30
0.0
 11
21.576685914999999
 21
-7.8444818370999982
 31
0.0
  0
LINE
  5
2408
  8
0
 10
21.576685914999999
 20
-7.8444818370999982
 30
0.0
 11
21.576685914999999
 21
-2.1777447949992772
 31
0.0
  0
LINE
  5
2409
  8
0
 10
21.576685914999999
 20
-8.8507447949992795
 30
0.0
 11
15.909948872899999
 21
-8.8507447949992795
 31
0.0
  0
LINE
  5
240A
  8
0
 10
15.909948872899999
 20
-8.8507447949992795
 30
0.0
 11
15.909948872899999
 21
-14.5174818371
 31
0.0
  0
LINE
  5
240B
  8
0
 10
15.909948872899999
 20
-14.5174818371
 30
0.0
 11
21.576685914999999
 21
-14.5174818371
 31
0.0
  0
LINE
  5
240C
  8
0
 10
21.576685914999999
 20
-14.5174818371
 30
0.0
 11
21.576685914999999
 21
-8.8507447949992795
 31
0.0
  0
LINE
  5
240D
  8
0
 10
21.576685914999999
 20
-15.52374479499928
 30
0.0
 11
15.909948872899999
 21
-15.52374479499928
 31
0.0
  0
LINE
  5
240E
  8
0
 10
15.909948872899999
 20
-15.52374479499928
 30
0.0
 11
15.909948872899999
 21
-21.190481837099998
 31
0.0
  0
LINE
  5
240F
  8
0
 10
15.909948872899999
 20
-21.190481837099998
 30
0.0
 11
21.576685914999999
 21
-21.190481837099998
 31
0.0
  0
LINE
  5
2410
  8
0
 10
21.576685914999999
 20
-21.190481837099998
 30
0.0
 11
21.576685914999999
 21
-15.52374479499928
 31
0.0
  0
LINE
  5
2411
  8
0
 10
21.576685914999999
 20
-22.196744794899281
 30
0.0
 11
15.909948872899999
 21
-22.196744794899281
 31
0.0
  0
LINE
  5
2412
  8
0
 10
15.909948872899999
 20
-22.196744794899281
 30
0.0
 11
15.909948872899999
 21
-27.863481836999991
 31
0.0
  0
LINE
  5
2413
  8
0
 10
15.909948872899999
 20
-27.863481836999991
 30
0.0
 11
21.576685914999999
 21
-27.863481836999991
 31
0.0
  0
LINE
  5
2414
  8
0
 10
21.576685914999999
 20
-27.863481836999991
 30
0.0
 11
21.576685914999999
 21
-22.196744794899281
 31
0.0
  0
LINE
  5
2415
  8
0
 10
14.898685915
 20
37.860255205100003
 30
0.0
 11
9.2319488728999985
 21
37.860255205100003
 31
0.0
  0
LINE
  5
2416
  8
0
 10
9.2319488728999985
 20
37.860255205100003
 30
0.0
 11
9.2319488728999985
 21
32.19351816299929
 31
0.0
  0
LINE
  5
2417
  8
0
 10
9.2319488728999985
 20
32.19351816299929
 30
0.0
 11
14.898685915
 21
32.19351816299929
 31
0.0
  0
LINE
  5
2418
  8
0
 10
14.898685915
 20
32.19351816299929
 30
0.0
 11
14.898685915
 21
37.860255205100003
 31
0.0
  0
LINE
  5
2419
  8
0
 10
14.898685915
 20
31.187255205000721
 30
0.0
 11
9.2319488728999985
 21
31.187255205000721
 31
0.0
  0
LINE
  5
241A
  8
0
 10
9.2319488728999985
 20
31.187255205000721
 30
0.0
 11
9.2319488728999985
 21
25.5205181629
 31
0.0
  0
LINE
  5
241B
  8
0
 10
9.2319488728999985
 20
25.5205181629
 30
0.0
 11
14.898685915
 21
25.5205181629
 31
0.0
  0
LINE
  5
241C
  8
0
 10
14.898685915
 20
25.5205181629
 30
0.0
 11
14.898685915
 21
31.187255205000721
 31
0.0
  0
LINE
  5
241D
  8
0
 10
14.898685915
 20
24.514255205000719
 30
0.0
 11
9.2319488728999985
 21
24.514255205000719
 31
0.0
  0
LINE
  5
241E
  8
0
 10
9.2319488728999985
 20
24.514255205000719
 30
0.0
 11
9.2319488728999985
 21
18.847518162899998
 31
0.0
  0
LINE
  5
241F
  8
0
 10
9.2319488728999985
 20
18.847518162899998
 30
0.0
 11
14.898685915
 21
18.847518162899998
 31
0.0
  0
LINE
  5
2420
  8
0
 10
14.898685915
 20
18.847518162899998
 30
0.0
 11
14.898685915
 21
24.514255205000719
 31
0.0
  0
LINE
  5
2421
  8
0
 10
14.898685915
 20
17.841255205000721
 30
0.0
 11
9.2319488728999985
 21
17.841255205000721
 31
0.0
  0
LINE
  5
2422
  8
0
 10
9.2319488728999985
 20
17.841255205000721
 30
0.0
 11
9.2319488728999985
 21
12.1745181629
 31
0.0
  0
LINE
  5
2423
  8
0
 10
9.2319488728999985
 20
12.1745181629
 30
0.0
 11
14.898685915
 21
12.1745181629
 31
0.0
  0
LINE
  5
2424
  8
0
 10
14.898685915
 20
12.1745181629
 30
0.0
 11
14.898685915
 21
17.841255205000721
 31
0.0
  0
LINE
  5
2425
  8
0
 10
14.898685915
 20
11.168255205000721
 30
0.0
 11
9.2319488728999985
 21
11.168255205000721
 31
0.0
  0
LINE
  5
2426
  8
0
 10
9.2319488728999985
 20
11.168255205000721
 30
0.0
 11
9.2319488728999985
 21
5.5015181628999983
 31
0.0
  0
LINE
  5
2427
  8
0
 10
9.2319488728999985
 20
5.5015181628999983
 30
0.0
 11
14.898685915
 21
5.5015181628999983
 31
0.0
  0
LINE
  5
2428
  8
0
 10
14.898685915
 20
5.5015181628999983
 30
0.0
 11
14.898685915
 21
11.168255205000721
 31
0.0
  0
LINE
  5
2429
  8
0
 10
14.898685915
 20
4.4952552050007171
 30
0.0
 11
9.2319488728999985
 21
4.4952552050007171
 31
0.0
  0
LINE
  5
242A
  8
0
 10
9.2319488728999985
 20
4.4952552050007171
 30
0.0
 11
9.2319488728999985
 21
-1.1714818371000031
 31
0.0
  0
LINE
  5
242B
  8
0
 10
9.2319488728999985
 20
-1.1714818371000031
 30
0.0
 11
14.898685915
 21
-1.1714818371000031
 31
0.0
  0
LINE
  5
242C
  8
0
 10
14.898685915
 20
-1.1714818371000031
 30
0.0
 11
14.898685915
 21
4.4952552050007171
 31
0.0
  0
LINE
  5
242D
  8
0
 10
14.898685915
 20
-2.1777447949992772
 30
0.0
 11
9.2319488728999985
 21
-2.1777447949992772
 31
0.0
  0
LINE
  5
242E
  8
0
 10
9.2319488728999985
 20
-2.1777447949992772
 30
0.0
 11
9.2319488728999985
 21
-7.8444818370999982
 31
0.0
  0
LINE
  5
242F
  8
0
 10
9.2319488728999985
 20
-7.8444818370999982
 30
0.0
 11
14.898685915
 21
-7.8444818370999982
 31
0.0
  0
LINE
  5
2430
  8
0
 10
14.898685915
 20
-7.8444818370999982
 30
0.0
 11
14.898685915
 21
-2.1777447949992772
 31
0.0
  0
LINE
  5
2431
  8
0
 10
14.898685915
 20
-8.8507447949992795
 30
0.0
 11
9.2319488728999985
 21
-8.8507447949992795
 31
0.0
  0
LINE
  5
2432
  8
0
 10
9.2319488728999985
 20
-8.8507447949992795
 30
0.0
 11
9.2319488728999985
 21
-14.5174818371
 31
0.0
  0
LINE
  5
2433
  8
0
 10
9.2319488728999985
 20
-14.5174818371
 30
0.0
 11
14.898685915
 21
-14.5174818371
 31
0.0
  0
LINE
  5
2434
  8
0
 10
14.898685915
 20
-14.5174818371
 30
0.0
 11
14.898685915
 21
-8.8507447949992795
 31
0.0
  0
LINE
  5
2435
  8
0
 10
14.898685915
 20
-15.52374479499928
 30
0.0
 11
9.2319488728999985
 21
-15.52374479499928
 31
0.0
  0
LINE
  5
2436
  8
0
 10
9.2319488728999985
 20
-15.52374479499928
 30
0.0
 11
9.2319488728999985
 21
-21.190481837099998
 31
0.0
  0
LINE
  5
2437
  8
0
 10
9.2319488728999985
 20
-21.190481837099998
 30
0.0
 11
14.898685915
 21
-21.190481837099998
 31
0.0
  0
LINE
  5
2438
  8
0
 10
14.898685915
 20
-21.190481837099998
 30
0.0
 11
14.898685915
 21
-15.52374479499928
 31
0.0
  0
LINE
  5
2439
  8
0
 10
14.898685915
 20
-22.196744794899281
 30
0.0
 11
9.2319488728999985
 21
-22.196744794899281
 31
0.0
  0
LINE
  5
243A
  8
0
 10
9.2319488728999985
 20
-22.196744794899281
 30
0.0
 11
9.2319488728999985
 21
-27.863481836999991
 31
0.0
  0
LINE
  5
243B
  8
0
 10
9.2319488728999985
 20
-27.863481836999991
 30
0.0
 11
14.898685915
 21
-27.863481836999991
 31
0.0
  0
LINE
  5
243C
  8
0
 10
14.898685915
 20
-27.863481836999991
 30
0.0
 11
14.898685915
 21
-22.196744794899281
 31
0.0
  0
LINE
  5
243D
  8
0
 10
22.152734892938771
 20
-28.435530792966901
 30
0.0
 11
24.024109552786491
 21
-30.276905025806059
 31
0.0
  0
LINE
  5
243E
  8
0
 10
22.15273489283847
 20
38.431176968371588
 30
0.0
 11
24.00218466424549
 21
40.301732949636872
 31
0.0
  0
LINE
  5
243F
  8
0
 10
-11.378109770207431
 20
38.431167302221198
 30
0.0
 11
-13.26190505691668
 21
40.254615642425641
 31
0.0
  0
LINE
  5
2440
  8
0
 10
-11.37810010513877
 20
-28.435530792966901
 30
0.0
 11
-13.22742780504638
 21
-30.303790673934142
 31
0.0
  0
ATTDEF
  5
351F
  8
DEFPOINTS
 10
5.383424528269301
 20
-34.946953579001963
 30
0.0
 40
0.001
  1
72130100
  3

  2
MODELNUMBER
 70
     0
1001
AcDbAttr
1070
     0
1070
     1
  0
ATTDEF
  5
3520
  8
DEFPOINTS
 10
5.383424528269301
 20
-34.948620245668621
 30
0.0
 40
0.001
  1
ENSEMBLE
  3

  2
TRADENAME
 70
     0
1001
AcDbAttr
1070
     0
1070
     1
  0
ATTDEF
  5
3521
  8
DEFPOINTS
 10
5.383424528269301
 20
-34.950286912335322
 30
0.0
 40
0.001
  1
SHOWER STALL
  3

  2
PRODUCT
 70
     0
1001
AcDbAttr
1070
     0
1070
     1
  0
ATTDEF
  5
3522
  8
DEFPOINTS
 10
5.383424528269301
 20
-34.95195357900198
 30
0.0
 40
0.001
  1
VIKRELL
  3

  2
MATERIAL
 70
     0
1001
AcDbAttr
1070
     0
1070
     1
  0
ENDSEC
  0
EOF
