  0
SECTION
  2
HEADER
  9
$ACADVER
  1
AC1009
  9
$INSBASE
 10
91.868474004599989
 20
-34.870620718592633
 30
0.0
  9
$EXTMIN
 10
56.61135258565173
 20
-34.876333345262459
 30
-0.0015258207003583
  9
$EXTMAX
 10
91.892349306789811
 20
42.045076743165112
 30
0.0000000349246037
  9
$LIMMIN
 10
0.0
 20
0.0
  9
$LIMMAX
 10
11.692913385800001
 20
8.2677165353999982
  9
$ORTHOMODE
 70
     0
  9
$REGENMODE
 70
     1
  9
$FILLMODE
 70
     1
  9
$QTEXTMODE
 70
     0
  9
$MIRRTEXT
 70
     0
  9
$DRAGMODE
 70
     2
  9
$LTSCALE
 40
0.6431102362
  9
$OSMODE
 70
  3071
  9
$ATTMODE
 70
     1
  9
$TEXTSIZE
 40
0.2
  9
$TRACEWID
 40
0.05
  9
$TEXTSTYLE
  7
STANDARD
  9
$CLAYER
  8
0
  9
$CELTYPE
  6
BYLAYER
  9
$CECOLOR
 62
   256
  9
$DIMSCALE
 40
1.0
  9
$DIMASZ
 40
0.1875
  9
$DIMEXO
 40
0.0625
  9
$DIMDLI
 40
0.4443307087
  9
$DIMRND
 40
0.0
  9
$DIMDLE
 40
0.0
  9
$DIMEXE
 40
0.125
  9
$DIMTP
 40
0.0
  9
$DIMTM
 40
0.0
  9
$DIMTXT
 40
1.0
  9
$DIMCEN
 40
0.1052362205
  9
$DIMTSZ
 40
0.0
  9
$DIMTOL
 70
     0
  9
$DIMLIM
 70
     0
  9
$DIMTIH
 70
     1
  9
$DIMTOH
 70
     1
  9
$DIMSE1
 70
     0
  9
$DIMSE2
 70
     0
  9
$DIMTAD
 70
     0
  9
$DIMZIN
 70
     0
  9
$DIMBLK
  1

  9
$DIMASO
 70
     1
  9
$DIMSHO
 70
     1
  9
$DIMPOST
  1
\X
  9
$DIMAPOST
  1

  9
$DIMALT
 70
     1
  9
$DIMALTD
 70
     2
  9
$DIMALTF
 40
25.399999999999999
  9
$DIMLFAC
 40
1.0
  9
$DIMTOFL
 70
     0
  9
$DIMTVP
 40
0.0
  9
$DIMTIX
 70
     0
  9
$DIMSOXD
 70
     0
  9
$DIMSAH
 70
     0
  9
$DIMBLK1
  1

  9
$DIMBLK2
  1

  9
$DIMSTYLE
  2
STANDARD
  9
$DIMCLRD
 70
     0
  9
$DIMCLRE
 70
     0
  9
$DIMCLRT
 70
     0
  9
$DIMTFAC
 40
1.0
  9
$DIMGAP
 40
0.09
  9
$LUNITS
 70
     2
  9
$LUPREC
 70
     4
  9
$SKETCHINC
 40
0.1
  9
$FILLETRAD
 40
0.0
  9
$AUNITS
 70
     0
  9
$AUPREC
 70
     0
  9
$MENU
  1
.
  9
$ELEVATION
 40
0.0
  9
$PELEVATION
 40
0.0
  9
$THICKNESS
 40
0.0
  9
$LIMCHECK
 70
     0
  9
$BLIPMODE
 70
     0
  9
$CHAMFERA
 40
0.0
  9
$CHAMFERB
 40
0.0
  9
$SKPOLY
 70
     0
  9
$TDCREATE
 40
2458141.7346868869
  9
$TDUPDATE
 40
2458142.4588445839
  9
$TDINDWG
 40
0.7240266319000001
  9
$TDUSRTIMER
 40
0.7240266319000001
  9
$USRTIMER
 70
     1
  9
$ANGBASE
 50
0.0
  9
$ANGDIR
 70
     0
  9
$PDMODE
 70
     0
  9
$PDSIZE
 40
0.3125
  9
$PLINEWID
 40
0.0
  9
$COORDS
 70
     1
  9
$SPLFRAME
 70
     0
  9
$SPLINETYPE
 70
     6
  9
$SPLINESEGS
 70
     8
  9
$ATTDIA
 70
     1
  9
$ATTREQ
 70
     1
  9
$HANDLING
 70
     1
  9
$HANDSEED
  5
3C96
  9
$SURFTAB1
 70
     6
  9
$SURFTAB2
 70
     6
  9
$SURFTYPE
 70
     6
  9
$SURFU
 70
     6
  9
$SURFV
 70
     6
  9
$UCSNAME
  2

  9
$UCSORG
 10
0.0
 20
0.0
 30
0.0
  9
$UCSXDIR
 10
1.0
 20
0.0
 30
0.0
  9
$UCSYDIR
 10
0.0
 20
1.0
 30
0.0
  9
$PUCSNAME
  2

  9
$PUCSORG
 10
0.0
 20
0.0
 30
0.0
  9
$PUCSXDIR
 10
1.0
 20
0.0
 30
0.0
  9
$PUCSYDIR
 10
0.0
 20
1.0
 30
0.0
  9
$USERI1
 70
     0
  9
$USERI2
 70
     0
  9
$USERI3
 70
     0
  9
$USERI4
 70
     0
  9
$USERI5
 70
     0
  9
$USERR1
 40
0.0
  9
$USERR2
 40
0.0
  9
$USERR3
 40
0.0
  9
$USERR4
 40
0.0
  9
$USERR5
 40
0.0
  9
$WORLDVIEW
 70
     1
  9
$SHADEDGE
 70
     3
  9
$SHADEDIF
 70
    70
  9
$TILEMODE
 70
     1
  9
$MAXACTVP
 70
    48
  9
$PLIMCHECK
 70
     0
  9
$PEXTMIN
 10
1.0000000000000000E+020
 20
1.0000000000000000E+020
 30
1.0000000000000000E+020
  9
$PEXTMAX
 10
-1.0000000000000000E+020
 20
-1.0000000000000000E+020
 30
-1.0000000000000000E+020
  9
$PLIMMIN
 10
0.0
 20
0.0
  9
$PLIMMAX
 10
12.0
 20
9.0
  9
$UNITMODE
 70
     0
  9
$VISRETAIN
 70
     1
  9
$PLINEGEN
 70
     0
  9
$PSLTSCALE
 70
     1
  0
ENDSEC
  0
SECTION
  2
TABLES
  0
TABLE
  2
VPORT
 70
     1
  0
VPORT
  2
*ACTIVE
 70
     0
 10
0.0
 20
0.0
 11
1.0
 21
1.0
 12
37.511968477043531
 22
-21.22580896511117
 13
0.0
 23
0.0
 14
1.0
 24
1.0
 15
0.0
 25
0.0
 16
-0.0000000000000995
 26
0.0
 36
453.65417111730341
 17
36.739882469177253
 27
24.8101806640625
 37
0.0
 40
77.431090718184691
 41
2.0792616720955479
 42
50.0
 43
0.0
 44
0.0
 50
0.0
 51
0.0
 71
     0
 72
   100
 73
     1
 74
     1
 75
     0
 76
     0
 77
     0
 78
     0
  0
ENDTAB
  0
TABLE
  2
LTYPE
 70
     8
  0
LTYPE
  2
CONTINUOUS
 70
     0
  3
Solid line
 72
    65
 73
     0
 40
0.0
  0
LTYPE
  2
PHANTOM2
 70
     0
  3
___ _ _ ___ _ _ ___ _ _ ___ _ _
 72
    65
 73
     6
 40
1.25
 49
0.625
 49
-0.125
 49
0.125
 49
-0.125
 49
0.125
 49
-0.125
  0
ENDTAB
  0
TABLE
  2
LAYER
 70
    27
  0
LAYER
  2
0
 70
     0
 62
     7
  6
CONTINUOUS
  0
LAYER
  2
DEFPOINTS
 70
     0
 62
     7
  6
CONTINUOUS
  0
ENDTAB
  0
TABLE
  2
STYLE
 70
     2
  0
STYLE
  2
STANDARD
 70
     0
 40
0.0
 41
0.8
 50
0.0
 71
     0
 42
0.2
  3
txt
  4

  0
ENDTAB
  0
TABLE
  2
VIEW
 70
     0
  0
ENDTAB
  0
TABLE
  2
UCS
 70
     0
  0
ENDTAB
  0
TABLE
  2
APPID
 70
     7
  0
APPID
  2
ACAD
 70
     0
  0
APPID
  2
ACAD_MLEADERVER
 70
     0
  0
APPID
  2
ACAD_NAV_VCDISPLAY
 70
     0
  0
APPID
  2
ACAD_DSTYLE_DIMJAG
 70
     0
  0
APPID
  2
ACAD_DSTYLE_DIMTALN
 70
     0
  0
APPID
  2
ACAD_EXEMPT_FROM_CAD_STANDARDS
 70
     0
  0
APPID
  2
AcDbAttr
 70
     0
  0
ENDTAB
  0
TABLE
  2
DIMSTYLE
 70
     2
  0
DIMSTYLE
  2
STANDARD
 70
     0
  3

  4

  5

  6

  7

 40
1.0
 41
0.1875
 42
0.0625
 43
0.38
 44
0.125
 45
0.0
 46
0.0
 47
1.5
 48
1.5
140
0.15625
141
0.09
142
0.0
143
25.399999999999999
144
1.0
145
0.0
146
1.0
147
0.09
 71
     0
 72
     0
 73
     1
 74
     1
 75
     0
 76
     0
 77
     0
 78
     4
170
     0
171
     2
172
     0
173
     0
174
     0
175
     0
176
     0
177
     0
178
     0
  0
ENDTAB
  0
ENDSEC
  0
SECTION
  2
BLOCKS
  0
BLOCK
  8
0
  2
$MODEL_SPACE
 70
     0
 10
0.0
 20
0.0
 30
0.0
  3
$MODEL_SPACE
  1

  0
ENDBLK
  5
21
  8
0
  0
BLOCK
 67
     1
  8
0
  2
$PAPER_SPACE
 70
     0
 10
0.0
 20
0.0
 30
0.0
  3
$PAPER_SPACE
  1

  0
ENDBLK
  5
1D
 67
     1
  8
0
  0
ENDSEC
  0
SECTION
  2
ENTITIES
  0
ARC
  5
1DFE
  8
0
 10
58.00347400443502
 20
-34.840620718431673
 30
0.0
 40
0.0300000001649679
 50
270.00000031507682
 51
359.99999986948018
  0
LINE
  5
1DFF
  8
0
 10
58.003474004599987
 20
-34.870620718596633
 30
0.0
 11
57.96847400459999
 21
-34.870620718596633
 31
0.0
  0
LINE
  5
1E00
  8
0
 10
57.96847400459999
 20
-34.870620718596633
 30
0.0
 11
57.868474004599989
 21
-34.770620718500012
 31
0.0
  0
LINE
  5
1E01
  8
0
 10
57.868474004599989
 20
-34.770620718500012
 30
0.0
 11
57.868474004599989
 21
-30.782954254500002
 31
0.0
  0
ARC
  5
1E02
  8
0
 10
58.243983880761078
 20
-30.782954254500009
 30
0.0
 40
0.3755098761610967
 50
90.077797583862775
 51
180.0000000000004
  0
LINE
  5
1E03
  8
0
 10
58.033474004599988
 20
-34.840620718500013
 30
0.0
 11
58.033474004599988
 21
-30.783574465400001
 31
0.0
  0
ARC
  5
1E04
  8
0
 10
58.244331174376683
 20
-30.783574465400001
 30
0.0
 40
0.2108571697766877
 50
90.232917599395336
 51
180.0000000000004
  0
LINE
  5
1E05
  8
0
 10
58.243474004599982
 20
-30.572719037900011
 30
0.0
 11
58.243474004599982
 21
-29.9056207185
 31
0.0
  0
ARC
  5
1E06
  8
0
 10
58.743474004599989
 20
-29.90562071850001
 30
0.0
 40
0.5
 50
90.0
 51
179.9999999999996
  0
LINE
  5
1E07
  8
0
 10
58.743474004599989
 20
-29.40562071850001
 30
0.0
 11
91.868474004596493
 21
-29.40562071850001
 31
0.0
  0
LINE
  5
1E08
  8
0
 10
91.868474004596493
 20
-29.40562071850001
 30
0.0
 11
91.821024295499996
 21
-30.764402605600001
 31
0.0
  0
ARC
  5
1E09
  8
0
 10
91.666087974100009
 20
-30.75897733050002
 30
0.0
 40
0.1550160199999721
 50
270.000081459093
 51
357.99454022960538
  0
LINE
  5
1E0A
  8
0
 10
91.666088194490854
 20
-30.913993350499851
 30
0.0
 11
91.560808641595045
 21
-30.913993500178879
 31
0.0
  0
ARC
  5
1E0B
  8
0
 10
91.560808421202935
 20
-30.75897659158673
 30
0.0
 40
0.1550169085923091
 50
186.00096763530919
 51
270.00008145909379
  0
LINE
  5
1E0C
  8
0
 10
91.406640985132157
 20
-30.77518287446944
 30
0.0
 11
91.387795336880259
 21
-30.595907633310489
 31
0.0
  0
ARC
  5
1E0D
  8
0
 10
58.358986366746031
 20
-30.31988105400184
 30
0.0
 40
0.2948732720881094
 50
239.96801846004701
 51
267.39585598848629
  0
LINE
  5
1E0E
  8
0
 10
58.345588728799989
 20
-30.61444980640001
 30
0.0
 11
59.171075571399989
 21
-30.628858775600008
 31
0.0
  0
ARC
  5
1E0F
  8
0
 10
59.16804287016457
 20
-30.363754131696719
 30
0.0
 40
0.265121989838397
 50
270.65541440386932
 51
307.89542038019749
  0
LINE
  5
1E10
  8
0
 10
59.330886662699989
 20
-30.572970691100011
 30
0.0
 11
66.366762903499989
 21
-30.572970473200009
 31
0.0
  0
LINE
  5
1E11
  8
0
 10
66.366762838958721
 20
-30.572970473200009
 30
0.0
 11
66.413790534299991
 21
-30.65439901540001
 31
0.0
  0
ARC
  5
1E12
  8
0
 10
66.604348576602206
 20
-30.544345398865801
 30
0.0
 40
0.2200549158694416
 50
210.00786488950021
 51
269.98958549707783
  0
LINE
  5
1E13
  8
0
 10
66.604308577799983
 20
-30.764400311100012
 30
0.0
 11
67.132615209688524
 21
-30.764404573103061
 31
0.0
  0
ARC
  5
1E14
  8
0
 10
67.132921341033224
 20
-30.544911501179591
 30
0.0
 40
0.2194932854070978
 50
269.92008849072022
 51
330.07807561451892
  0
LINE
  5
1E15
  8
0
 10
67.323157474799999
 20
-30.654399015300012
 30
0.0
 11
67.370093109730817
 21
-30.57292628140997
 31
0.0
  0
LINE
  5
1E16
  8
0
 10
67.370093109730817
 20
-30.57292628140997
 30
0.0
 11
76.366778532602083
 21
-30.572970323300009
 31
0.0
  0
LINE
  5
1E17
  8
0
 10
76.366762626660829
 20
-30.57297010540001
 30
0.0
 11
76.413790322002086
 21
-30.654398647600001
 31
0.0
  0
ARC
  5
1E18
  8
0
 10
76.6043483643043
 20
-30.544345031065799
 30
0.0
 40
0.2200549158694416
 50
210.00786488950021
 51
269.98958549707783
  0
LINE
  5
1E19
  8
0
 10
76.604308365502106
 20
-30.76439994330001
 30
0.0
 11
77.132614997390647
 21
-30.764404205303059
 31
0.0
  0
ARC
  5
1E1A
  8
0
 10
77.132921128735305
 20
-30.544911133379589
 30
0.0
 40
0.2194932854070978
 50
269.92008849072022
 51
330.07807561451892
  0
LINE
  5
1E1B
  8
0
 10
77.323157262502093
 20
-30.65439864750001
 30
0.0
 11
77.370092897432926
 21
-30.572925913609961
 31
0.0
  0
LINE
  5
1E1C
  8
0
 10
77.370092897432926
 20
-30.572925913609961
 30
0.0
 11
91.827743124499975
 21
-30.572000744299999
 31
0.0
  0
LINE
  5
1E1D
  8
0
 10
58.033474004599988
 20
-34.620620718500007
 30
0.0
 11
58.283498245310938
 21
-31.7628305706859
 31
0.0
  0
ARC
  5
1E1E
  8
0
 10
58.781595594429128
 20
-31.806408442073231
 30
0.0
 40
0.5000000000732252
 50
90.000000014798488
 51
174.99999999918199
  0
LINE
  5
1E1F
  8
0
 10
58.781595594300001
 20
-31.306408441999999
 30
0.0
 11
61.201308322300001
 21
-31.30640844137503
 31
0.0
  0
ARC
  5
1E20
  8
0
 10
61.201308322364547
 20
-31.556408441163601
 30
0.0
 40
0.2499999997885638
 50
6.9999998144926021
 51
90.000000014797664
  0
LINE
  5
1E21
  8
0
 10
61.44944486016368
 20
-31.525941106141481
 30
0.0
 11
61.614687929940906
 21
-32.871737947251688
 31
0.0
  0
ARC
  5
1E22
  8
0
 10
63.654230633970521
 20
-32.831992638740111
 30
0.0
 40
2.039929932892079
 50
181.11640233290859
 51
267.95292344454327
  0
LINE
  5
1E23
  8
0
 10
63.581363061399998
 20
-34.870620718595973
 30
0.0
 11
88.634521315499995
 21
-34.87062071859301
 31
0.0
  0
ARC
  5
1E24
  8
0
 10
88.589499477746017
 20
-32.833075050024888
 30
0.0
 40
2.0380430116598189
 50
271.26580799562811
 51
3.035364107029404
  0
LINE
  5
1E25
  8
0
 10
90.624683200114035
 20
-32.72515594335853
 30
0.0
 11
90.730571818499385
 21
-30.818535454911409
 31
0.0
  0
ARC
  5
1E26
  8
0
 10
90.940284020722913
 20
-30.82952600566567
 30
0.0
 40
0.2099999999212244
 50
92.984703614387271
 51
176.99999993072069
  0
LINE
  5
1E27
  8
0
 10
90.929349457654439
 20
-30.619810876746929
 30
0.0
 11
91.387798364614611
 21
-30.59590731522194
 31
0.0
  0
ARC
  5
1E28
  8
0
 10
60.902055976220382
 20
-31.013463176181158
 30
0.0
 40
0.4886151497707968
 50
17.226124938565089
 51
64.35760658440995
  0
LINE
  5
1E29
  8
0
 10
61.36875352629751
 20
-30.868762929679821
 30
0.0
 11
61.467370694267167
 21
-31.630907764474511
 31
0.0
  0
ARC
  5
1E2A
  8
0
 10
63.607621049012792
 20
-31.346195362236791
 30
0.0
 40
2.159104613052313
 50
187.57743248174091
 51
268.38155763867752
  0
LINE
  5
1E2B
  8
0
 10
66.707882694571879
 20
-34.620620718531512
 30
0.0
 11
66.725349984531263
 21
-34.870620718595603
 31
0.0
  0
LINE
  5
1E2C
  8
0
 10
67.350778004512989
 20
-34.870620718595532
 30
0.0
 11
67.334181394387912
 21
-34.62492717535109
 31
0.0
  0
LINE
  5
1E2D
  8
0
 10
63.546640611699999
 20
-33.504438656300003
 30
0.0
 11
66.848546319965436
 21
-33.529673051682408
 31
0.0
  0
LINE
  5
1E2F
  8
0
 10
66.772042914290267
 20
-31.94499541610632
 30
0.0
 11
66.755357451690259
 21
-32.035602407606319
 31
0.0
  0
LINE
  5
1E30
  8
0
 10
66.755357451690259
 20
-32.035602407606319
 30
0.0
 11
66.754569089440253
 21
-32.115937302056317
 31
0.0
  0
LINE
  5
1E31
  8
0
 10
66.754569089440253
 20
-32.115937302056317
 30
0.0
 11
66.855483319790267
 21
-33.634029017406327
 31
0.0
  0
LINE
  5
1E32
  8
0
 10
66.97035579029999
 20
-34.6695105656
 30
0.0
 11
67.110697587419111
 21
-34.669510124200002
 31
0.0
  0
LINE
  5
1E33
  8
0
 10
67.110697587419111
 20
-34.669510124200002
 30
0.0
 11
67.069315740600004
 21
-33.533496815399999
 31
0.0
  0
LINE
  5
1E34
  8
0
 10
67.069315740600004
 20
-33.533496815399999
 30
0.0
 11
66.968779376790252
 21
-32.112482968706317
 31
0.0
  0
LINE
  5
1E35
  8
0
 10
66.968779376790252
 20
-32.112482968706317
 30
0.0
 11
66.957299893255623
 21
-32.037345069341612
 31
0.0
  0
LINE
  5
1E36
  8
0
 10
66.957299893255623
 20
-32.037345069341612
 30
0.0
 11
66.92783486317046
 21
-31.945695797230449
 31
0.0
  0
LINE
  5
1E37
  8
0
 10
66.92783486317046
 20
-31.945695797230449
 30
0.0
 11
66.772042914290267
 21
-31.94499541610632
 31
0.0
  0
LINE
  5
1E38
  8
0
 10
66.855483209881569
 20
-33.634029017700342
 30
0.0
 11
66.97035579029999
 21
-34.6695105656
 31
0.0
  0
LINE
  5
1E3A
  8
0
 10
67.069315740600004
 20
-33.533496815399999
 30
0.0
 11
69.853854622062855
 21
-33.566233112699372
 31
0.0
  0
LINE
  5
1E3B
  8
0
 10
69.777774330610399
 20
-31.986725078602738
 30
0.0
 11
69.761850250910399
 21
-32.072866248902741
 31
0.0
  0
LINE
  5
1E3C
  8
0
 10
69.761850250910399
 20
-32.072866248902741
 30
0.0
 11
69.757942033249478
 21
-32.123383021385521
 31
0.0
  0
LINE
  5
1E3D
  8
0
 10
69.757942033249478
 20
-32.123383021385521
 30
0.0
 11
69.858856263599478
 21
-33.641474736735532
 31
0.0
  0
LINE
  5
1E3E
  8
0
 10
69.983875465890421
 20
-34.858437479599992
 30
0.0
 11
70.124217263009555
 21
-34.858437038200002
 31
0.0
  0
LINE
  5
1E3F
  8
0
 10
70.124217263009555
 20
-34.858437038200002
 30
0.0
 11
70.08415020769948
 21
-33.64457194103553
 31
0.0
  0
LINE
  5
1E40
  8
0
 10
70.08415020769948
 20
-33.64457194103553
 30
0.0
 11
69.972152320599477
 21
-32.119928688035529
 31
0.0
  0
LINE
  5
1E41
  8
0
 10
69.972152320599477
 20
-32.119928688035529
 30
0.0
 11
69.961636768510388
 21
-32.07367157370274
 31
0.0
  0
LINE
  5
1E42
  8
0
 10
69.961636768510388
 20
-32.07367157370274
 30
0.0
 11
69.931136449171831
 21
-31.98704783802091
 31
0.0
  0
LINE
  5
1E43
  8
0
 10
69.931136449171831
 20
-31.98704783802091
 30
0.0
 11
69.777774330610399
 21
-31.986725078602738
 31
0.0
  0
LINE
  5
1E44
  8
0
 10
69.85885615369078
 20
-33.64147473702954
 30
0.0
 11
69.983875465890421
 21
-34.858437479599992
 31
0.0
  0
LINE
  5
1E45
  8
0
 10
72.777481515875806
 20
-32.015320918470621
 30
0.0
 11
72.764776372125795
 21
-32.084343908870629
 31
0.0
  0
LINE
  5
1E46
  8
0
 10
72.764776372125795
 20
-32.084343908870629
 30
0.0
 11
72.756082770550762
 21
-32.128352595620633
 31
0.0
  0
LINE
  5
1E47
  8
0
 10
72.756082770550762
 20
-32.128352595620633
 30
0.0
 11
72.856997000900762
 21
-33.646444310970637
 31
0.0
  0
LINE
  5
1E48
  8
0
 10
72.978600285833977
 20
-34.742102443461867
 30
0.0
 11
73.118942082953112
 21
-34.742102002061863
 31
0.0
  0
LINE
  5
1E49
  8
0
 10
73.118942082953112
 20
-34.742102002061863
 30
0.0
 11
73.082290945000764
 21
-33.649541515270627
 31
0.0
  0
LINE
  5
1E4A
  8
0
 10
73.082290945000764
 20
-33.649541515270627
 30
0.0
 11
72.968042627675786
 21
-32.140065459970629
 31
0.0
  0
LINE
  5
1E4B
  8
0
 10
72.968042627675786
 20
-32.140065459970629
 30
0.0
 11
72.960408724181633
 21
-32.09789355474485
 31
0.0
  0
LINE
  5
1E4C
  8
0
 10
72.960408724181633
 20
-32.09789355474485
 30
0.0
 11
72.933541220158077
 21
-32.015259168299458
 31
0.0
  0
LINE
  5
1E4D
  8
0
 10
72.933541220158077
 20
-32.015259168299458
 30
0.0
 11
72.777481515875806
 21
-32.015320918470621
 31
0.0
  0
LINE
  5
1E4E
  8
0
 10
72.856996890992065
 20
-33.646444311264638
 30
0.0
 11
72.978600285833977
 21
-34.742102443461867
 31
0.0
  0
LINE
  5
1E4F
  8
0
 10
70.078558221760773
 20
-33.568447436787352
 30
0.0
 11
72.853204774151465
 21
-33.589396380357996
 31
0.0
  0
LINE
  5
1E51
  8
0
 10
75.781588872121219
 20
-32.02870881204506
 30
0.0
 11
75.765664792421219
 21
-32.114849982345049
 31
0.0
  0
LINE
  5
1E52
  8
0
 10
75.765664792421219
 20
-32.114849982345049
 30
0.0
 11
75.761756574760298
 21
-32.165366754827843
 31
0.0
  0
LINE
  5
1E53
  8
0
 10
75.761756574760298
 20
-32.165366754827843
 30
0.0
 11
75.862670805110298
 21
-33.683458470177847
 31
0.0
  0
LINE
  5
1E54
  8
0
 10
75.984760090990434
 20
-34.858437479599999
 30
0.0
 11
76.125101888109569
 21
-34.858437038200002
 31
0.0
  0
LINE
  5
1E55
  8
0
 10
76.125101888109569
 20
-34.858437038200002
 30
0.0
 11
76.072533455200002
 21
-33.598029197499997
 31
0.0
  0
LINE
  5
1E56
  8
0
 10
76.072533455200002
 20
-33.598029197499997
 30
0.0
 11
75.975966862110297
 21
-32.161912421477851
 31
0.0
  0
LINE
  5
1E57
  8
0
 10
75.975966862110297
 20
-32.161912421477851
 30
0.0
 11
75.965451310021209
 21
-32.115655307145047
 31
0.0
  0
LINE
  5
1E58
  8
0
 10
75.965451310021209
 20
-32.115655307145047
 30
0.0
 11
75.934950990682651
 21
-32.029031571463229
 31
0.0
  0
LINE
  5
1E59
  8
0
 10
75.934950990682651
 20
-32.029031571463229
 30
0.0
 11
75.781588872121219
 21
-32.02870881204506
 31
0.0
  0
LINE
  5
1E5A
  8
0
 10
75.862670695201601
 20
-33.683458470471862
 30
0.0
 11
75.984760090990434
 21
-34.858437479599999
 31
0.0
  0
LINE
  5
1E5B
  8
0
 10
78.781920344375024
 20
-32.027406175935141
 30
0.0
 11
78.765996264675024
 21
-32.113547346235137
 31
0.0
  0
LINE
  5
1E5C
  8
0
 10
78.765996264675024
 20
-32.113547346235137
 30
0.0
 11
78.762088047014103
 21
-32.164064118717931
 31
0.0
  0
LINE
  5
1E5D
  8
0
 10
78.762088047014103
 20
-32.164064118717931
 30
0.0
 11
78.86011129887639
 21
-33.592496759250707
 31
0.0
  0
LINE
  5
1E5E
  8
0
 10
78.976695300299994
 20
-34.742517003099998
 30
0.0
 11
79.116993923500004
 21
-34.7418986076
 31
0.0
  0
LINE
  5
1E5F
  8
0
 10
79.116993923500004
 20
-34.7418986076
 30
0.0
 11
79.072529758999991
 21
-33.590414498400001
 31
0.0
  0
LINE
  5
1E60
  8
0
 10
79.072529758999991
 20
-33.590414498400001
 30
0.0
 11
78.976298334364103
 21
-32.160609785367932
 31
0.0
  0
LINE
  5
1E61
  8
0
 10
78.976298334364103
 20
-32.160609785367932
 30
0.0
 11
78.965782782275014
 21
-32.114352671035142
 31
0.0
  0
LINE
  5
1E62
  8
0
 10
78.965782782275014
 20
-32.114352671035142
 30
0.0
 11
78.935282462936456
 21
-32.027728935353323
 31
0.0
  0
LINE
  5
1E63
  8
0
 10
78.935282462936456
 20
-32.027728935353323
 30
0.0
 11
78.781920344375024
 21
-32.027406175935141
 31
0.0
  0
LINE
  5
1E64
  8
0
 10
78.86011129887639
 20
-33.592496759250707
 30
0.0
 11
78.976695300299994
 21
-34.742517003099998
 31
0.0
  0
LINE
  5
1E65
  8
0
 10
84.777368357281574
 20
-31.984626524107401
 30
0.0
 11
84.761478240236571
 21
-32.064755220624519
 31
0.0
  0
LINE
  5
1E66
  8
0
 10
84.761478240236571
 20
-32.064755220624519
 30
0.0
 11
84.760201006893922
 21
-32.152215717362878
 31
0.0
  0
LINE
  5
1E67
  8
0
 10
84.760201006893922
 20
-32.152215717362878
 30
0.0
 11
84.854741709600006
 21
-33.5354627257
 31
0.0
  0
LINE
  5
1E68
  8
0
 10
84.972400066344406
 20
-34.672265897637772
 30
0.0
 11
85.112558829600005
 21
-34.669647451000003
 31
0.0
  0
LINE
  5
1E69
  8
0
 10
85.112558829600005
 20
-34.669647451000003
 30
0.0
 11
85.071164746433055
 21
-33.533422362700861
 31
0.0
  0
LINE
  5
1E6A
  8
0
 10
85.071164746433055
 20
-33.533422362700861
 30
0.0
 11
84.974411294243936
 21
-32.148761384012893
 31
0.0
  0
LINE
  5
1E6B
  8
0
 10
84.974411294243936
 20
-32.148761384012893
 30
0.0
 11
84.961253912204839
 21
-32.062950647880093
 31
0.0
  0
LINE
  5
1E6C
  8
0
 10
84.961253912204839
 20
-32.062950647880093
 30
0.0
 11
84.933075035836154
 21
-31.98310448604478
 31
0.0
  0
LINE
  5
1E6D
  8
0
 10
84.933075035836154
 20
-31.98310448604478
 30
0.0
 11
84.777368357281574
 21
-31.984626524107401
 31
0.0
  0
LINE
  5
1E6E
  8
0
 10
84.854741709600006
 20
-33.5354627257
 30
0.0
 11
84.972400066344406
 21
-34.672265897637772
 31
0.0
  0
LINE
  5
1E6F
  8
0
 10
81.778912362862812
 20
-32.013495162469617
 30
0.0
 11
81.763022245817794
 21
-32.093623858986739
 31
0.0
  0
LINE
  5
1E70
  8
0
 10
81.763022245817794
 20
-32.093623858986739
 30
0.0
 11
81.761745012475146
 21
-32.181084355725098
 31
0.0
  0
LINE
  5
1E71
  8
0
 10
81.761745012475146
 20
-32.181084355725098
 30
0.0
 11
81.858084621259536
 21
-33.57020158243288
 31
0.0
  0
LINE
  5
1E72
  8
0
 10
81.985109835399996
 20
-34.858437257299997
 30
0.0
 11
82.12545170109999
 21
-34.858437258899997
 31
0.0
  0
LINE
  5
1E73
  8
0
 10
82.12545170109999
 20
-34.858437258899997
 30
0.0
 11
82.074465922552278
 21
-33.568125777912464
 31
0.0
  0
LINE
  5
1E74
  8
0
 10
82.074465922552278
 20
-33.568125777912464
 30
0.0
 11
81.975955299825145
 21
-32.177630022375112
 31
0.0
  0
LINE
  5
1E75
  8
0
 10
81.975955299825145
 20
-32.177630022375112
 30
0.0
 11
81.962797917786048
 21
-32.091819286242313
 31
0.0
  0
LINE
  5
1E76
  8
0
 10
81.962797917786048
 20
-32.091819286242313
 30
0.0
 11
81.934619041417378
 21
-32.011973124407
 31
0.0
  0
LINE
  5
1E77
  8
0
 10
81.934619041417378
 20
-32.011973124407
 30
0.0
 11
81.778912362862812
 21
-32.013495162469617
 31
0.0
  0
LINE
  5
1E78
  8
0
 10
81.858084621258669
 20
-33.570201582420879
 30
0.0
 11
81.985109835399996
 21
-34.858437257299997
 31
0.0
  0
LINE
  5
1E7A
  8
0
 10
73.077826833558689
 20
-33.59056060869986
 30
0.0
 11
75.856989291295037
 21
-33.597989265055098
 31
0.0
  0
LINE
  5
1E7B
  8
0
 10
76.072533455200002
 20
-33.598029197499997
 30
0.0
 11
78.607316265670335
 21
-33.592240156892863
 31
0.0
  0
LINE
  5
1E7C
  8
0
 10
78.607316265670335
 20
-33.592240156892863
 30
0.0
 11
78.86011129887639
 21
-33.592496759250707
 31
0.0
  0
LINE
  5
1E7D
  8
0
 10
79.072529758999991
 20
-33.590414498400001
 30
0.0
 11
79.290420922837114
 21
-33.589154021299152
 31
0.0
  0
LINE
  5
1E7E
  8
0
 10
79.290420922837114
 20
-33.589154021299152
 30
0.0
 11
81.858084621258669
 21
-33.570201582420879
 31
0.0
  0
LINE
  5
1E7F
  8
0
 10
82.074465922552278
 20
-33.568125777912464
 30
0.0
 11
84.854741709600006
 21
-33.5354627257
 31
0.0
  0
LINE
  5
1E80
  8
0
 10
85.071164746433055
 20
-33.533422362700861
 30
0.0
 11
88.599195417200008
 21
-33.502819462399998
 31
0.0
  0
ARC
  5
1E81
  8
0
 10
88.549103789961706
 20
-31.35575202349883
 30
0.0
 40
2.1476516845869149
 50
271.33648260240773
 51
344.13906721843091
  0
ARC
  5
1E82
  8
0
 10
102.1033564549257
 20
-33.710985529882613
 30
0.0
 40
11.62365506615248
 50
169.00548765612979
 51
171.2497842928457
  0
LINE
  5
1E83
  8
0
 10
72.707546306961575
 20
-34.679291161671507
 30
0.0
 11
72.725369014005295
 21
-34.870620718594893
 31
0.0
  0
LINE
  5
1E84
  8
0
 10
73.335502411127393
 20
-34.683141640681761
 30
0.0
 11
73.350759201804365
 21
-34.870620718594822
 31
0.0
  0
LINE
  5
1E85
  8
0
 10
78.702980897090114
 20
-34.683075895304782
 30
0.0
 11
78.725389252415553
 21
-34.870620718594168
 31
0.0
  0
ARC
  5
1E89
  8
0
 10
63.606036804229582
 20
-32.612465794578803
 30
0.0
 40
2.008156465089904
 50
187.4181389430648
 51
269.92898319293221
  0
LINE
  5
1E8A
  8
0
 10
63.603547740899977
 20
-34.62062071710001
 30
0.0
 11
66.964932127372009
 21
-34.620620718575587
 31
0.0
  0
LINE
  5
1E8B
  8
0
 10
67.10932948068168
 20
-34.622304372188282
 30
0.0
 11
69.963036994468084
 21
-34.655591672124991
 31
0.0
  0
LINE
  5
1E8C
  8
0
 10
70.117578022423316
 20
-34.657295667641527
 30
0.0
 11
72.971796675299998
 21
-34.681289800899997
 31
0.0
  0
LINE
  5
1E8D
  8
0
 10
73.116929723572355
 20
-34.682114114441553
 30
0.0
 11
75.967288969152563
 21
-34.6902967390157
 31
0.0
  0
LINE
  5
1E8E
  8
0
 10
76.119773592595919
 20
-34.690299955001699
 30
0.0
 11
78.97059355323718
 21
-34.682327504031541
 31
0.0
  0
LINE
  5
1E8F
  8
0
 10
79.114651325890662
 20
-34.681232586957613
 30
0.0
 11
81.965269802680936
 21
-34.65722808704021
 31
0.0
  0
LINE
  5
1E90
  8
0
 10
82.117434957089785
 20
-34.655555256680017
 30
0.0
 11
84.966685596909286
 21
-34.617053270506872
 31
0.0
  0
LINE
  5
1E91
  8
0
 10
85.110772725188596
 20
-34.620620718498472
 30
0.0
 11
88.627416971799974
 21
-34.620620718500007
 31
0.0
  0
ARC
  5
1E92
  8
0
 10
88.64064947321711
 20
-32.653788186605141
 30
0.0
 40
1.966877044355785
 50
269.61452994472018
 51
352.05554364457203
  0
LINE
  5
1E93
  8
0
 10
90.588649455501894
 20
-32.925636262986231
 30
0.0
 11
90.624676286099984
 21
-32.725288014300013
 31
0.0
  0
LINE
  5
1E94
  8
0
 10
58.243474004599982
 20
-30.40744472450001
 30
0.0
 11
57.992582378226828
 21
-30.405617402206111
 31
0.0
  0
ARC
  5
1E95
  8
0
 10
57.99349290590132
 20
-30.28060181526083
 30
0.0
 40
0.1250189027304308
 50
180.00866329713091
 51
269.58270427143282
  0
LINE
  5
1E96
  8
0
 10
57.868474004599989
 20
-30.280620718501279
 30
0.0
 11
57.868462664370611
 21
-30.205620719357341
 31
0.0
  0
LINE
  5
1E97
  8
0
 10
57.868462664370611
 20
-30.205620719357341
 30
0.0
 11
57.54409156989999
 21
-30.16279549530001
 31
0.0
  0
ARC
  5
1E98
  8
0
 10
57.868493040384372
 20
-28.955604012554801
 30
0.0
 40
1.250019035881041
 50
180.00071252153541
 51
254.9585821220131
  0
LINE
  5
1E99
  8
0
 10
56.618474004599989
 20
-28.955619557600009
 30
0.0
 11
56.618474004599989
 21
40.594380441999988
 31
0.0
  0
ARC
  5
1E9A
  8
0
 10
57.884157059031189
 20
40.578696212508099
 30
0.0
 40
1.265780229474708
 50
90.709914564831266
 51
179.29003224174221
  0
LINE
  5
1E9B
  8
0
 10
57.868474004599989
 20
41.84437928149999
 30
0.0
 11
84.738474004599993
 21
41.84437928149999
 31
0.0
  0
ARC
  5
1E9C
  8
0
 10
84.711294744998995
 20
40.567200021898991
 30
0.0
 40
1.2774684236048379
 50
1.219109878560555
 51
88.780890121439455
  0
LINE
  5
1E9D
  8
0
 10
85.988474004599993
 20
40.59437928149999
 30
0.0
 11
86.063569154562614
 21
40.594379281523153
 31
0.0
  0
ARC
  5
1E9E
  8
0
 10
86.063492597902311
 20
40.469328414196241
 30
0.0
 40
0.125050890737868
 50
1.9101029950364381
 51
89.964923318900674
  0
LINE
  5
1E9F
  8
0
 10
86.188474004629697
 20
40.473496536888383
 30
0.0
 11
86.188474004599996
 21
40.094379281499982
 31
0.0
  0
LINE
  5
1EA0
  8
0
 10
86.188474004599996
 20
40.094379281499982
 30
0.0
 11
85.255665755799996
 21
34.21937928149999
 31
0.0
  0
LINE
  5
1EA1
  8
0
 10
85.255665755799996
 20
34.21937928149999
 30
0.0
 11
85.288473997599993
 21
-29.40562071850001
 31
0.0
  0
ARC
  5
1EA2
  8
0
 10
86.313418356190056
 20
40.473611455369308
 30
0.0
 40
0.1249444044386861
 50
91.972612976286555
 51
180.052698237811
  0
ARC
  5
1EA3
  8
0
 10
87.559579391919755
 20
40.640335584093378
 30
0.0
 40
1.2511620860716279
 50
92.071404363196976
 51
181.91701115806021
  0
LINE
  5
1EA4
  8
0
 10
87.514356199199995
 20
41.890680107999998
 30
0.0
 11
91.868474004599989
 21
42.042729252103371
 31
0.0
  0
LINE
  5
1EA5
  8
0
 10
91.868474004599989
 20
42.042729252103371
 30
0.0
 11
91.868474004599989
 21
40.484312231599993
 31
0.0
  0
LINE
  5
1EA6
  8
0
 10
91.868474004599989
 20
40.484312231599993
 30
0.0
 11
90.315858207499986
 21
40.4535625161
 31
0.0
  0
LINE
  5
1EA7
  8
0
 10
91.374582000161553
 20
40.474530649670591
 30
0.0
 11
90.236792871800006
 21
39.044133675499999
 31
0.0
  0
LINE
  5
1EA8
  8
0
 10
91.868474004599989
 20
40.677312027899987
 30
0.0
 11
86.356382904540297
 21
40.489870996021729
 31
0.0
  0
ARC
  5
1EA9
  8
0
 10
86.358420225878888
 20
40.429959349645657
 30
0.0
 40
0.059946276362484
 50
91.947617169031076
 51
180.07769399035831
  0
LINE
  5
1EAA
  8
0
 10
86.298474004630364
 20
40.429878061564239
 30
0.0
 11
86.298474004419532
 21
-29.405620718483188
 31
0.0
  0
ARC
  5
1EAB
  8
0
 10
87.054380863206973
 20
40.298356096096057
 30
0.0
 40
0.2882250825944134
 50
133.6695992976135
 51
157.03631564700581
  0
LINE
  5
1EAC
  8
0
 10
86.788996948367668
 20
40.410806422823569
 30
0.0
 11
86.760170229609244
 21
-29.40562071850001
 31
0.0
  0
LINE
  5
1EAD
  8
0
 10
87.776675396356097
 20
40.538168653916387
 30
0.0
 11
86.788530652688578
 21
39.281468790707791
 31
0.0
  0
ARC
  5
1EAE
  8
0
 10
92.149578815565377
 20
39.643763401316022
 30
0.0
 40
2.0045712446178028
 50
156.17301226280011
 51
197.4054261851216
  0
ARC
  5
1EAF
  8
0
 10
90.840087477750004
 20
39.212041541740362
 30
0.0
 40
0.5574376053690476
 50
190.2398795165216
 51
264.55533380746027
  0
ARC
  5
1EB0
  8
0
 10
90.767155436794297
 20
38.446868387799142
 30
0.0
 40
0.2112034279555664
 50
357.85747006463657
 51
84.555333807461139
  0
LINE
  5
1EB5
  8
0
 10
90.978211216299997
 20
38.438972444699679
 30
0.0
 11
90.978474004555764
 21
22.915287498498682
 31
0.0
  0
ARC
  5
1EB6
  8
0
 10
90.503479625288406
 20
22.915279457692339
 30
0.0
 40
0.474994379335416
 50
271.99934526805322
 51
0.0009699151987421
  0
LINE
  5
1EB7
  8
0
 10
90.520051265499987
 20
22.440574242699999
 30
0.0
 11
86.781449346356396
 21
22.310062160797919
 31
0.0
  0
LINE
  5
1EB9
  8
0
 10
90.428474004599991
 20
22.43737629428065
 30
0.0
 11
90.428474004599991
 21
21.009379281499999
 31
0.0
  0
LINE
  5
1EBA
  8
0
 10
86.780986753813238
 20
21.010639196549882
 30
0.0
 11
90.503474004600008
 21
21.009379281499999
 31
0.0
  0
ARC
  5
1EBB
  8
0
 10
90.503313181410562
 20
20.53421845831058
 30
0.0
 40
0.4751608504055671
 50
0.0193923598066552
 51
89.980607640192943
  0
LINE
  5
1EBC
  8
0
 10
90.978474004599974
 20
20.534379281500001
 30
0.0
 11
90.982175101471881
 21
9.5992881248376065
 31
0.0
  0
ARC
  5
1EBD
  8
0
 10
90.507454769969598
 20
9.5991274507372424
 30
0.0
 40
0.4747203586932037
 50
271.5204967277013
 51
0.0193923598074695
  0
LINE
  5
1EBE
  8
0
 10
90.520051265536424
 20
9.1245742427012644
 30
0.0
 11
86.776025096590246
 21
8.9938299678528537
 31
0.0
  0
LINE
  5
1EC6
  8
0
 10
86.775488075347297
 20
7.6931996465456498
 30
0.0
 11
90.503474004600008
 21
7.6933792814999933
 31
0.0
  0
ARC
  5
1EC7
  8
0
 10
90.503496891620927
 20
7.2184021685209308
 30
0.0
 40
0.4749771135304723
 50
359.99723917285991
 51
90.002760827139227
  0
LINE
  5
1EC8
  8
0
 10
90.978474004599974
 20
7.218379281499991
 30
0.0
 11
90.977167787002173
 21
-19.889712470029622
 31
0.0
  0
ARC
  5
1EC9
  8
0
 10
90.502092031730115
 20
-19.889689578255538
 30
0.0
 40
0.4750757558235704
 50
272.16646192548092
 51
359.99723917286042
  0
LINE
  5
1ECA
  8
0
 10
90.520051265499987
 20
-20.364425757300008
 30
0.0
 11
86.763822192234215
 21
-20.50652361922355
 31
0.0
  0
LINE
  5
1ECB
  8
0
 10
90.428474004599991
 20
9.1245742426999925
 30
0.0
 11
90.428474004599991
 21
7.6933792814999933
 31
0.0
  0
LINE
  5
1ECC
  8
0
 10
90.678474004599991
 20
-20.330809033072342
 30
0.0
 11
90.678474004599991
 21
-22.13165816148361
 31
0.0
  0
LINE
  5
1ECD
  8
0
 10
86.763296761758994
 20
-21.83336437308224
 30
0.0
 11
90.5366083296
 21
-22.099403281000001
 31
0.0
  0
ARC
  5
1ECE
  8
0
 10
90.503180542759225
 20
-22.573519851996309
 30
0.0
 40
0.4752935301751564
 50
0.030723900024902
 51
85.967010983223787
  0
LINE
  5
1ECF
  8
0
 10
90.978474004599974
 20
-22.57326498383101
 30
0.0
 11
90.98145807756319
 21
-28.13814346685243
 31
0.0
  0
ARC
  5
1ED0
  8
0
 10
90.762168461206343
 20
-28.138261057239578
 30
0.0
 40
0.2192896478847543
 50
277.97413833632049
 51
0.0307239000232735
  0
LINE
  5
1ED1
  8
0
 10
91.178359775900006
 20
38.518192693300001
 30
0.0
 11
91.178561235000004
 21
-28.379427095299999
 31
0.0
  0
LINE
  5
1EE2
  8
0
 10
90.792589660654471
 20
-28.35543034672029
 30
0.0
 11
86.760544168020374
 21
-28.499966347855221
 31
0.0
  0
LINE
  5
1EE4
  8
0
 10
86.052304994799997
 20
39.236761508925483
 30
0.0
 11
86.078457248499987
 21
40.40419170709999
 31
0.0
  0
ARC
  5
1EE5
  8
0
 10
86.000176239867415
 20
40.405945323548202
 30
0.0
 40
0.0783006480380611
 50
358.71669998770051
 51
91.216502901181087
  0
LINE
  5
1EE6
  8
0
 10
85.99851388690098
 20
40.484228323399989
 30
0.0
 11
58.058429864689401
 21
40.484228323513413
 31
0.0
  0
ARC
  5
1EE7
  8
0
 10
58.05846354088029
 20
40.404255524960391
 30
0.0
 40
0.0799728056434592
 50
90.024126991843261
 51
180.04572172274271
  0
LINE
  5
1EE8
  8
0
 10
57.978490760699998
 20
40.40419170709999
 30
0.0
 11
57.978490760699998
 21
-30.04562071849746
 31
0.0
  0
ARC
  5
1EE9
  8
0
 10
58.233438716674442
 20
-30.043542453182521
 30
0.0
 40
0.2549564265561552
 50
180.46704902377769
 51
272.2557902241295
  0
LINE
  5
1EEA
  8
0
 10
61.145080132399997
 20
40.44875236759998
 30
0.0
 11
61.231949332200003
 21
40.44875236759998
 31
0.0
  0
LINE
  5
1EEB
  8
0
 10
61.231949332200003
 20
40.44875236759998
 30
0.0
 11
61.245568583909538
 21
40.407045162356809
 31
0.0
  0
LINE
  5
1EEC
  8
0
 10
61.245568583909538
 20
40.407045162356809
 30
0.0
 11
61.23523930959999
 21
39.354948592200003
 31
0.0
  0
ARC
  5
1EED
  8
0
 10
61.159716142313812
 20
39.35569006359507
 30
0.0
 40
0.0755268070076166
 50
308.42266691051788
 51
359.43749953558307
  0
ARC
  5
1EEE
  8
0
 10
61.187861067329749
 20
39.320208850289653
 30
0.0
 40
0.0302382510383988
 50
208.91721474336461
 51
308.42266691050548
  0
ARC
  5
1EEF
  8
0
 10
61.258846046394993
 20
39.37250902802257
 30
0.0
 40
0.118218557251456
 50
187.1068493768781
 51
214.47766543450251
  0
LINE
  5
1EF0
  8
0
 10
61.141535743999988
 20
39.357883015900001
 30
0.0
 11
61.131367340879962
 21
40.407008379299988
 31
0.0
  0
LINE
  5
1EF1
  8
0
 10
61.131367340879962
 20
40.407008379299988
 30
0.0
 11
61.145080132399997
 21
40.44875236759998
 31
0.0
  0
LINE
  5
1EF2
  8
0
 10
64.145080132399997
 20
40.448752367600001
 30
0.0
 11
64.231949332200003
 21
40.448752367600001
 31
0.0
  0
LINE
  5
1EF3
  8
0
 10
64.231949332200003
 20
40.448752367600001
 30
0.0
 11
64.245568583909545
 21
40.40704516235683
 31
0.0
  0
LINE
  5
1EF4
  8
0
 10
64.245568583909545
 20
40.40704516235683
 30
0.0
 11
64.23591942607024
 21
39.190912921198738
 31
0.0
  0
ARC
  5
1EF5
  8
0
 10
64.160396258784061
 20
39.191654392593797
 30
0.0
 40
0.0755268070076166
 50
308.42266691051788
 51
359.43749953558307
  0
ARC
  5
1EF6
  8
0
 10
64.188541183799998
 20
39.156173179288402
 30
0.0
 40
0.0302382510383988
 50
208.91721474336461
 51
308.42266691050548
  0
ARC
  5
1EF7
  8
0
 10
64.259526162865214
 20
39.208473357021312
 30
0.0
 40
0.118218557251456
 50
187.1068493768781
 51
214.47766543450251
  0
LINE
  5
1EF8
  8
0
 10
64.14221586047023
 20
39.193847344898742
 30
0.0
 11
64.131367340879962
 21
40.407008379299988
 31
0.0
  0
LINE
  5
1EF9
  8
0
 10
64.131367340879962
 20
40.407008379299988
 30
0.0
 11
64.145080132399997
 21
40.448752367600001
 31
0.0
  0
LINE
  5
1EFA
  8
0
 10
67.145080132399983
 20
40.448752367600001
 30
0.0
 11
67.231949332199989
 21
40.448752367600001
 31
0.0
  0
LINE
  5
1EFB
  8
0
 10
67.231949332199989
 20
40.448752367600001
 30
0.0
 11
67.245568583909545
 21
40.40704516235683
 31
0.0
  0
LINE
  5
1EFC
  8
0
 10
67.245568583909545
 20
40.40704516235683
 30
0.0
 11
67.235981379720229
 21
39.213605404198717
 31
0.0
  0
ARC
  5
1EFD
  8
0
 10
67.160458212434051
 20
39.214346875593797
 30
0.0
 40
0.0755268070076166
 50
308.42266691051788
 51
359.43749953558307
  0
ARC
  5
1EFE
  8
0
 10
67.188603137450002
 20
39.178865662288402
 30
0.0
 40
0.0302382510383988
 50
208.91721474336461
 51
308.42266691050548
  0
ARC
  5
1EFF
  8
0
 10
67.259588116515232
 20
39.231165840021312
 30
0.0
 40
0.118218557251456
 50
187.1068493768781
 51
214.47766543450251
  0
LINE
  5
1F00
  8
0
 10
67.142277814120234
 20
39.216539827898721
 30
0.0
 11
67.131367340879962
 21
40.407008379299988
 31
0.0
  0
LINE
  5
1F01
  8
0
 10
67.131367340879962
 20
40.407008379299988
 30
0.0
 11
67.145080132399983
 21
40.448752367600001
 31
0.0
  0
LINE
  5
1F02
  8
0
 10
70.145080132399983
 20
40.44850440419998
 30
0.0
 11
70.231949332199989
 21
40.44850440419998
 31
0.0
  0
LINE
  5
1F03
  8
0
 10
70.231949332199989
 20
40.44850440419998
 30
0.0
 11
70.245568583909545
 21
40.406797198956809
 31
0.0
  0
LINE
  5
1F04
  8
0
 10
70.245568583909545
 20
40.406797198956809
 30
0.0
 11
70.235993348870224
 21
39.235831270048728
 31
0.0
  0
ARC
  5
1F05
  8
0
 10
70.160470181584046
 20
39.236572741443787
 30
0.0
 40
0.0755268070076166
 50
308.42266691051788
 51
359.43749953558307
  0
ARC
  5
1F06
  8
0
 10
70.188615106599997
 20
39.201091528138377
 30
0.0
 40
0.0302382510383988
 50
208.91721474336461
 51
308.42266691050548
  0
ARC
  5
1F07
  8
0
 10
70.259600085665227
 20
39.253391705871302
 30
0.0
 40
0.118218557251456
 50
187.1068493768781
 51
214.47766543450251
  0
LINE
  5
1F08
  8
0
 10
70.142289783270229
 20
39.238765693748718
 30
0.0
 11
70.131367340879962
 21
40.406760415899988
 31
0.0
  0
LINE
  5
1F09
  8
0
 10
70.131367340879962
 20
40.406760415899988
 30
0.0
 11
70.145080132399983
 21
40.44850440419998
 31
0.0
  0
LINE
  5
1F0A
  8
0
 10
73.145080132399983
 20
40.44850440419998
 30
0.0
 11
73.231949332199989
 21
40.44850440419998
 31
0.0
  0
LINE
  5
1F0B
  8
0
 10
73.231949332199989
 20
40.44850440419998
 30
0.0
 11
73.245568583909545
 21
40.406797198956809
 31
0.0
  0
LINE
  5
1F0C
  8
0
 10
73.245568583909545
 20
40.406797198956809
 30
0.0
 11
73.236663907270227
 21
39.257651558948723
 31
0.0
  0
ARC
  5
1F0D
  8
0
 10
73.161140739984049
 20
39.25839303034379
 30
0.0
 40
0.0755268070076166
 50
308.42266691051788
 51
359.43749953558307
  0
ARC
  5
1F0E
  8
0
 10
73.189285665
 20
39.222911817038387
 30
0.0
 40
0.0302382510383988
 50
208.91721474336461
 51
308.42266691050548
  0
ARC
  5
1F0F
  8
0
 10
73.26027064406523
 20
39.275211994771297
 30
0.0
 40
0.118218557251456
 50
187.1068493768781
 51
214.47766543450251
  0
LINE
  5
1F10
  8
0
 10
73.142960341670232
 20
39.26058598264872
 30
0.0
 11
73.131367340879962
 21
40.406760415899988
 31
0.0
  0
LINE
  5
1F11
  8
0
 10
73.131367340879962
 20
40.406760415899988
 30
0.0
 11
73.145080132399983
 21
40.44850440419998
 31
0.0
  0
LINE
  5
1F12
  8
0
 10
76.145080132399983
 20
40.448752367600001
 30
0.0
 11
76.231949332199974
 21
40.448752367600001
 31
0.0
  0
LINE
  5
1F13
  8
0
 10
76.231949332199974
 20
40.448752367600001
 30
0.0
 11
76.245568583909545
 21
40.40704516235683
 31
0.0
  0
LINE
  5
1F14
  8
0
 10
76.245568583909545
 20
40.40704516235683
 30
0.0
 11
76.235659260720226
 21
39.278974514098742
 31
0.0
  0
ARC
  5
1F15
  8
0
 10
76.160136093434033
 20
39.279715985493802
 30
0.0
 40
0.0755268070076166
 50
308.42266691051788
 51
359.43749953558307
  0
ARC
  5
1F16
  8
0
 10
76.188281018449999
 20
39.244234772188399
 30
0.0
 40
0.0302382510383988
 50
208.91721474336461
 51
308.42266691050548
  0
ARC
  5
1F17
  8
0
 10
76.259265997515215
 20
39.296534949921323
 30
0.0
 40
0.118218557251456
 50
187.1068493768781
 51
214.47766543450251
  0
LINE
  5
1F18
  8
0
 10
76.141955695120231
 20
39.28190893779874
 30
0.0
 11
76.131367340879962
 21
40.407008379299988
 31
0.0
  0
LINE
  5
1F19
  8
0
 10
76.131367340879962
 20
40.407008379299988
 30
0.0
 11
76.145080132399983
 21
40.448752367600001
 31
0.0
  0
LINE
  5
1F1A
  8
0
 10
79.145080132399983
 20
40.448752367600001
 30
0.0
 11
79.231949332199989
 21
40.448752367600001
 31
0.0
  0
LINE
  5
1F1B
  8
0
 10
79.231949332199989
 20
40.448752367600001
 30
0.0
 11
79.245568583909545
 21
40.40704516235683
 31
0.0
  0
LINE
  5
1F1C
  8
0
 10
79.245568583909545
 20
40.40704516235683
 30
0.0
 11
79.236119739470226
 21
39.299444482348733
 31
0.0
  0
ARC
  5
1F1D
  8
0
 10
79.160596572184033
 20
39.300185953743792
 30
0.0
 40
0.0755268070076166
 50
308.42266691051788
 51
359.43749953558307
  0
ARC
  5
1F1E
  8
0
 10
79.188741497199999
 20
39.264704740438397
 30
0.0
 40
0.0302382510383988
 50
208.91721474336461
 51
308.42266691050548
  0
ARC
  5
1F1F
  8
0
 10
79.259726476265215
 20
39.317004918171321
 30
0.0
 40
0.118218557251456
 50
187.1068493768781
 51
214.47766543450251
  0
LINE
  5
1F20
  8
0
 10
79.142416173870231
 20
39.30237890604873
 30
0.0
 11
79.131367340879962
 21
40.407008379299988
 31
0.0
  0
LINE
  5
1F21
  8
0
 10
79.131367340879962
 20
40.407008379299988
 30
0.0
 11
79.145080132399983
 21
40.448752367600001
 31
0.0
  0
LINE
  5
1F22
  8
0
 10
82.145080132399968
 20
40.448752367600001
 30
0.0
 11
82.231949332199974
 21
40.448752367600001
 31
0.0
  0
LINE
  5
1F23
  8
0
 10
82.231949332199974
 20
40.448752367600001
 30
0.0
 11
82.245568583909545
 21
40.40704516235683
 31
0.0
  0
LINE
  5
1F24
  8
0
 10
82.245568583909545
 20
40.40704516235683
 30
0.0
 11
82.235752231270226
 21
39.319992541148729
 31
0.0
  0
ARC
  5
1F25
  8
0
 10
82.160229063984048
 20
39.320734012543802
 30
0.0
 40
0.0755268070076166
 50
308.42266691051788
 51
359.43749953558307
  0
ARC
  5
1F26
  8
0
 10
82.188373988999984
 20
39.285252799238393
 30
0.0
 40
0.0302382510383988
 50
208.91721474336461
 51
308.42266691050548
  0
ARC
  5
1F27
  8
0
 10
82.259358968065229
 20
39.337552976971303
 30
0.0
 40
0.118218557251456
 50
187.1068493768781
 51
214.47766543450251
  0
LINE
  5
1F28
  8
0
 10
82.142048665670231
 20
39.322926964848733
 30
0.0
 11
82.131367340879962
 21
40.407008379299988
 31
0.0
  0
LINE
  5
1F29
  8
0
 10
82.131367340879962
 20
40.407008379299988
 30
0.0
 11
82.145080132399968
 21
40.448752367600001
 31
0.0
  0
LINE
  5
1F2A
  8
0
 10
85.145080132399983
 20
40.44850440419998
 30
0.0
 11
85.231949332199989
 21
40.44850440419998
 31
0.0
  0
LINE
  5
1F2B
  8
0
 10
85.231949332199989
 20
40.44850440419998
 30
0.0
 11
85.245568583909545
 21
40.406797198956809
 31
0.0
  0
LINE
  5
1F2C
  8
0
 10
85.245568583909545
 20
40.406797198956809
 30
0.0
 11
85.231950996699993
 21
39.222864228099994
 31
0.0
  0
LINE
  5
1F2D
  8
0
 10
85.144998677099977
 20
39.257444656599993
 30
0.0
 11
85.131367340879962
 21
40.406760415899988
 31
0.0
  0
LINE
  5
1F2E
  8
0
 10
85.131367340879962
 20
40.406760415899988
 30
0.0
 11
85.145080132399983
 21
40.44850440419998
 31
0.0
  0
ARC
  5
1F2F
  8
0
 10
85.260023575953241
 20
39.265496869399421
 30
0.0
 40
0.1153063982924081
 50
184.00440585411121
 51
225.6072249885321
  0
ARC
  5
1F30
  8
0
 10
85.200484763734195
 20
39.204682497307417
 30
0.0
 40
0.03019906597963
 50
225.6072249885562
 51
301.61892060246612
  0
ARC
  5
1F31
  8
0
 10
85.170871595556505
 20
39.219884280101184
 30
0.0
 40
0.0611520509396074
 50
318.00100246601409
 51
2.793137540368114
  0
ARC
  5
1F32
  8
0
 10
84.042730228095266
 20
38.395455448839421
 30
0.0
 40
0.2292438028226597
 50
358.64910742452332
 51
91.384236761044107
  0
LINE
  5
1F33
  8
0
 10
84.037192353699993
 20
38.62463235229999
 30
0.0
 11
64.033596400899995
 21
38.617969148600011
 31
0.0
  0
ARC
  5
1F34
  8
0
 10
64.023761980423245
 20
38.393215699453002
 30
0.0
 40
0.2250135414897208
 50
87.514763013785881
 51
182.48603392902669
  0
LINE
  5
1F35
  8
0
 10
63.798960216211213
 20
38.383455542645528
 30
0.0
 11
63.798960295099988
 21
-28.280654998900001
 31
0.0
  0
ARC
  5
1F36
  8
0
 10
64.018485748149459
 20
-28.29568744412364
 30
0.0
 40
0.2200395395059117
 50
176.08267198074819
 51
273.95813441923679
  0
LINE
  5
1F37
  8
0
 10
64.033674536899994
 20
-28.515202135300012
 30
0.0
 11
84.037270489599976
 21
-28.515202135300012
 31
0.0
  0
ARC
  5
1F38
  8
0
 10
84.050623347925779
 20
-28.29391848512623
 30
0.0
 40
0.2216861580245771
 50
266.5468038136014
 51
3.4389316974009532
  0
LINE
  5
1F39
  8
0
 10
84.271910315599996
 20
-28.28062071850001
 30
0.0
 11
84.271910315599996
 21
38.390050948499997
 31
0.0
  0
LINE
  5
1F3A
  8
0
 10
70.193942172524203
 20
37.900588951099998
 30
0.0
 11
64.527205130424207
 21
37.900588951099998
 31
0.0
  0
LINE
  5
1F3B
  8
0
 10
64.527205130424207
 20
37.900588951099998
 30
0.0
 11
64.527205130424207
 21
32.233851908999277
 31
0.0
  0
LINE
  5
1F3C
  8
0
 10
64.527205130424207
 20
32.233851908999277
 30
0.0
 11
70.193942172524203
 21
32.233851908999277
 31
0.0
  0
LINE
  5
1F3D
  8
0
 10
70.193942172524203
 20
32.233851908999277
 30
0.0
 11
70.193942172524203
 21
37.900588951099998
 31
0.0
  0
LINE
  5
1F3E
  8
0
 10
70.193942172524203
 20
31.227588951000719
 30
0.0
 11
64.527205130424207
 21
31.227588951000719
 31
0.0
  0
LINE
  5
1F3F
  8
0
 10
64.527205130424207
 20
31.227588951000719
 30
0.0
 11
64.527205130424207
 21
25.560851908899998
 31
0.0
  0
LINE
  5
1F40
  8
0
 10
64.527205130424207
 20
25.560851908899998
 30
0.0
 11
70.193942172524203
 21
25.560851908899998
 31
0.0
  0
LINE
  5
1F41
  8
0
 10
70.193942172524203
 20
25.560851908899998
 30
0.0
 11
70.193942172524203
 21
31.227588951000719
 31
0.0
  0
LINE
  5
1F42
  8
0
 10
70.193942172524203
 20
24.554588951000721
 30
0.0
 11
64.527205130424207
 21
24.554588951000721
 31
0.0
  0
LINE
  5
1F43
  8
0
 10
64.527205130424207
 20
24.554588951000721
 30
0.0
 11
64.527205130424207
 21
18.8878519089
 31
0.0
  0
LINE
  5
1F44
  8
0
 10
64.527205130424207
 20
18.8878519089
 30
0.0
 11
70.193942172524203
 21
18.8878519089
 31
0.0
  0
LINE
  5
1F45
  8
0
 10
70.193942172524203
 20
18.8878519089
 30
0.0
 11
70.193942172524203
 21
24.554588951000721
 31
0.0
  0
LINE
  5
1F46
  8
0
 10
70.193942172524203
 20
17.881588951000712
 30
0.0
 11
64.527205130424207
 21
17.881588951000712
 31
0.0
  0
LINE
  5
1F47
  8
0
 10
64.527205130424207
 20
17.881588951000712
 30
0.0
 11
64.527205130424207
 21
12.214851908899989
 31
0.0
  0
LINE
  5
1F48
  8
0
 10
64.527205130424207
 20
12.214851908899989
 30
0.0
 11
70.193942172524203
 21
12.214851908899989
 31
0.0
  0
LINE
  5
1F49
  8
0
 10
70.193942172524203
 20
12.214851908899989
 30
0.0
 11
70.193942172524203
 21
17.881588951000712
 31
0.0
  0
LINE
  5
1F4A
  8
0
 10
70.193942172524203
 20
11.20858895100071
 30
0.0
 11
64.527205130424207
 21
11.20858895100071
 31
0.0
  0
LINE
  5
1F4B
  8
0
 10
64.527205130424207
 20
11.20858895100071
 30
0.0
 11
64.527205130424207
 21
5.541851908899992
 31
0.0
  0
LINE
  5
1F4C
  8
0
 10
64.527205130424207
 20
5.541851908899992
 30
0.0
 11
70.193942172524203
 21
5.541851908899992
 31
0.0
  0
LINE
  5
1F4D
  8
0
 10
70.193942172524203
 20
5.541851908899992
 30
0.0
 11
70.193942172524203
 21
11.20858895100071
 31
0.0
  0
LINE
  5
1F4E
  8
0
 10
70.193942172524203
 20
4.5355889510007108
 30
0.0
 11
64.527205130424207
 21
4.5355889510007108
 31
0.0
  0
LINE
  5
1F4F
  8
0
 10
64.527205130424207
 20
4.5355889510007108
 30
0.0
 11
64.527205130424207
 21
-1.131148091100008
 31
0.0
  0
LINE
  5
1F50
  8
0
 10
64.527205130424207
 20
-1.131148091100008
 30
0.0
 11
70.193942172524203
 21
-1.131148091100008
 31
0.0
  0
LINE
  5
1F51
  8
0
 10
70.193942172524203
 20
-1.131148091100008
 30
0.0
 11
70.193942172524203
 21
4.5355889510007108
 31
0.0
  0
LINE
  5
1F52
  8
0
 10
70.193942172524203
 20
-2.1374110489992901
 30
0.0
 11
64.527205130424207
 21
-2.1374110489992901
 31
0.0
  0
LINE
  5
1F53
  8
0
 10
64.527205130424207
 20
-2.1374110489992901
 30
0.0
 11
64.527205130424207
 21
-7.8041480911000072
 31
0.0
  0
LINE
  5
1F54
  8
0
 10
64.527205130424207
 20
-7.8041480911000072
 30
0.0
 11
70.193942172524203
 21
-7.8041480911000072
 31
0.0
  0
LINE
  5
1F55
  8
0
 10
70.193942172524203
 20
-7.8041480911000072
 30
0.0
 11
70.193942172524203
 21
-2.1374110489992901
 31
0.0
  0
LINE
  5
1F56
  8
0
 10
70.193942172524203
 20
-8.8104110489992884
 30
0.0
 11
64.527205130424207
 21
-8.8104110489992884
 31
0.0
  0
LINE
  5
1F57
  8
0
 10
64.527205130424207
 20
-8.8104110489992884
 30
0.0
 11
64.527205130424207
 21
-14.477148091100011
 31
0.0
  0
LINE
  5
1F58
  8
0
 10
64.527205130424207
 20
-14.477148091100011
 30
0.0
 11
70.193942172524203
 21
-14.477148091100011
 31
0.0
  0
LINE
  5
1F59
  8
0
 10
70.193942172524203
 20
-14.477148091100011
 30
0.0
 11
70.193942172524203
 21
-8.8104110489992884
 31
0.0
  0
LINE
  5
1F5A
  8
0
 10
70.193942172524203
 20
-15.48341104899929
 30
0.0
 11
64.527205130424207
 21
-15.48341104899929
 31
0.0
  0
LINE
  5
1F5B
  8
0
 10
64.527205130424207
 20
-15.48341104899929
 30
0.0
 11
64.527205130424207
 21
-21.150148091100011
 31
0.0
  0
LINE
  5
1F5C
  8
0
 10
64.527205130424207
 20
-21.150148091100011
 30
0.0
 11
70.193942172524203
 21
-21.150148091100011
 31
0.0
  0
LINE
  5
1F5D
  8
0
 10
70.193942172524203
 20
-21.150148091100011
 30
0.0
 11
70.193942172524203
 21
-15.48341104899929
 31
0.0
  0
LINE
  5
1F5E
  8
0
 10
70.193942172524203
 20
-22.15641104889928
 30
0.0
 11
64.527205130424207
 21
-22.15641104889928
 31
0.0
  0
LINE
  5
1F5F
  8
0
 10
64.527205130424207
 20
-22.15641104889928
 30
0.0
 11
64.527205130424207
 21
-27.823148091000011
 31
0.0
  0
LINE
  5
1F60
  8
0
 10
64.527205130424207
 20
-27.823148091000011
 30
0.0
 11
70.193942172524203
 21
-27.823148091000011
 31
0.0
  0
LINE
  5
1F61
  8
0
 10
70.193942172524203
 20
-27.823148091000011
 30
0.0
 11
70.193942172524203
 21
-22.15641104889928
 31
0.0
  0
LINE
  5
1F62
  8
0
 10
76.871807288124202
 20
37.900588951099998
 30
0.0
 11
71.205070246024206
 21
37.900588951099998
 31
0.0
  0
LINE
  5
1F63
  8
0
 10
71.205070246024206
 20
37.900588951099998
 30
0.0
 11
71.205070246024206
 21
32.233851908999277
 31
0.0
  0
LINE
  5
1F64
  8
0
 10
71.205070246024206
 20
32.233851908999277
 30
0.0
 11
76.871807288124202
 21
32.233851908999277
 31
0.0
  0
LINE
  5
1F65
  8
0
 10
76.871807288124202
 20
32.233851908999277
 30
0.0
 11
76.871807288124202
 21
37.900588951099998
 31
0.0
  0
LINE
  5
1F66
  8
0
 10
76.871807288124202
 20
31.227588951000719
 30
0.0
 11
71.205070246024206
 21
31.227588951000719
 31
0.0
  0
LINE
  5
1F67
  8
0
 10
71.205070246024206
 20
31.227588951000719
 30
0.0
 11
71.205070246024206
 21
25.560851908899998
 31
0.0
  0
LINE
  5
1F68
  8
0
 10
71.205070246024206
 20
25.560851908899998
 30
0.0
 11
76.871807288124202
 21
25.560851908899998
 31
0.0
  0
LINE
  5
1F69
  8
0
 10
76.871807288124202
 20
25.560851908899998
 30
0.0
 11
76.871807288124202
 21
31.227588951000719
 31
0.0
  0
LINE
  5
1F6A
  8
0
 10
76.871807288124202
 20
24.554588951000721
 30
0.0
 11
71.205070246024206
 21
24.554588951000721
 31
0.0
  0
LINE
  5
1F6B
  8
0
 10
71.205070246024206
 20
24.554588951000721
 30
0.0
 11
71.205070246024206
 21
18.8878519089
 31
0.0
  0
LINE
  5
1F6C
  8
0
 10
71.205070246024206
 20
18.8878519089
 30
0.0
 11
76.871807288124202
 21
18.8878519089
 31
0.0
  0
LINE
  5
1F6D
  8
0
 10
76.871807288124202
 20
18.8878519089
 30
0.0
 11
76.871807288124202
 21
24.554588951000721
 31
0.0
  0
LINE
  5
1F6E
  8
0
 10
76.871807288124202
 20
17.881588951000712
 30
0.0
 11
71.205070246024206
 21
17.881588951000712
 31
0.0
  0
LINE
  5
1F6F
  8
0
 10
71.205070246024206
 20
17.881588951000712
 30
0.0
 11
71.205070246024206
 21
12.214851908899989
 31
0.0
  0
LINE
  5
1F70
  8
0
 10
71.205070246024206
 20
12.214851908899989
 30
0.0
 11
76.871807288124202
 21
12.214851908899989
 31
0.0
  0
LINE
  5
1F71
  8
0
 10
76.871807288124202
 20
12.214851908899989
 30
0.0
 11
76.871807288124202
 21
17.881588951000712
 31
0.0
  0
LINE
  5
1F72
  8
0
 10
76.871807288124202
 20
11.20858895100071
 30
0.0
 11
71.205070246024206
 21
11.20858895100071
 31
0.0
  0
LINE
  5
1F73
  8
0
 10
71.205070246024206
 20
11.20858895100071
 30
0.0
 11
71.205070246024206
 21
5.541851908899992
 31
0.0
  0
LINE
  5
1F74
  8
0
 10
71.205070246024206
 20
5.541851908899992
 30
0.0
 11
76.871807288124202
 21
5.541851908899992
 31
0.0
  0
LINE
  5
1F75
  8
0
 10
76.871807288124202
 20
5.541851908899992
 30
0.0
 11
76.871807288124202
 21
11.20858895100071
 31
0.0
  0
LINE
  5
1F76
  8
0
 10
76.871807288124202
 20
4.5355889510007108
 30
0.0
 11
71.205070246024206
 21
4.5355889510007108
 31
0.0
  0
LINE
  5
1F77
  8
0
 10
71.205070246024206
 20
4.5355889510007108
 30
0.0
 11
71.205070246024206
 21
-1.131148091100008
 31
0.0
  0
LINE
  5
1F78
  8
0
 10
71.205070246024206
 20
-1.131148091100008
 30
0.0
 11
76.871807288124202
 21
-1.131148091100008
 31
0.0
  0
LINE
  5
1F79
  8
0
 10
76.871807288124202
 20
-1.131148091100008
 30
0.0
 11
76.871807288124202
 21
4.5355889510007108
 31
0.0
  0
LINE
  5
1F7A
  8
0
 10
76.871807288124202
 20
-2.1374110489992901
 30
0.0
 11
71.205070246024206
 21
-2.1374110489992901
 31
0.0
  0
LINE
  5
1F7B
  8
0
 10
71.205070246024206
 20
-2.1374110489992901
 30
0.0
 11
71.205070246024206
 21
-7.8041480911000072
 31
0.0
  0
LINE
  5
1F7C
  8
0
 10
71.205070246024206
 20
-7.8041480911000072
 30
0.0
 11
76.871807288124202
 21
-7.8041480911000072
 31
0.0
  0
LINE
  5
1F7D
  8
0
 10
76.871807288124202
 20
-7.8041480911000072
 30
0.0
 11
76.871807288124202
 21
-2.1374110489992901
 31
0.0
  0
LINE
  5
1F7E
  8
0
 10
76.871807288124202
 20
-8.8104110489992884
 30
0.0
 11
71.205070246024206
 21
-8.8104110489992884
 31
0.0
  0
LINE
  5
1F7F
  8
0
 10
71.205070246024206
 20
-8.8104110489992884
 30
0.0
 11
71.205070246024206
 21
-14.477148091100011
 31
0.0
  0
LINE
  5
1F80
  8
0
 10
71.205070246024206
 20
-14.477148091100011
 30
0.0
 11
76.871807288124202
 21
-14.477148091100011
 31
0.0
  0
LINE
  5
1F81
  8
0
 10
76.871807288124202
 20
-14.477148091100011
 30
0.0
 11
76.871807288124202
 21
-8.8104110489992884
 31
0.0
  0
LINE
  5
1F82
  8
0
 10
76.871807288124202
 20
-15.48341104899929
 30
0.0
 11
71.205070246024206
 21
-15.48341104899929
 31
0.0
  0
LINE
  5
1F83
  8
0
 10
71.205070246024206
 20
-15.48341104899929
 30
0.0
 11
71.205070246024206
 21
-21.150148091100011
 31
0.0
  0
LINE
  5
1F84
  8
0
 10
71.205070246024206
 20
-21.150148091100011
 30
0.0
 11
76.871807288124202
 21
-21.150148091100011
 31
0.0
  0
LINE
  5
1F85
  8
0
 10
76.871807288124202
 20
-21.150148091100011
 30
0.0
 11
76.871807288124202
 21
-15.48341104899929
 31
0.0
  0
LINE
  5
1F86
  8
0
 10
76.871807288124202
 20
-22.15641104889928
 30
0.0
 11
71.205070246024206
 21
-22.15641104889928
 31
0.0
  0
LINE
  5
1F87
  8
0
 10
71.205070246024206
 20
-22.15641104889928
 30
0.0
 11
71.205070246024206
 21
-27.823148091000011
 31
0.0
  0
LINE
  5
1F88
  8
0
 10
71.205070246024206
 20
-27.823148091000011
 30
0.0
 11
76.871807288124202
 21
-27.823148091000011
 31
0.0
  0
LINE
  5
1F89
  8
0
 10
76.871807288124202
 20
-27.823148091000011
 30
0.0
 11
76.871807288124202
 21
-22.15641104889928
 31
0.0
  0
LINE
  5
1F8A
  8
0
 10
83.549672403624214
 20
37.900588951099998
 30
0.0
 11
77.882935361524218
 21
37.900588951099998
 31
0.0
  0
LINE
  5
1F8B
  8
0
 10
77.882935361524218
 20
37.900588951099998
 30
0.0
 11
77.882935361524218
 21
32.233851908999277
 31
0.0
  0
LINE
  5
1F8C
  8
0
 10
77.882935361524218
 20
32.233851908999277
 30
0.0
 11
83.549672403624214
 21
32.233851908999277
 31
0.0
  0
LINE
  5
1F8D
  8
0
 10
83.549672403624214
 20
32.233851908999277
 30
0.0
 11
83.549672403624214
 21
37.900588951099998
 31
0.0
  0
LINE
  5
1F8E
  8
0
 10
83.549672403624214
 20
31.227588951000719
 30
0.0
 11
77.882935361524218
 21
31.227588951000719
 31
0.0
  0
LINE
  5
1F8F
  8
0
 10
77.882935361524218
 20
31.227588951000719
 30
0.0
 11
77.882935361524218
 21
25.560851908899998
 31
0.0
  0
LINE
  5
1F90
  8
0
 10
77.882935361524218
 20
25.560851908899998
 30
0.0
 11
83.549672403624214
 21
25.560851908899998
 31
0.0
  0
LINE
  5
1F91
  8
0
 10
83.549672403624214
 20
25.560851908899998
 30
0.0
 11
83.549672403624214
 21
31.227588951000719
 31
0.0
  0
LINE
  5
1F92
  8
0
 10
83.549672403624214
 20
24.554588951000721
 30
0.0
 11
77.882935361524218
 21
24.554588951000721
 31
0.0
  0
LINE
  5
1F93
  8
0
 10
77.882935361524218
 20
24.554588951000721
 30
0.0
 11
77.882935361524218
 21
18.8878519089
 31
0.0
  0
LINE
  5
1F94
  8
0
 10
77.882935361524218
 20
18.8878519089
 30
0.0
 11
83.549672403624214
 21
18.8878519089
 31
0.0
  0
LINE
  5
1F95
  8
0
 10
83.549672403624214
 20
18.8878519089
 30
0.0
 11
83.549672403624214
 21
24.554588951000721
 31
0.0
  0
LINE
  5
1F96
  8
0
 10
83.549672403624214
 20
17.881588951000712
 30
0.0
 11
77.882935361524218
 21
17.881588951000712
 31
0.0
  0
LINE
  5
1F97
  8
0
 10
77.882935361524218
 20
17.881588951000712
 30
0.0
 11
77.882935361524218
 21
12.214851908899989
 31
0.0
  0
LINE
  5
1F98
  8
0
 10
77.882935361524218
 20
12.214851908899989
 30
0.0
 11
83.549672403624214
 21
12.214851908899989
 31
0.0
  0
LINE
  5
1F99
  8
0
 10
83.549672403624214
 20
12.214851908899989
 30
0.0
 11
83.549672403624214
 21
17.881588951000712
 31
0.0
  0
LINE
  5
1F9A
  8
0
 10
83.549672403624214
 20
11.20858895100071
 30
0.0
 11
77.882935361524218
 21
11.20858895100071
 31
0.0
  0
LINE
  5
1F9B
  8
0
 10
77.882935361524218
 20
11.20858895100071
 30
0.0
 11
77.882935361524218
 21
5.541851908899992
 31
0.0
  0
LINE
  5
1F9C
  8
0
 10
77.882935361524218
 20
5.541851908899992
 30
0.0
 11
83.549672403624214
 21
5.541851908899992
 31
0.0
  0
LINE
  5
1F9D
  8
0
 10
83.549672403624214
 20
5.541851908899992
 30
0.0
 11
83.549672403624214
 21
11.20858895100071
 31
0.0
  0
LINE
  5
1F9E
  8
0
 10
83.549672403624214
 20
4.5355889510007108
 30
0.0
 11
77.882935361524218
 21
4.5355889510007108
 31
0.0
  0
LINE
  5
1F9F
  8
0
 10
77.882935361524218
 20
4.5355889510007108
 30
0.0
 11
77.882935361524218
 21
-1.131148091100008
 31
0.0
  0
LINE
  5
1FA0
  8
0
 10
77.882935361524218
 20
-1.131148091100008
 30
0.0
 11
83.549672403624214
 21
-1.131148091100008
 31
0.0
  0
LINE
  5
1FA1
  8
0
 10
83.549672403624214
 20
-1.131148091100008
 30
0.0
 11
83.549672403624214
 21
4.5355889510007108
 31
0.0
  0
LINE
  5
1FA2
  8
0
 10
83.549672403624214
 20
-2.1374110489992901
 30
0.0
 11
77.882935361524218
 21
-2.1374110489992901
 31
0.0
  0
LINE
  5
1FA3
  8
0
 10
77.882935361524218
 20
-2.1374110489992901
 30
0.0
 11
77.882935361524218
 21
-7.8041480911000072
 31
0.0
  0
LINE
  5
1FA4
  8
0
 10
77.882935361524218
 20
-7.8041480911000072
 30
0.0
 11
83.549672403624214
 21
-7.8041480911000072
 31
0.0
  0
LINE
  5
1FA5
  8
0
 10
83.549672403624214
 20
-7.8041480911000072
 30
0.0
 11
83.549672403624214
 21
-2.1374110489992901
 31
0.0
  0
LINE
  5
1FA6
  8
0
 10
83.549672403624214
 20
-8.8104110489992884
 30
0.0
 11
77.882935361524218
 21
-8.8104110489992884
 31
0.0
  0
LINE
  5
1FA7
  8
0
 10
77.882935361524218
 20
-8.8104110489992884
 30
0.0
 11
77.882935361524218
 21
-14.477148091100011
 31
0.0
  0
LINE
  5
1FA8
  8
0
 10
77.882935361524218
 20
-14.477148091100011
 30
0.0
 11
83.549672403624214
 21
-14.477148091100011
 31
0.0
  0
LINE
  5
1FA9
  8
0
 10
83.549672403624214
 20
-14.477148091100011
 30
0.0
 11
83.549672403624214
 21
-8.8104110489992884
 31
0.0
  0
LINE
  5
1FAA
  8
0
 10
83.549672403624214
 20
-15.48341104899929
 30
0.0
 11
77.882935361524218
 21
-15.48341104899929
 31
0.0
  0
LINE
  5
1FAB
  8
0
 10
77.882935361524218
 20
-15.48341104899929
 30
0.0
 11
77.882935361524218
 21
-21.150148091100011
 31
0.0
  0
LINE
  5
1FAC
  8
0
 10
77.882935361524218
 20
-21.150148091100011
 30
0.0
 11
83.549672403624214
 21
-21.150148091100011
 31
0.0
  0
LINE
  5
1FAD
  8
0
 10
83.549672403624214
 20
-21.150148091100011
 30
0.0
 11
83.549672403624214
 21
-15.48341104899929
 31
0.0
  0
LINE
  5
1FAE
  8
0
 10
83.549672403624214
 20
-22.15641104889928
 30
0.0
 11
77.882935361524218
 21
-22.15641104889928
 31
0.0
  0
LINE
  5
1FAF
  8
0
 10
77.882935361524218
 20
-22.15641104889928
 30
0.0
 11
77.882935361524218
 21
-27.823148091000011
 31
0.0
  0
LINE
  5
1FB0
  8
0
 10
77.882935361524218
 20
-27.823148091000011
 30
0.0
 11
83.549672403624214
 21
-27.823148091000011
 31
0.0
  0
LINE
  5
1FB1
  8
0
 10
83.549672403624214
 20
-27.823148091000011
 30
0.0
 11
83.549672403624214
 21
-22.15641104889928
 31
0.0
  0
ARC
  5
1FB2
  8
0
 10
62.656799582766908
 20
39.87551974145854
 30
0.0
 40
0.6429984756768072
 50
108.7959762879612
 51
168.74089155695711
  0
LINE
  5
1FB3
  8
0
 10
62.026176092399993
 20
40.001062774399998
 30
0.0
 11
62.026176092399993
 21
-29.40562071850001
 31
0.0
  0
LINE
  5
1FB4
  8
0
 10
61.095104939279203
 20
-29.40562071850001
 30
0.0
 11
61.099868766299991
 21
-29.198035104500001
 31
0.0
  0
ARC
  5
1FB5
  8
0
 10
61.218195973301931
 20
-29.217840731450028
 30
0.0
 40
0.1199732919268488
 50
142.47442482051451
 51
170.49790706062061
  0
ARC
  5
1FB6
  8
0
 10
61.146099868891667
 20
-29.16479780904093
 30
0.0
 40
0.0305418662602616
 50
41.636766303295779
 51
139.00645758767311
  0
ARC
  5
1FB7
  8
0
 10
61.058051414951812
 20
-29.22281442761988
 30
0.0
 40
0.1357403571590945
 50
8.6552963682830661
 51
35.232904480336558
  0
LINE
  5
1FB8
  8
0
 10
61.192245907099988
 20
-29.20238692560001
 30
0.0
 11
61.195698140629837
 21
-29.405620718407409
 31
0.0
  0
LINE
  5
1FB9
  8
0
 10
64.088703603349188
 20
-29.40562071850001
 30
0.0
 11
64.097226701299974
 21
-29.03422341260001
 31
0.0
  0
ARC
  5
1FBA
  8
0
 10
64.215553908301914
 20
-29.054029039550031
 30
0.0
 40
0.1199732919268488
 50
142.47442482051451
 51
170.49790706062061
  0
ARC
  5
1FBB
  8
0
 10
64.143457803891664
 20
-29.000986117140929
 30
0.0
 40
0.0305418662602616
 50
41.636766303295779
 51
139.00645758767311
  0
ARC
  5
1FBC
  8
0
 10
64.055409349951816
 20
-29.059002735719879
 30
0.0
 40
0.1357403571590945
 50
8.6552963682830661
 51
35.232904480336558
  0
LINE
  5
1FBD
  8
0
 10
64.189603842099984
 20
-29.038575233700008
 30
0.0
 11
64.195838665118856
 21
-29.40562071850001
 31
0.0
  0
LINE
  5
1FBE
  8
0
 10
67.092401765440712
 20
-29.40562071850001
 30
0.0
 11
67.100365080983039
 21
-29.05861614862139
 31
0.0
  0
ARC
  5
1FBF
  8
0
 10
67.218692287984979
 20
-29.07842177557141
 30
0.0
 40
0.1199732919268488
 50
142.47442482051451
 51
170.49790706062061
  0
ARC
  5
1FC0
  8
0
 10
67.146596183574701
 20
-29.025378853162309
 30
0.0
 40
0.0305418662602616
 50
41.636766303295779
 51
139.00645758767311
  0
ARC
  5
1FC1
  8
0
 10
67.058547729634853
 20
-29.083395471741259
 30
0.0
 40
0.1357403571590945
 50
8.6552963682830661
 51
35.232904480336558
  0
LINE
  5
1FC2
  8
0
 10
67.192742221783035
 20
-29.062967969721392
 30
0.0
 11
67.198562697266397
 21
-29.40562071850001
 31
0.0
  0
LINE
  5
1FC3
  8
0
 10
70.092765023406429
 20
-29.40562071850001
 30
0.0
 11
70.100190861011271
 21
-29.082036958650381
 31
0.0
  0
ARC
  5
1FC4
  8
0
 10
70.218518068013211
 20
-29.101842585600409
 30
0.0
 40
0.1199732919268488
 50
142.47442482051451
 51
170.49790706062061
  0
ARC
  5
1FC5
  8
0
 10
70.146421963602933
 20
-29.048799663191311
 30
0.0
 40
0.0305418662602616
 50
41.636766303295779
 51
139.00645758767311
  0
ARC
  5
1FC6
  8
0
 10
70.058373509663085
 20
-29.10681628177025
 30
0.0
 40
0.1357403571590945
 50
8.6552963682830661
 51
35.232904480336558
  0
LINE
  5
1FC7
  8
0
 10
70.192568001811267
 20
-29.086388779750379
 30
0.0
 11
70.19799063939297
 21
-29.40562071850001
 31
0.0
  0
LINE
  5
1FC8
  8
0
 10
73.092702953124913
 20
-29.40562071850001
 30
0.0
 11
73.099612269741243
 21
-29.104544561482239
 31
0.0
  0
ARC
  5
1FC9
  8
0
 10
73.217939476743183
 20
-29.124350188432281
 30
0.0
 40
0.1199732919268488
 50
142.47442482051451
 51
170.49790706062061
  0
ARC
  5
1FCA
  8
0
 10
73.145843372332905
 20
-29.071307266023169
 30
0.0
 40
0.0305418662602616
 50
41.636766303295779
 51
139.00645758767311
  0
ARC
  5
1FCB
  8
0
 10
73.057794918393057
 20
-29.129323884602119
 30
0.0
 40
0.1357403571590945
 50
8.6552963682830661
 51
35.232904480336558
  0
LINE
  5
1FCC
  8
0
 10
73.19198941054124
 20
-29.108896382582252
 30
0.0
 11
73.197029722427473
 21
-29.40562071850001
 31
0.0
  0
LINE
  5
1FCD
  8
0
 10
76.092850587667826
 20
-29.40562071850001
 30
0.0
 11
76.099263121741188
 21
-29.126192053878022
 31
0.0
  0
ARC
  5
1FCE
  8
0
 10
76.217590328743128
 20
-29.145997680828049
 30
0.0
 40
0.1199732919268488
 50
142.47442482051451
 51
170.49790706062061
  0
ARC
  5
1FCF
  8
0
 10
76.14549422433285
 20
-29.092954758418941
 30
0.0
 40
0.0305418662602616
 50
41.636766303295779
 51
139.00645758767311
  0
ARC
  5
1FD0
  8
0
 10
76.057445770393002
 20
-29.150971376997891
 30
0.0
 40
0.1357403571590945
 50
8.6552963682830661
 51
35.232904480336558
  0
LINE
  5
1FD1
  8
0
 10
76.191640262541185
 20
-29.13054387497802
 30
0.0
 11
76.196312859009382
 21
-29.40562071850001
 31
0.0
  0
LINE
  5
1FD2
  8
0
 10
79.093753583886269
 20
-29.40562071850001
 30
0.0
 11
79.099688569427954
 21
-29.147001416754911
 31
0.0
  0
ARC
  5
1FD3
  8
0
 10
79.218015776429908
 20
-29.166807043704939
 30
0.0
 40
0.1199732919268488
 50
142.47442482051451
 51
170.49790706062061
  0
ARC
  5
1FD4
  8
0
 10
79.14591967201963
 20
-29.113764121295841
 30
0.0
 40
0.0305418662602616
 50
41.636766303295779
 51
139.00645758767311
  0
ARC
  5
1FD5
  8
0
 10
79.057871218079782
 20
-29.17178073987478
 30
0.0
 40
0.1357403571590945
 50
8.6552963682830661
 51
35.232904480336558
  0
LINE
  5
1FD6
  8
0
 10
79.192065710227965
 20
-29.151353237854909
 30
0.0
 11
79.196384828176335
 21
-29.40562071850001
 31
0.0
  0
LINE
  5
1FD7
  8
0
 10
82.094184565994667
 20
-29.40562071850001
 30
0.0
 11
82.099604209744726
 21
-29.16945763562445
 31
0.0
  0
ARC
  5
1FD8
  8
0
 10
82.21793141674668
 20
-29.189263262574471
 30
0.0
 40
0.1199732919268488
 50
142.47442482051451
 51
170.49790706062061
  0
ARC
  5
1FD9
  8
0
 10
82.145835312336416
 20
-29.136220340165369
 30
0.0
 40
0.0305418662602616
 50
41.636766303295779
 51
139.00645758767311
  0
ARC
  5
1FDA
  8
0
 10
82.057786858396554
 20
-29.19423695874432
 30
0.0
 40
0.1357403571590945
 50
8.6552963682830661
 51
35.232904480336558
  0
LINE
  5
1FDB
  8
0
 10
82.191981350544737
 20
-29.173809456724449
 30
0.0
 11
82.195919015632029
 21
-29.40562071850001
 31
0.0
  0
LINE
  5
1FDC
  8
0
 10
85.097959295906691
 20
-29.40562071850001
 30
0.0
 11
85.10492943942873
 21
-29.1018940054255
 31
0.0
  0
ARC
  5
1FDD
  8
0
 10
85.223256646430684
 20
-29.12169963237552
 30
0.0
 40
0.1199732919268488
 50
142.47442482051451
 51
170.49790706062061
  0
ARC
  5
1FDE
  8
0
 10
85.151160542020392
 20
-29.068656709966419
 30
0.0
 40
0.0305418662602616
 50
41.636766303295779
 51
139.00645758767311
  0
ARC
  5
1FDF
  8
0
 10
85.063112088080544
 20
-29.126673328545369
 30
0.0
 40
0.1357403571590945
 50
8.6552963682830661
 51
35.232904480336558
  0
LINE
  5
1FE0
  8
0
 10
85.197306580228727
 20
-29.106245826525502
 30
0.0
 11
85.202391915820755
 21
-29.40562071850001
 31
0.0
  0
LINE
  5
1FE1
  8
0
 10
90.78385706624519
 20
38.657599555316487
 30
0.0
 11
86.788474004599976
 21
38.655026163700001
 31
0.0
  0
LINE
  5
206B
  8
0
 10
91.178359775900006
 20
38.518192693300001
 30
0.0
 11
90.963091352534946
 21
38.525710032271192
 31
0.0
  0
ARC
  5
206C
  8
0
 10
90.930548721390679
 20
-29.00024779371871
 30
0.0
 40
0.6594105264497774
 50
102.07639652837879
 51
173.18030233401461
  0
LINE
  5
206D
  8
0
 10
90.660536038776641
 20
-29.40562071859636
 30
0.0
 11
90.220701498954526
 21
-28.852672918985402
 31
0.0
  0
ARC
  5
206E
  8
0
 10
92.100352747073075
 20
-29.374213640198729
 30
0.0
 40
1.9506648964999951
 50
164.49243441217959
 51
180.9225422569647
  0
LINE
  5
21B4
  8
0
 10
70.759916923700004
 20
38.442897766599998
 30
0.0
 11
70.633734885800905
 21
38.442897777232517
 31
0.0
  0
LINE
  5
21B5
  8
0
 10
70.633734885800905
 20
38.442897777232517
 30
0.0
 11
70.633733764900001
 21
25.140541409129391
 31
0.0
  0
LINE
  5
21B6
  8
0
 10
70.633733764900001
 20
25.140541409129391
 30
0.0
 11
64.067549949399989
 21
25.140523488004959
 31
0.0
  0
LINE
  5
21B7
  8
0
 10
64.067549949399989
 20
25.140523488004959
 30
0.0
 11
64.067549949399492
 21
25.040584363899999
 31
0.0
  0
LINE
  5
21B8
  8
0
 10
64.067549949399492
 20
25.040584363899999
 30
0.0
 11
84.044802941599997
 21
25.040588853700001
 31
0.0
  0
LINE
  5
21B9
  8
0
 10
84.044802941599997
 20
25.040588853700001
 30
0.0
 11
84.044825120600009
 21
25.1405148879
 31
0.0
  0
LINE
  5
21BA
  8
0
 10
84.044825120600009
 20
25.1405148879
 30
0.0
 11
70.759916923700004
 21
25.140535897500001
 31
0.0
  0
LINE
  5
21BB
  8
0
 10
70.759916923700004
 20
25.140535897500001
 30
0.0
 11
70.759918044601321
 21
38.442897766599899
 31
0.0
  0
LINE
  5
21BC
  8
0
 10
70.646826473683845
 20
25.040509773167908
 30
0.0
 11
70.646880914602178
 21
5.129041445099757
 31
0.0
  0
LINE
  5
21BD
  8
0
 10
70.646880914602178
 20
5.129041445099757
 30
0.0
 11
64.063113725999997
 21
5.1290234879999996
 31
0.0
  0
LINE
  5
21BE
  8
0
 10
64.063113725999997
 20
5.1290234879999996
 30
0.0
 11
64.063113725999997
 21
5.0290843639
 31
0.0
  0
LINE
  5
21BF
  8
0
 10
64.063113725999997
 20
5.0290843639
 30
0.0
 11
84.040305755399999
 21
5.0290843639
 31
0.0
  0
LINE
  5
21C0
  8
0
 10
84.040305755399999
 20
5.0290843639
 30
0.0
 11
84.040305849023355
 21
5.1290234442349112
 31
0.0
  0
LINE
  5
21C1
  8
0
 10
84.040305849023355
 20
5.1290234442349112
 30
0.0
 11
70.746849765600004
 21
5.1290358975999988
 31
0.0
  0
LINE
  5
21C2
  8
0
 10
70.746849765600004
 20
5.1290358975999988
 30
0.0
 11
70.746845290566455
 21
25.040585865042338
 31
0.0
  0
LINE
  5
21C3
  8
0
 10
70.646826473683845
 20
5.0290097731679397
 30
0.0
 11
70.646880877943502
 21
-14.88245855490047
 31
0.0
  0
LINE
  5
21C4
  8
0
 10
70.646880877943502
 20
-14.88245855490047
 30
0.0
 11
64.058677414900004
 21
-14.8824765559
 31
0.0
  0
LINE
  5
21C5
  8
0
 10
64.058677414900004
 20
-14.8824765559
 30
0.0
 11
64.058777211000006
 21
-14.982415636100001
 31
0.0
  0
LINE
  5
21C6
  8
0
 10
64.058777211000006
 20
-14.982415636100001
 30
0.0
 11
84.035869532099994
 21
-14.982415636200001
 31
0.0
  0
LINE
  5
21C7
  8
0
 10
84.035869532099994
 20
-14.982415636200001
 30
0.0
 11
84.036013637799996
 21
-14.8824765559
 31
0.0
  0
LINE
  5
21C8
  8
0
 10
84.036013637799996
 20
-14.8824765559
 30
0.0
 11
70.746849765600004
 21
-14.8824641024
 31
0.0
  0
LINE
  5
21C9
  8
0
 10
70.746849765600004
 20
-14.8824641024
 30
0.0
 11
70.746829016000007
 21
5.0290140955
 31
0.0
  0
LINE
  5
21CA
  8
0
 10
70.646838860700001
 20
-14.982438499600001
 30
0.0
 11
70.646838301599985
 21
-28.254655232800001
 31
0.0
  0
LINE
  5
21CB
  8
0
 10
70.646838301599985
 20
-28.254655232800001
 30
0.0
 11
70.746826486099991
 21
-28.2546890711
 31
0.0
  0
LINE
  5
21CC
  8
0
 10
70.746826486099991
 20
-28.2546890711
 30
0.0
 11
70.746823063199983
 21
-14.9824680283
 31
0.0
  0
LINE
  5
2DDA
  8
0
 10
87.074830934500014
 20
-29.4056207185
 30
0.0
 11
86.760333478233946
 21
-29.010243228373039
 31
0.0
  0
LINE
  5
30A7
  8
0
 10
79.335544339142629
 20
-34.679372490153519
 30
0.0
 11
79.350973679799992
 21
-34.870620718600001
 31
0.0
  0
LINE
  5
326F
  8
0
 10
85.334135172499998
 20
-34.621819346500011
 30
0.0
 11
85.350973659099992
 21
-34.870620718600001
 31
0.0
  0
LINE
  5
3270
  8
0
 10
84.70629882747717
 20
-34.620571882613589
 30
0.0
 11
84.725974352400002
 21
-34.870620718600001
 31
0.0
  0
ARC
  5
33F7
  8
0
 10
63.649915442297392
 20
-32.758887829054082
 30
0.0
 40
2.0482095636771991
 50
190.8886564272411
 51
267.77571764604937
  0
LINE
  5
33F8
  8
0
 10
63.570421765900001
 20
-34.805554184899997
 30
0.0
 11
66.721027369446347
 21
-34.808753435575767
 31
0.0
  0
ARC
  5
33F9
  8
0
 10
63.666752631247142
 20
-32.623178216226528
 30
0.0
 40
2.0944230555368581
 50
194.44962042294949
 51
267.36320310963032
  0
LINE
  5
33FA
  8
0
 10
63.570399652600003
 20
-34.715383760400002
 30
0.0
 11
66.715041250176895
 21
-34.723077304863871
 31
0.0
  0
LINE
  5
33FB
  8
0
 10
76.120416096734871
 20
-34.746088089188859
 30
0.0
 11
78.7112671224629
 21
-34.752426753531722
 31
0.0
  0
LINE
  5
33FC
  8
0
 10
76.123427915508003
 20
-34.818301008355739
 30
0.0
 11
78.719452923133716
 21
-34.820937115760167
 31
0.0
  0
LINE
  5
33FD
  8
0
 10
73.340071347382491
 20
-34.739285817677057
 30
0.0
 11
75.973048658241126
 21
-34.74572754637169
 31
0.0
  0
LINE
  5
33FE
  8
0
 10
73.346272004834233
 20
-34.815480973403112
 30
0.0
 11
75.980574528819133
 21
-34.81815594932538
 31
0.0
  0
LINE
  5
33FF
  8
0
 10
70.120024302897647
 20
-34.731407789500018
 30
0.0
 11
72.712992009447873
 21
-34.737751632422871
 31
0.0
  0
LINE
  5
3400
  8
0
 10
70.122691330166489
 20
-34.812207620927573
 30
0.0
 11
72.7201734205847
 21
-34.814845207912022
 31
0.0
  0
LINE
  5
3401
  8
0
 10
67.340914875164387
 20
-34.724608540272797
 30
0.0
 11
69.970788121200471
 21
-34.73104267469634
 31
0.0
  0
LINE
  5
3402
  8
0
 10
67.346641779482042
 20
-34.809388709417021
 30
0.0
 11
69.979111266985242
 21
-34.812061824000892
 31
0.0
  0
ARC
  5
3485
  8
0
 10
88.579356715494427
 20
-32.72976242409019
 30
0.0
 40
2.072757430416186
 50
272.55941246595353
 51
344.71267100047061
  0
LINE
  5
3486
  8
0
 10
88.671916361699999
 20
-34.800452182900003
 30
0.0
 11
85.346604411778301
 21
-34.806061785573213
 31
0.0
  0
ARC
  5
3487
  8
0
 10
88.558242466676262
 20
-32.61739913271132
 30
0.0
 40
2.1001401498326371
 50
272.96160270694031
 51
348.81872973344412
  0
LINE
  5
3488
  8
0
 10
88.666749785699992
 20
-34.714734301599997
 30
0.0
 11
85.341236569117996
 21
-34.726747851321157
 31
0.0
  0
LINE
  5
3489
  8
0
 10
81.980505317285605
 20
-34.811740193723509
 30
0.0
 11
79.346581843430982
 21
-34.816183465327029
 31
0.0
  0
LINE
  5
348A
  8
0
 10
81.973324418037436
 20
-34.738914568891779
 30
0.0
 11
79.341115172550744
 21
-34.74842353024232
 31
0.0
  0
LINE
  5
348B
  8
0
 10
84.714831528368251
 20
-34.729010764625833
 30
0.0
 11
82.120707804939755
 21
-34.738382140502146
 31
0.0
  0
LINE
  5
348C
  8
0
 10
84.720977466753965
 20
-34.807117180867273
 30
0.0
 11
82.123596960158622
 21
-34.811498806667359
 31
0.0
  0
LINE
  5
3550
  8
0
 10
91.178561235000004
 20
-28.379427095299999
 30
0.0
 11
90.663300987624382
 21
-28.39742037961949
 31
0.0
  0
ATTDEF
  5
38FA
  8
DEFPOINTS
 10
91.878822187058176
 20
-34.868986212472073
 30
0.0
 40
0.001
  1
72120100
  3

  2
MODELNUMBER
 70
     0
1001
AcDbAttr
1070
     0
1070
     1
  0
ATTDEF
  5
38FB
  8
DEFPOINTS
 10
91.878822187058176
 20
-34.870652879138731
 30
0.0
 40
0.001
  1
ENSEMBLE
  3

  2
TRADENAME
 70
     0
1001
AcDbAttr
1070
     0
1070
     1
  0
ATTDEF
  5
38FC
  8
DEFPOINTS
 10
91.878822187058176
 20
-34.872319545805432
 30
0.0
 40
0.001
  1
SHOWER STALL
  3

  2
PRODUCT
 70
     0
1001
AcDbAttr
1070
     0
1070
     1
  0
ATTDEF
  5
38FD
  8
DEFPOINTS
 10
91.878822187058176
 20
-34.87398621247209
 30
0.0
 40
0.001
  1
VIKRELL
  3

  2
MATERIAL
 70
     0
1001
AcDbAttr
1070
     0
1070
     1
  0
ENDSEC
  0
EOF
