  0
SECTION
  2
HEADER
  9
$ACADVER
  1
AC1009
  9
$INSBASE
 10
5.611288196900003
 20
-34.870620718600001
 30
0.0
  9
$EXTMIN
 10
-18.388711803099991
 20
-34.881547224915252
 30
0.0
  9
$EXTMAX
 10
29.611288196900009
 20
42.042729252100003
 30
0.0
  9
$LIMMIN
 10
0.0
 20
0.0
  9
$LIMMAX
 10
11.692913385800001
 20
8.2677165353999982
  9
$ORTHOMODE
 70
     0
  9
$REGENMODE
 70
     1
  9
$FILLMODE
 70
     1
  9
$QTEXTMODE
 70
     0
  9
$MIRRTEXT
 70
     0
  9
$DRAGMODE
 70
     2
  9
$LTSCALE
 40
0.6431102362
  9
$OSMODE
 70
  3071
  9
$ATTMODE
 70
     1
  9
$TEXTSIZE
 40
0.2
  9
$TRACEWID
 40
0.05
  9
$TEXTSTYLE
  7
STANDARD
  9
$CLAYER
  8
0
  9
$CELTYPE
  6
BYLAYER
  9
$CECOLOR
 62
   256
  9
$DIMSCALE
 40
1.0
  9
$DIMASZ
 40
0.1875
  9
$DIMEXO
 40
0.0625
  9
$DIMDLI
 40
0.4443307087
  9
$DIMRND
 40
0.0
  9
$DIMDLE
 40
0.0
  9
$DIMEXE
 40
0.125
  9
$DIMTP
 40
0.0
  9
$DIMTM
 40
0.0
  9
$DIMTXT
 40
1.0
  9
$DIMCEN
 40
0.1052362205
  9
$DIMTSZ
 40
0.0
  9
$DIMTOL
 70
     0
  9
$DIMLIM
 70
     0
  9
$DIMTIH
 70
     1
  9
$DIMTOH
 70
     1
  9
$DIMSE1
 70
     0
  9
$DIMSE2
 70
     0
  9
$DIMTAD
 70
     0
  9
$DIMZIN
 70
     0
  9
$DIMBLK
  1

  9
$DIMASO
 70
     1
  9
$DIMSHO
 70
     1
  9
$DIMPOST
  1
\X
  9
$DIMAPOST
  1

  9
$DIMALT
 70
     1
  9
$DIMALTD
 70
     2
  9
$DIMALTF
 40
25.399999999999999
  9
$DIMLFAC
 40
1.0
  9
$DIMTOFL
 70
     0
  9
$DIMTVP
 40
0.0
  9
$DIMTIX
 70
     0
  9
$DIMSOXD
 70
     0
  9
$DIMSAH
 70
     0
  9
$DIMBLK1
  1

  9
$DIMBLK2
  1

  9
$DIMSTYLE
  2
STANDARD
  9
$DIMCLRD
 70
     0
  9
$DIMCLRE
 70
     0
  9
$DIMCLRT
 70
     0
  9
$DIMTFAC
 40
1.0
  9
$DIMGAP
 40
0.09
  9
$LUNITS
 70
     2
  9
$LUPREC
 70
     4
  9
$SKETCHINC
 40
0.1
  9
$FILLETRAD
 40
0.0
  9
$AUNITS
 70
     0
  9
$AUPREC
 70
     0
  9
$MENU
  1
.
  9
$ELEVATION
 40
0.0
  9
$PELEVATION
 40
0.0
  9
$THICKNESS
 40
0.0
  9
$LIMCHECK
 70
     0
  9
$BLIPMODE
 70
     0
  9
$CHAMFERA
 40
0.0
  9
$CHAMFERB
 40
0.0
  9
$SKPOLY
 70
     0
  9
$TDCREATE
 40
2458141.7346868869
  9
$TDUPDATE
 40
2458142.458700798
  9
$TDINDWG
 40
0.723686956
  9
$TDUSRTIMER
 40
0.723686956
  9
$USRTIMER
 70
     1
  9
$ANGBASE
 50
0.0
  9
$ANGDIR
 70
     0
  9
$PDMODE
 70
     0
  9
$PDSIZE
 40
0.3125
  9
$PLINEWID
 40
0.0
  9
$COORDS
 70
     1
  9
$SPLFRAME
 70
     0
  9
$SPLINETYPE
 70
     6
  9
$SPLINESEGS
 70
     8
  9
$ATTDIA
 70
     1
  9
$ATTREQ
 70
     1
  9
$HANDLING
 70
     1
  9
$HANDSEED
  5
3950
  9
$SURFTAB1
 70
     6
  9
$SURFTAB2
 70
     6
  9
$SURFTYPE
 70
     6
  9
$SURFU
 70
     6
  9
$SURFV
 70
     6
  9
$UCSNAME
  2

  9
$UCSORG
 10
0.0
 20
0.0
 30
0.0
  9
$UCSXDIR
 10
1.0
 20
0.0
 30
0.0
  9
$UCSYDIR
 10
0.0
 20
1.0
 30
0.0
  9
$PUCSNAME
  2

  9
$PUCSORG
 10
0.0
 20
0.0
 30
0.0
  9
$PUCSXDIR
 10
1.0
 20
0.0
 30
0.0
  9
$PUCSYDIR
 10
0.0
 20
1.0
 30
0.0
  9
$USERI1
 70
     0
  9
$USERI2
 70
     0
  9
$USERI3
 70
     0
  9
$USERI4
 70
     0
  9
$USERI5
 70
     0
  9
$USERR1
 40
0.0
  9
$USERR2
 40
0.0
  9
$USERR3
 40
0.0
  9
$USERR4
 40
0.0
  9
$USERR5
 40
0.0
  9
$WORLDVIEW
 70
     1
  9
$SHADEDGE
 70
     3
  9
$SHADEDIF
 70
    70
  9
$TILEMODE
 70
     1
  9
$MAXACTVP
 70
    48
  9
$PLIMCHECK
 70
     0
  9
$PEXTMIN
 10
1.0000000000000000E+020
 20
1.0000000000000000E+020
 30
1.0000000000000000E+020
  9
$PEXTMAX
 10
-1.0000000000000000E+020
 20
-1.0000000000000000E+020
 30
-1.0000000000000000E+020
  9
$PLIMMIN
 10
0.0
 20
0.0
  9
$PLIMMAX
 10
12.0
 20
9.0
  9
$UNITMODE
 70
     0
  9
$VISRETAIN
 70
     1
  9
$PLINEGEN
 70
     0
  9
$PSLTSCALE
 70
     1
  0
ENDSEC
  0
SECTION
  2
TABLES
  0
TABLE
  2
VPORT
 70
     1
  0
VPORT
  2
*ACTIVE
 70
     0
 10
0.0
 20
0.0
 11
1.0
 21
1.0
 12
-31.12859427227724
 22
-21.229589650470128
 13
0.0
 23
0.0
 14
1.0
 24
1.0
 15
0.0
 25
0.0
 16
-0.0000000000000995
 26
0.0
 36
453.65417111730341
 17
36.739882469177253
 27
24.8101806640625
 37
0.0
 40
77.424868297906883
 41
2.0792616720955479
 42
50.0
 43
0.0
 44
0.0
 50
0.0
 51
0.0
 71
     0
 72
   100
 73
     1
 74
     1
 75
     0
 76
     0
 77
     0
 78
     0
  0
ENDTAB
  0
TABLE
  2
LTYPE
 70
     3
  0
LTYPE
  2
CONTINUOUS
 70
     0
  3
Solid line
 72
    65
 73
     0
 40
0.0
  0
LTYPE
  2
PHANTOM2
 70
     0
  3
___ _ _ ___ _ _ ___ _ _ ___ _ _
 72
    65
 73
     6
 40
1.25
 49
0.625
 49
-0.125
 49
0.125
 49
-0.125
 49
0.125
 49
-0.125
  0
ENDTAB
  0
TABLE
  2
LAYER
 70
     2
  0
LAYER
  2
0
 70
     0
 62
     7
  6
CONTINUOUS
  0
LAYER
  2
DEFPOINTS
 70
     0
 62
     7
  6
CONTINUOUS
  0
ENDTAB
  0
TABLE
  2
STYLE
 70
     1
  0
STYLE
  2
STANDARD
 70
     0
 40
0.0
 41
0.8
 50
0.0
 71
     0
 42
0.2
  3
txt
  4

  0
ENDTAB
  0
TABLE
  2
VIEW
 70
     0
  0
ENDTAB
  0
TABLE
  2
UCS
 70
     0
  0
ENDTAB
  0
TABLE
  2
APPID
 70
     7
  0
APPID
  2
ACAD
 70
     0
  0
APPID
  2
ACAD_MLEADERVER
 70
     0
  0
APPID
  2
ACAD_NAV_VCDISPLAY
 70
     0
  0
APPID
  2
ACAD_DSTYLE_DIMJAG
 70
     0
  0
APPID
  2
ACAD_DSTYLE_DIMTALN
 70
     0
  0
APPID
  2
ACAD_EXEMPT_FROM_CAD_STANDARDS
 70
     0
  0
APPID
  2
AcDbAttr
 70
     0
  0
ENDTAB
  0
TABLE
  2
DIMSTYLE
 70
     2
  0
DIMSTYLE
  2
STANDARD
 70
     0
  3

  4

  5

  6

  7

 40
1.0
 41
0.1875
 42
0.0625
 43
0.38
 44
0.125
 45
0.0
 46
0.0
 47
1.5
 48
1.5
140
0.15625
141
0.09
142
0.0
143
25.399999999999999
144
1.0
145
0.0
146
1.0
147
0.09
 71
     0
 72
     0
 73
     1
 74
     1
 75
     0
 76
     0
 77
     0
 78
     4
170
     0
171
     2
172
     0
173
     0
174
     0
175
     0
176
     0
177
     0
178
     0
  0
ENDTAB
  0
ENDSEC
  0
SECTION
  2
BLOCKS
  0
BLOCK
  8
0
  2
$MODEL_SPACE
 70
     0
 10
0.0
 20
0.0
 30
0.0
  3
$MODEL_SPACE
  1

  0
ENDBLK
  5
21
  8
0
  0
BLOCK
 67
     1
  8
0
  2
$PAPER_SPACE
 70
     0
 10
0.0
 20
0.0
 30
0.0
  3
$PAPER_SPACE
  1

  0
ENDBLK
  5
1D
 67
     1
  8
0
  0
ENDSEC
  0
SECTION
  2
ENTITIES
  0
LINE
  5
29C3
  8
0
 10
29.512143427999991
 20
42.042729252100003
 30
0.0
 11
-18.28956703419999
 21
42.042729252100003
 31
0.0
  0
LINE
  5
29C4
  8
0
 10
-18.28956703419999
 20
42.042729252100003
 30
0.0
 11
-18.3655516884
 21
41.890713627700002
 31
0.0
  0
LINE
  5
29C5
  8
0
 10
-18.3655516884
 20
41.890713627700002
 30
0.0
 11
-18.369881158214511
 21
41.843392409127937
 31
0.0
  0
LINE
  5
29C6
  8
0
 10
-18.388711803099991
 20
41.844379281399988
 30
0.0
 11
-18.27871180299999
 21
41.838614425700001
 31
0.0
  0
LINE
  5
29C7
  8
0
 10
-18.27871180299999
 20
41.838614425700001
 30
0.0
 11
-18.27871180299999
 21
-30.2065800082
 31
0.0
  0
LINE
  5
29C8
  8
0
 10
-18.27871180299999
 20
-30.2065800082
 30
0.0
 11
-18.38871180300001
 21
-30.2065800082
 31
0.0
  0
LINE
  5
29C9
  8
0
 10
-18.388711803099991
 20
41.844379281399988
 30
0.0
 11
-18.388711803099991
 21
-30.405620718666409
 31
0.0
  0
LINE
  5
29CA
  8
0
 10
-18.388711803099991
 20
-30.40562071866642
 30
0.0
 11
29.611288196900009
 21
-30.405620718600002
 31
0.0
  0
LINE
  5
29CB
  8
0
 10
-18.353690594167428
 20
-30.405620718600002
 30
0.0
 11
-18.353727334799999
 21
-34.7706207186
 31
0.0
  0
LINE
  5
29CC
  8
0
 10
-18.353727334799999
 20
-34.7706207186
 30
0.0
 11
-18.328704474599999
 21
-34.870620718600001
 31
0.0
  0
LINE
  5
29CD
  8
0
 10
-18.3243254741
 20
-34.870620718600001
 30
0.0
 11
29.551280868399999
 21
-34.870620718600001
 31
0.0
  0
LINE
  5
29CE
  8
0
 10
-18.365554755163
 20
41.89068010790001
 30
0.0
 11
-18.255551687099992
 21
41.89068010790001
 31
0.0
  0
LINE
  5
29CF
  8
0
 10
-18.255551687099992
 20
41.89068010790001
 30
0.0
 11
-18.181470335299991
 21
42.038887970500923
 31
0.0
  0
LINE
  5
29D0
  8
0
 10
-18.18145523290001
 20
42.038887970600911
 30
0.0
 11
29.404046728299999
 21
42.038887965900003
 31
0.0
  0
LINE
  5
29D1
  8
0
 10
-18.181470334499998
 20
42.038887965900003
 30
0.0
 11
-18.181470335299991
 21
40.778020285022329
 31
0.0
  0
LINE
  5
29D2
  8
0
 10
-18.181470335299991
 20
40.778020285022329
 30
0.0
 11
-18.27871180299999
 21
40.588614425635697
 31
0.0
  0
LINE
  5
29D3
  8
0
 10
-18.181470335299991
 20
40.77802028209998
 30
0.0
 11
-16.698277236900001
 21
40.700242041999999
 31
0.0
  0
ARC
  5
29D4
  8
0
 10
-12.51139744622477
 20
120.5419972858341
 30
0.0
 40
79.951459291234201
 50
266.99817458861202
 51
269.99999764143831
  0
LINE
  5
29D5
  8
0
 10
-12.511400737400081
 20
40.590537994599998
 30
0.0
 11
23.733977131200049
 21
40.590537994599998
 31
0.0
  0
CIRCLE
  5
29D6
  8
0
 10
-17.26371180300001
 20
41.469379281399988
 30
0.0
 40
0.0939997297000004
  0
CIRCLE
  5
29D7
  8
0
 10
-16.51371180300001
 20
41.469379281399988
 30
0.0
 40
0.0939997297000004
  0
CIRCLE
  5
29D8
  8
0
 10
-15.763711803
 20
41.469379281399988
 30
0.0
 40
0.0939997297000004
  0
CIRCLE
  5
29D9
  8
0
 10
-15.013711802999991
 20
41.469379281399988
 30
0.0
 40
0.0939997297000004
  0
CIRCLE
  5
29DA
  8
0
 10
-14.263711802999991
 20
41.469379281399988
 30
0.0
 40
0.0939997297000004
  0
CIRCLE
  5
29DB
  8
0
 10
-13.513711802999991
 20
41.469379281399988
 30
0.0
 40
0.0939997297000004
  0
CIRCLE
  5
29DC
  8
0
 10
-12.763711802999991
 20
41.469379281399988
 30
0.0
 40
0.0939997297000004
  0
CIRCLE
  5
29DD
  8
0
 10
-12.013711802999991
 20
41.469379281399988
 30
0.0
 40
0.0939997297000004
  0
CIRCLE
  5
29DE
  8
0
 10
-11.263711802999991
 20
41.469379281399988
 30
0.0
 40
0.0939997297000004
  0
CIRCLE
  5
29DF
  8
0
 10
-10.513711802999991
 20
41.469379281399988
 30
0.0
 40
0.0939997297000004
  0
CIRCLE
  5
29E0
  8
0
 10
-9.7637118029999925
 20
41.469379281399988
 30
0.0
 40
0.0939997297000004
  0
CIRCLE
  5
29E1
  8
0
 10
-9.0137118029999925
 20
41.469379281399988
 30
0.0
 40
0.0939997297000004
  0
CIRCLE
  5
29E2
  8
0
 10
-8.2637118029999925
 20
41.469379281399988
 30
0.0
 40
0.0939997297000004
  0
CIRCLE
  5
29E3
  8
0
 10
-7.5137118029999916
 20
41.469379281399988
 30
0.0
 40
0.0939997297000004
  0
CIRCLE
  5
29E4
  8
0
 10
-6.7637118029999916
 20
41.469379281399988
 30
0.0
 40
0.0939997297000004
  0
CIRCLE
  5
29E5
  8
0
 10
-6.0137118029999916
 20
41.469379281399988
 30
0.0
 40
0.0939997297000004
  0
CIRCLE
  5
29E6
  8
0
 10
-5.2637118029999916
 20
41.469379281399988
 30
0.0
 40
0.0939997297000004
  0
LINE
  5
29FD
  8
0
 10
-18.27871180299999
 20
40.588614425635697
 30
0.0
 11
-16.73756954516093
 21
40.507846584768629
 31
0.0
  0
ARC
  5
29FE
  8
0
 10
-16.772154534206049
 20
39.847925661637177
 30
0.0
 40
0.6608265629148916
 50
53.233890282415423
 51
87.000000089927966
  0
ARC
  5
29FF
  8
0
 10
-16.72323333571363
 20
40.043733049835453
 30
0.0
 40
0.4810537650737192
 50
351.9548559097363
 51
43.90126671748267
  0
ARC
  5
2A00
  8
0
 10
-8.6181064677829369
 20
39.549523889639431
 30
0.0
 40
7.6407417949962451
 50
176.79724824458921
 51
178.9023364228097
  0
LINE
  5
2A01
  8
0
 10
-16.257446141799988
 20
39.695895071199999
 30
0.0
 11
-16.257416669599991
 21
-29.5936671473
 31
0.0
  0
ARC
  5
2A02
  8
0
 10
-19.178489983141191
 20
-29.844563765780471
 30
0.0
 40
2.93182851071604
 50
356.89745804621452
 51
4.9091962164635339
  0
ARC
  5
2A03
  8
0
 10
-16.666642916175618
 20
-29.980712306598729
 30
0.0
 40
0.416294350146864
 50
315.5571969270726
 51
356.89745804621413
  0
ARC
  5
2A04
  8
0
 10
-16.757686384331858
 20
-29.775509028777019
 30
0.0
 40
0.6304328100774485
 50
271.82881810472418
 51
308.01424951299413
  0
ARC
  5
2A05
  8
0
 10
-16.834685563338951
 20
40.387761257611658
 30
0.0
 40
0.1250034139901582
 50
0.3009993778899989
 51
86.998151834502707
  0
LINE
  5
2A06
  8
0
 10
-16.709683874300001
 20
40.388417951299992
 30
0.0
 11
-16.709683874300001
 21
-30.280620718600002
 31
0.0
  0
ARC
  5
2A07
  8
0
 10
-16.834686523182398
 20
-30.280615544917602
 30
0.0
 40
0.1250051737894633
 50
270.00237134317859
 51
359.9976286568201
  0
ARC
  5
2A09
  8
0
 10
-10.257390994119159
 20
41.614395038712779
 30
0.0
 40
3.186044789739277
 50
270.00000000035828
 51
275.0655396593238
  0
ARC
  5
2A0A
  8
0
 10
-9.9903526407565781
 20
38.601826423240112
 30
0.0
 40
0.1616640026859113
 50
275.0655396593238
 51
325.29354348169898
  0
ARC
  5
2A0B
  8
0
 10
-5.7522356580523386
 20
38.439137461077422
 30
0.0
 40
4.1058240115357894
 50
175.24320687753729
 51
179.01415965338089
  0
ARC
  5
2A0C
  8
0
 10
-17.677230208146241
 20
39.672823007851918
 30
0.0
 40
7.8840723096384
 50
353.49486405446549
 51
2.3465474425295381
  0
ARC
  5
2A0D
  8
0
 10
-9.1877623103721184
 20
39.987475147252013
 30
0.0
 40
0.6120609404976131
 50
99.836691194832653
 51
179.23708162176459
  0
ARC
  5
2A0F
  8
0
 10
-10.2577941117145
 20
22.082620168473511
 30
0.0
 40
0.4675502183087261
 50
10.02914147663731
 51
89.950600085476978
  0
LINE
  5
2A10
  8
0
 10
-9.7973883853999943
 20
22.1640435915
 30
0.0
 11
-9.7973883853999943
 21
21.2493792814
 31
0.0
  0
ARC
  5
2A11
  8
0
 10
-10.1503052036879
 20
21.252153273621829
 30
0.0
 40
0.3529277201684518
 50
271.68956108228679
 51
359.54965372745249
  0
LINE
  5
2A12
  8
0
 10
-10.1398994368
 20
20.899378989300011
 30
0.0
 11
-16.257438146733229
 21
20.899379192857008
 31
0.0
  0
ARC
  5
2A14
  8
0
 10
-10.234776690314501
 20
8.7896410983235
 30
0.0
 40
0.4675502183087261
 50
10.02914147663771
 51
89.950600085476978
  0
LINE
  5
2A15
  8
0
 10
-9.7743709639999956
 20
8.871064521349993
 30
0.0
 11
-9.7743709639999956
 21
7.9564002112499992
 31
0.0
  0
ARC
  5
2A16
  8
0
 10
-10.12728778228789
 20
7.9591742034718251
 30
0.0
 40
0.3529277201684518
 50
271.68956108228679
 51
359.54965372745249
  0
LINE
  5
2A17
  8
0
 10
-10.116882015399989
 20
7.6063999191500002
 30
0.0
 11
-16.257432492586702
 21
7.6064001234727039
 31
0.0
  0
ARC
  5
2A19
  8
0
 10
-10.212640480209609
 20
-20.668421991545291
 30
0.0
 40
0.414255491051382
 50
3.3333644516673511
 51
93.848635839788784
  0
LINE
  5
2A1A
  8
0
 10
-9.7990858569663821
 20
-20.644334952284169
 30
0.0
 11
-9.7743797212999901
 21
-21.647190323850001
 31
0.0
  0
ARC
  5
2A1B
  8
0
 10
-10.28339074828177
 20
-21.697795182351928
 30
0.0
 40
0.5115203586300758
 50
275.7215989906411
 51
5.6775752793849366
  0
LINE
  5
2A1C
  8
0
 10
-10.232394801699989
 20
-22.2067671764
 30
0.0
 11
-16.257419811152861
 21
-22.207831580553741
 31
0.0
  0
LINE
  5
2A1D
  8
0
 10
-10.25739099409922
 20
38.42593206250001
 30
0.0
 11
-10.2573909941185
 21
22.550170213000019
 31
0.0
  0
LINE
  5
2A1E
  8
0
 10
-10.257390994120509
 20
20.899378993209449
 30
0.0
 11
-10.25739099413466
 21
9.2572109882721705
 31
0.0
  0
LINE
  5
2A1F
  8
0
 10
-10.257390994136671
 20
7.606399923825343
 30
0.0
 11
-10.2573909941705
 21
-20.255094290884369
 31
0.0
  0
LINE
  5
2A20
  8
0
 10
-10.25739099417286
 20
-22.206771592323761
 30
0.0
 11
-10.25739099418006
 21
-28.124854370496539
 31
0.0
  0
ARC
  5
2A22
  8
0
 10
-10.2574246627983
 20
-30.96886399979654
 30
0.0
 40
2.8440096294958028
 50
84.285459270066397
 51
89.999321707736954
  0
ARC
  5
2A23
  8
0
 10
-9.9901539770487595
 20
-28.298015730856669
 30
0.0
 40
0.1598218389043744
 50
33.869153453876443
 51
84.285459270066397
  0
ARC
  5
2A24
  8
0
 10
-23.114648525550852
 20
-28.582754645629379
 30
0.0
 40
13.26246560284841
 50
1.11891357057212
 51
1.615115917787511
  0
ARC
  5
2A25
  8
0
 10
-22.82317998631995
 20
-29.591728256667711
 30
0.0
 40
13.030306211055111
 50
0.8183657957229134
 51
5.5841880783329332
  0
LINE
  5
2A26
  8
0
 10
-9.7942029036000058
 20
-29.405620406699999
 30
0.0
 11
-9.7989690035000017
 21
-29.860350450799999
 31
0.0
  0
ARC
  5
2A27
  8
0
 10
-9.2545586894103682
 20
-29.875687977524979
 30
0.0
 40
0.5446263212636825
 50
178.38624812598471
 51
256.6606887535051
  0
ARC
  5
2A28
  8
0
 10
-7.7184463260115423
 20
38.403986614495523
 30
0.0
 40
0.1367303584463698
 50
94.726075919381742
 51
175.2739387483405
  0
LINE
  5
2A29
  8
0
 10
-7.8547118030999989
 20
38.4152520783
 30
0.0
 11
-7.8547118030999989
 21
-28.280620707899999
 31
0.0
  0
ARC
  5
2A2A
  8
0
 10
-7.7184463260256386
 20
-28.269355244436639
 30
0.0
 40
0.1367303584042291
 50
184.726061109689
 51
265.27392408508149
  0
LINE
  5
2A2C
  8
0
 10
-7.2390803242000032
 20
37.92974780250001
 30
0.0
 11
-1.572343282099993
 21
37.92974780250001
 31
0.0
  0
LINE
  5
2A2D
  8
0
 10
-1.572343282099993
 20
37.92974780250001
 30
0.0
 11
-1.572343282099993
 21
32.263010760399283
 31
0.0
  0
LINE
  5
2A2E
  8
0
 10
-1.572343282099993
 20
32.263010760399283
 30
0.0
 11
-7.2390803242000032
 21
32.263010760399283
 31
0.0
  0
LINE
  5
2A2F
  8
0
 10
-7.2390803242000032
 20
32.263010760399283
 30
0.0
 11
-7.2390803242000032
 21
37.92974780250001
 31
0.0
  0
LINE
  5
2A30
  8
0
 10
-7.2390803242000032
 20
31.256747802400731
 30
0.0
 11
-1.572343282099993
 21
31.256747802400731
 31
0.0
  0
LINE
  5
2A31
  8
0
 10
-1.572343282099993
 20
31.256747802400731
 30
0.0
 11
-1.572343282099993
 21
25.5900107603
 31
0.0
  0
LINE
  5
2A32
  8
0
 10
-1.572343282099993
 20
25.5900107603
 30
0.0
 11
-7.2390803242000032
 21
25.5900107603
 31
0.0
  0
LINE
  5
2A33
  8
0
 10
-7.2390803242000032
 20
25.5900107603
 30
0.0
 11
-7.2390803242000032
 21
31.256747802400731
 31
0.0
  0
LINE
  5
2A34
  8
0
 10
-7.2390803242000032
 20
24.58374780240073
 30
0.0
 11
-1.572343282099993
 21
24.58374780240073
 31
0.0
  0
LINE
  5
2A35
  8
0
 10
-1.572343282099993
 20
24.58374780240073
 30
0.0
 11
-1.572343282099993
 21
18.917010760299998
 31
0.0
  0
LINE
  5
2A36
  8
0
 10
-1.572343282099993
 20
18.917010760299998
 30
0.0
 11
-7.2390803242000032
 21
18.917010760299998
 31
0.0
  0
LINE
  5
2A37
  8
0
 10
-7.2390803242000032
 20
18.917010760299998
 30
0.0
 11
-7.2390803242000032
 21
24.58374780240073
 31
0.0
  0
LINE
  5
2A38
  8
0
 10
-7.2390803242000032
 20
17.910747802400721
 30
0.0
 11
-1.572343282099993
 21
17.910747802400721
 31
0.0
  0
LINE
  5
2A39
  8
0
 10
-1.572343282099993
 20
17.910747802400721
 30
0.0
 11
-1.572343282099993
 21
12.2440107603
 31
0.0
  0
LINE
  5
2A3A
  8
0
 10
-1.572343282099993
 20
12.2440107603
 30
0.0
 11
-7.2390803242000032
 21
12.2440107603
 31
0.0
  0
LINE
  5
2A3B
  8
0
 10
-7.2390803242000032
 20
12.2440107603
 30
0.0
 11
-7.2390803242000032
 21
17.910747802400721
 31
0.0
  0
LINE
  5
2A3C
  8
0
 10
-7.2390803242000032
 20
11.237747802400721
 30
0.0
 11
-1.572343282099993
 21
11.237747802400721
 31
0.0
  0
LINE
  5
2A3D
  8
0
 10
-1.572343282099993
 20
11.237747802400721
 30
0.0
 11
-1.572343282099993
 21
5.5710107602999983
 31
0.0
  0
LINE
  5
2A3E
  8
0
 10
-1.572343282099993
 20
5.5710107602999983
 30
0.0
 11
-7.2390803242000032
 21
5.5710107602999983
 31
0.0
  0
LINE
  5
2A3F
  8
0
 10
-7.2390803242000032
 20
5.5710107602999983
 30
0.0
 11
-7.2390803242000032
 21
11.237747802400721
 31
0.0
  0
LINE
  5
2A40
  8
0
 10
-7.2390803242000032
 20
4.5647478024007171
 30
0.0
 11
-1.572343282099993
 21
4.5647478024007171
 31
0.0
  0
LINE
  5
2A41
  8
0
 10
-1.572343282099993
 20
4.5647478024007171
 30
0.0
 11
-1.572343282099993
 21
-1.1019892397000031
 31
0.0
  0
LINE
  5
2A42
  8
0
 10
-1.572343282099993
 20
-1.1019892397000031
 30
0.0
 11
-7.2390803242000032
 21
-1.1019892397000031
 31
0.0
  0
LINE
  5
2A43
  8
0
 10
-7.2390803242000032
 20
-1.1019892397000031
 30
0.0
 11
-7.2390803242000032
 21
4.5647478024007171
 31
0.0
  0
LINE
  5
2A44
  8
0
 10
-7.2390803242000032
 20
-2.1082521975992772
 30
0.0
 11
-1.572343282099993
 21
-2.1082521975992772
 31
0.0
  0
LINE
  5
2A45
  8
0
 10
-1.572343282099993
 20
-2.1082521975992772
 30
0.0
 11
-1.572343282099993
 21
-7.7749892396999982
 31
0.0
  0
LINE
  5
2A46
  8
0
 10
-1.572343282099993
 20
-7.7749892396999982
 30
0.0
 11
-7.2390803242000032
 21
-7.7749892396999982
 31
0.0
  0
LINE
  5
2A47
  8
0
 10
-7.2390803242000032
 20
-7.7749892396999982
 30
0.0
 11
-7.2390803242000032
 21
-2.1082521975992772
 31
0.0
  0
LINE
  5
2A48
  8
0
 10
-7.2390803242000032
 20
-8.7812521975992794
 30
0.0
 11
-1.572343282099993
 21
-8.7812521975992794
 31
0.0
  0
LINE
  5
2A49
  8
0
 10
-1.572343282099993
 20
-8.7812521975992794
 30
0.0
 11
-1.572343282099993
 21
-14.4479892397
 31
0.0
  0
LINE
  5
2A4A
  8
0
 10
-1.572343282099993
 20
-14.4479892397
 30
0.0
 11
-7.2390803242000032
 21
-14.4479892397
 31
0.0
  0
LINE
  5
2A4B
  8
0
 10
-7.2390803242000032
 20
-14.4479892397
 30
0.0
 11
-7.2390803242000032
 21
-8.7812521975992794
 31
0.0
  0
LINE
  5
2A4C
  8
0
 10
-7.2390803242000032
 20
-15.454252197599279
 30
0.0
 11
-1.572343282099993
 21
-15.454252197599279
 31
0.0
  0
LINE
  5
2A4D
  8
0
 10
-1.572343282099993
 20
-15.454252197599279
 30
0.0
 11
-1.572343282099993
 21
-21.120989239699998
 31
0.0
  0
LINE
  5
2A4E
  8
0
 10
-1.572343282099993
 20
-21.120989239699998
 30
0.0
 11
-7.2390803242000032
 21
-21.120989239699998
 31
0.0
  0
LINE
  5
2A4F
  8
0
 10
-7.2390803242000032
 20
-21.120989239699998
 30
0.0
 11
-7.2390803242000032
 21
-15.454252197599279
 31
0.0
  0
LINE
  5
2A50
  8
0
 10
-7.2390803242000032
 20
-22.127252197499271
 30
0.0
 11
-1.572343282099993
 21
-22.127252197499271
 31
0.0
  0
LINE
  5
2A51
  8
0
 10
-1.572343282099993
 20
-22.127252197499271
 30
0.0
 11
-1.572343282099993
 21
-27.793989239599998
 31
0.0
  0
LINE
  5
2A52
  8
0
 10
-1.572343282099993
 20
-27.793989239599998
 30
0.0
 11
-7.2390803242000032
 21
-27.793989239599998
 31
0.0
  0
LINE
  5
2A53
  8
0
 10
-7.2390803242000032
 20
-27.793989239599998
 30
0.0
 11
-7.2390803242000032
 21
-22.127252197499271
 31
0.0
  0
LINE
  5
2B5A
  8
0
 10
-7.8151389672074281
 20
38.500659899621198
 30
0.0
 11
-9.6989342539166721
 21
40.324108239825648
 31
0.0
  0
LINE
  5
2B5B
  8
0
 10
-7.815129302138768
 20
-28.36603819556689
 30
0.0
 11
-9.6644570020463867
 21
-30.234298076534142
 31
0.0
  0
LINE
  5
2B5D
  8
0
 10
-16.257445602651899
 20
38.428350248936013
 30
0.0
 11
-10.25739099409923
 21
38.428350248973523
 31
0.0
  0
LINE
  5
2B5F
  8
0
 10
-16.25743885109485
 20
22.555343402495559
 30
0.0
 11
-10.2573909941
 21
22.550170213000001
 31
0.0
  0
LINE
  5
2B61
  8
0
 10
-16.257433196956772
 20
9.2623841728927534
 30
0.0
 11
-10.23437357269999
 21
9.2571911428499973
 31
0.0
  0
LINE
  5
2B63
  8
0
 10
-16.25742064271288
 20
-20.252822107847472
 30
0.0
 11
-10.240445667399991
 21
-20.255100708000001
 31
0.0
  0
LINE
  5
2B65
  8
0
 10
-16.25741729438727
 20
-28.124783339589001
 30
0.0
 11
-10.25739099418006
 21
-28.124854370500021
 31
0.0
  0
LINE
  5
2B66
  8
0
 10
-0.5610803242000033
 20
37.92974780250001
 30
0.0
 11
5.1056567179000059
 21
37.92974780250001
 31
0.0
  0
LINE
  5
2B67
  8
0
 10
5.1056567179000059
 20
37.92974780250001
 30
0.0
 11
5.1056567179000059
 21
32.263010760399283
 31
0.0
  0
LINE
  5
2B68
  8
0
 10
5.1056567179000059
 20
32.263010760399283
 30
0.0
 11
-0.5610803242000033
 21
32.263010760399283
 31
0.0
  0
LINE
  5
2B69
  8
0
 10
-0.5610803242000033
 20
32.263010760399283
 30
0.0
 11
-0.5610803242000033
 21
37.92974780250001
 31
0.0
  0
LINE
  5
2B6A
  8
0
 10
-0.5610803242000033
 20
31.256747802400731
 30
0.0
 11
5.1056567179000059
 21
31.256747802400731
 31
0.0
  0
LINE
  5
2B6B
  8
0
 10
5.1056567179000059
 20
31.256747802400731
 30
0.0
 11
5.1056567179000059
 21
25.5900107603
 31
0.0
  0
LINE
  5
2B6C
  8
0
 10
5.1056567179000059
 20
25.5900107603
 30
0.0
 11
-0.5610803242000033
 21
25.5900107603
 31
0.0
  0
LINE
  5
2B6D
  8
0
 10
-0.5610803242000033
 20
25.5900107603
 30
0.0
 11
-0.5610803242000033
 21
31.256747802400731
 31
0.0
  0
LINE
  5
2B6E
  8
0
 10
-0.5610803242000033
 20
24.58374780240073
 30
0.0
 11
5.1056567179000059
 21
24.58374780240073
 31
0.0
  0
LINE
  5
2B6F
  8
0
 10
5.1056567179000059
 20
24.58374780240073
 30
0.0
 11
5.1056567179000059
 21
18.917010760299998
 31
0.0
  0
LINE
  5
2B70
  8
0
 10
5.1056567179000059
 20
18.917010760299998
 30
0.0
 11
-0.5610803242000033
 21
18.917010760299998
 31
0.0
  0
LINE
  5
2B71
  8
0
 10
-0.5610803242000033
 20
18.917010760299998
 30
0.0
 11
-0.5610803242000033
 21
24.58374780240073
 31
0.0
  0
LINE
  5
2B72
  8
0
 10
-0.5610803242000033
 20
17.910747802400721
 30
0.0
 11
5.1056567179000059
 21
17.910747802400721
 31
0.0
  0
LINE
  5
2B73
  8
0
 10
5.1056567179000059
 20
17.910747802400721
 30
0.0
 11
5.1056567179000059
 21
12.2440107603
 31
0.0
  0
LINE
  5
2B74
  8
0
 10
5.1056567179000059
 20
12.2440107603
 30
0.0
 11
-0.5610803242000033
 21
12.2440107603
 31
0.0
  0
LINE
  5
2B75
  8
0
 10
-0.5610803242000033
 20
12.2440107603
 30
0.0
 11
-0.5610803242000033
 21
17.910747802400721
 31
0.0
  0
LINE
  5
2B76
  8
0
 10
-0.5610803242000033
 20
11.237747802400721
 30
0.0
 11
5.1056567179000059
 21
11.237747802400721
 31
0.0
  0
LINE
  5
2B77
  8
0
 10
5.1056567179000059
 20
11.237747802400721
 30
0.0
 11
5.1056567179000059
 21
5.5710107602999983
 31
0.0
  0
LINE
  5
2B78
  8
0
 10
5.1056567179000059
 20
5.5710107602999983
 30
0.0
 11
-0.5610803242000033
 21
5.5710107602999983
 31
0.0
  0
LINE
  5
2B79
  8
0
 10
-0.5610803242000033
 20
5.5710107602999983
 30
0.0
 11
-0.5610803242000033
 21
11.237747802400721
 31
0.0
  0
LINE
  5
2B7A
  8
0
 10
-0.5610803242000033
 20
4.5647478024007171
 30
0.0
 11
5.1056567179000059
 21
4.5647478024007171
 31
0.0
  0
LINE
  5
2B7B
  8
0
 10
5.1056567179000059
 20
4.5647478024007171
 30
0.0
 11
5.1056567179000059
 21
-1.1019892397000031
 31
0.0
  0
LINE
  5
2B7C
  8
0
 10
5.1056567179000059
 20
-1.1019892397000031
 30
0.0
 11
-0.5610803242000033
 21
-1.1019892397000031
 31
0.0
  0
LINE
  5
2B7D
  8
0
 10
-0.5610803242000033
 20
-1.1019892397000031
 30
0.0
 11
-0.5610803242000033
 21
4.5647478024007171
 31
0.0
  0
LINE
  5
2B7E
  8
0
 10
-0.5610803242000033
 20
-2.1082521975992772
 30
0.0
 11
5.1056567179000059
 21
-2.1082521975992772
 31
0.0
  0
LINE
  5
2B7F
  8
0
 10
5.1056567179000059
 20
-2.1082521975992772
 30
0.0
 11
5.1056567179000059
 21
-7.7749892396999982
 31
0.0
  0
LINE
  5
2B80
  8
0
 10
5.1056567179000059
 20
-7.7749892396999982
 30
0.0
 11
-0.5610803242000033
 21
-7.7749892396999982
 31
0.0
  0
LINE
  5
2B81
  8
0
 10
-0.5610803242000033
 20
-7.7749892396999982
 30
0.0
 11
-0.5610803242000033
 21
-2.1082521975992772
 31
0.0
  0
LINE
  5
2B82
  8
0
 10
-0.5610803242000033
 20
-8.7812521975992794
 30
0.0
 11
5.1056567179000059
 21
-8.7812521975992794
 31
0.0
  0
LINE
  5
2B83
  8
0
 10
5.1056567179000059
 20
-8.7812521975992794
 30
0.0
 11
5.1056567179000059
 21
-14.4479892397
 31
0.0
  0
LINE
  5
2B84
  8
0
 10
5.1056567179000059
 20
-14.4479892397
 30
0.0
 11
-0.5610803242000033
 21
-14.4479892397
 31
0.0
  0
LINE
  5
2B85
  8
0
 10
-0.5610803242000033
 20
-14.4479892397
 30
0.0
 11
-0.5610803242000033
 21
-8.7812521975992794
 31
0.0
  0
LINE
  5
2B86
  8
0
 10
-0.5610803242000033
 20
-15.454252197599279
 30
0.0
 11
5.1056567179000059
 21
-15.454252197599279
 31
0.0
  0
LINE
  5
2B87
  8
0
 10
5.1056567179000059
 20
-15.454252197599279
 30
0.0
 11
5.1056567179000059
 21
-21.120989239699998
 31
0.0
  0
LINE
  5
2B88
  8
0
 10
5.1056567179000059
 20
-21.120989239699998
 30
0.0
 11
-0.5610803242000033
 21
-21.120989239699998
 31
0.0
  0
LINE
  5
2B89
  8
0
 10
-0.5610803242000033
 20
-21.120989239699998
 30
0.0
 11
-0.5610803242000033
 21
-15.454252197599279
 31
0.0
  0
LINE
  5
2B8A
  8
0
 10
-0.5610803242000033
 20
-22.127252197499271
 30
0.0
 11
5.1056567179000059
 21
-22.127252197499271
 31
0.0
  0
LINE
  5
2B8B
  8
0
 10
5.1056567179000059
 20
-22.127252197499271
 30
0.0
 11
5.1056567179000059
 21
-27.793989239599998
 31
0.0
  0
LINE
  5
2B8C
  8
0
 10
5.1056567179000059
 20
-27.793989239599998
 30
0.0
 11
-0.5610803242000033
 21
-27.793989239599998
 31
0.0
  0
LINE
  5
2B8D
  8
0
 10
-0.5610803242000033
 20
-27.793989239599998
 30
0.0
 11
-0.5610803242000033
 21
-22.127252197499271
 31
0.0
  0
CIRCLE
  5
2C10
  8
0
 10
-4.5137118030999988
 20
41.469379281400002
 30
0.0
 40
0.0939997297000004
  0
CIRCLE
  5
2C11
  8
0
 10
-3.7637118031000001
 20
41.469379281400002
 30
0.0
 40
0.0939997297000004
  0
CIRCLE
  5
2C12
  8
0
 10
-3.0137118031000001
 20
41.469379281400002
 30
0.0
 40
0.0939997297000004
  0
CIRCLE
  5
2C13
  8
0
 10
-2.2637118031000001
 20
41.469379281400002
 30
0.0
 40
0.0939997297000004
  0
CIRCLE
  5
2C14
  8
0
 10
-1.5137118031000001
 20
41.469379281400002
 30
0.0
 40
0.0939997297000004
  0
CIRCLE
  5
2C15
  8
0
 10
-0.7637118030999998
 20
41.469379281400002
 30
0.0
 40
0.0939997297000004
  0
CIRCLE
  5
2C16
  8
0
 10
-0.0137118030999997
 20
41.469379281400002
 30
0.0
 40
0.0939997297000004
  0
CIRCLE
  5
2C17
  8
0
 10
0.7362881969000004
 20
41.469379281400002
 30
0.0
 40
0.0939997297000004
  0
CIRCLE
  5
2C18
  8
0
 10
1.4862881968999999
 20
41.469379281400002
 30
0.0
 40
0.0939997297000004
  0
CIRCLE
  5
2C19
  8
0
 10
2.2362881968999999
 20
41.469379281400002
 30
0.0
 40
0.0939997297000004
  0
CIRCLE
  5
2C1A
  8
0
 10
2.9862881968999999
 20
41.469379281400002
 30
0.0
 40
0.0939997297000004
  0
CIRCLE
  5
2C1B
  8
0
 10
3.7362881968999999
 20
41.469379281400002
 30
0.0
 40
0.0939997297000004
  0
CIRCLE
  5
2C1C
  8
0
 10
4.4862881969000004
 20
41.469379281400002
 30
0.0
 40
0.0939997297000004
  0
CIRCLE
  5
2C1D
  8
0
 10
5.2362881969000004
 20
41.469379281400002
 30
0.0
 40
0.0939997297000004
  0
LINE
  5
2C1E
  8
0
 10
-7.7297118246999954
 20
38.540252088700008
 30
0.0
 11
18.952288218499991
 21
38.540252088700008
 31
0.0
  0
LINE
  5
2C1F
  8
0
 10
-7.7297118247000052
 20
-28.405620718600009
 30
0.0
 11
18.952288218500009
 21
-28.405620718600009
 31
0.0
  0
LINE
  5
2C21
  8
0
 10
29.512143427999991
 20
42.042729252100003
 30
0.0
 11
29.588128082200011
 21
41.890713627700002
 31
0.0
  0
LINE
  5
2C22
  8
0
 10
29.588128082200011
 20
41.890713627700002
 30
0.0
 11
29.592457552014508
 21
41.843392409127937
 31
0.0
  0
LINE
  5
2C23
  8
0
 10
29.611288196899999
 20
41.844379281399988
 30
0.0
 11
29.501288196800001
 21
41.838614425700001
 31
0.0
  0
LINE
  5
2C24
  8
0
 10
29.501288196800001
 20
41.838614425700001
 30
0.0
 11
29.501288196800001
 21
-30.2065800082
 31
0.0
  0
LINE
  5
2C25
  8
0
 10
29.501288196800001
 20
-30.2065800082
 30
0.0
 11
29.611288196800011
 21
-30.2065800082
 31
0.0
  0
LINE
  5
2C26
  8
0
 10
29.611288196899999
 20
41.844379281399988
 30
0.0
 11
29.611288196899999
 21
-30.405620718600009
 31
0.0
  0
LINE
  5
2C28
  8
0
 10
29.576266987967429
 20
-30.405620718600002
 30
0.0
 11
29.576303728599999
 21
-34.7706207186
 31
0.0
  0
LINE
  5
2C29
  8
0
 10
29.576303728599999
 20
-34.7706207186
 30
0.0
 11
29.551280868399999
 21
-34.870620718600001
 31
0.0
  0
LINE
  5
2C2B
  8
0
 10
29.588131148963011
 20
41.89068010790001
 30
0.0
 11
29.478128080899999
 21
41.89068010790001
 31
0.0
  0
LINE
  5
2C2C
  8
0
 10
29.478128080899999
 20
41.89068010790001
 30
0.0
 11
29.404046729099989
 21
42.038887970500923
 31
0.0
  0
LINE
  5
2C2E
  8
0
 10
29.404046728299999
 20
42.038887965900003
 30
0.0
 11
29.404046729099989
 21
40.778020285022329
 31
0.0
  0
LINE
  5
2C2F
  8
0
 10
29.404046729099989
 20
40.778020285022329
 30
0.0
 11
29.501288196800001
 21
40.588614425635697
 31
0.0
  0
LINE
  5
2C30
  8
0
 10
29.404046729099989
 20
40.77802028209998
 30
0.0
 11
27.920853630700002
 21
40.700242041999999
 31
0.0
  0
ARC
  5
2C31
  8
0
 10
23.733973840024781
 20
120.5419972858341
 30
0.0
 40
79.951459291234201
 50
270.0000023585618
 51
273.00182541138798
  0
CIRCLE
  5
2C33
  8
0
 10
28.486288196800011
 20
41.469379281399988
 30
0.0
 40
0.0939997297000004
  0
CIRCLE
  5
2C34
  8
0
 10
27.736288196800011
 20
41.469379281399988
 30
0.0
 40
0.0939997297000004
  0
CIRCLE
  5
2C35
  8
0
 10
26.986288196800011
 20
41.469379281399988
 30
0.0
 40
0.0939997297000004
  0
CIRCLE
  5
2C36
  8
0
 10
26.23628819679999
 20
41.469379281399988
 30
0.0
 40
0.0939997297000004
  0
CIRCLE
  5
2C37
  8
0
 10
25.48628819679999
 20
41.469379281399988
 30
0.0
 40
0.0939997297000004
  0
CIRCLE
  5
2C38
  8
0
 10
24.7362881968
 20
41.469379281399988
 30
0.0
 40
0.0939997297000004
  0
CIRCLE
  5
2C39
  8
0
 10
23.98628819679999
 20
41.469379281399988
 30
0.0
 40
0.0939997297000004
  0
CIRCLE
  5
2C3A
  8
0
 10
23.23628819679999
 20
41.469379281399988
 30
0.0
 40
0.0939997297000004
  0
CIRCLE
  5
2C3B
  8
0
 10
22.48628819679999
 20
41.469379281399988
 30
0.0
 40
0.0939997297000004
  0
CIRCLE
  5
2C3C
  8
0
 10
21.73628819679999
 20
41.469379281399988
 30
0.0
 40
0.0939997297000004
  0
CIRCLE
  5
2C3D
  8
0
 10
20.9862881968
 20
41.469379281399988
 30
0.0
 40
0.0939997297000004
  0
CIRCLE
  5
2C3E
  8
0
 10
20.23628819679999
 20
41.469379281399988
 30
0.0
 40
0.0939997297000004
  0
CIRCLE
  5
2C3F
  8
0
 10
19.48628819679999
 20
41.469379281399988
 30
0.0
 40
0.0939997297000004
  0
CIRCLE
  5
2C40
  8
0
 10
18.73628819679999
 20
41.469379281399988
 30
0.0
 40
0.0939997297000004
  0
CIRCLE
  5
2C41
  8
0
 10
17.98628819679999
 20
41.469379281399988
 30
0.0
 40
0.0939997297000004
  0
CIRCLE
  5
2C42
  8
0
 10
17.23628819679999
 20
41.469379281399988
 30
0.0
 40
0.0939997297000004
  0
CIRCLE
  5
2C43
  8
0
 10
16.48628819679999
 20
41.469379281399988
 30
0.0
 40
0.0939997297000004
  0
LINE
  5
2C44
  8
0
 10
29.501288196800001
 20
40.588614425635697
 30
0.0
 11
27.960145938960942
 21
40.507846584768629
 31
0.0
  0
ARC
  5
2C45
  8
0
 10
27.994730928006049
 20
39.847925661637177
 30
0.0
 40
0.6608265629148916
 50
92.999999910072034
 51
126.7661097175845
  0
ARC
  5
2C46
  8
0
 10
27.945809729513631
 20
40.043733049835453
 30
0.0
 40
0.4810537650737192
 50
136.09873328251729
 51
188.0451440902637
  0
ARC
  5
2C47
  8
0
 10
19.840682861582941
 20
39.549523889639431
 30
0.0
 40
7.6407417949962451
 50
1.0976635771903061
 51
3.2027517554108158
  0
LINE
  5
2C48
  8
0
 10
27.480022535599989
 20
39.695895071199999
 30
0.0
 11
27.479993063399991
 21
-29.5936671473
 31
0.0
  0
ARC
  5
2C49
  8
0
 10
30.401066376941191
 20
-29.844563765780471
 30
0.0
 40
2.93182851071604
 50
175.09080378353639
 51
183.1025419537855
  0
ARC
  5
2C4A
  8
0
 10
27.889219309975619
 20
-29.980712306598729
 30
0.0
 40
0.416294350146864
 50
183.1025419537859
 51
224.4428030729274
  0
ARC
  5
2C4B
  8
0
 10
27.980262778131859
 20
-29.775509028777019
 30
0.0
 40
0.6304328100774485
 50
231.98575048700599
 51
268.17118189527582
  0
ARC
  5
2C4C
  8
0
 10
28.057261957138952
 20
40.387761257611658
 30
0.0
 40
0.1250034139901582
 50
93.001848165497279
 51
179.69900062210999
  0
LINE
  5
2C4D
  8
0
 10
27.932260268099999
 20
40.388417951299992
 30
0.0
 11
27.932260268099999
 21
-30.280620718600002
 31
0.0
  0
ARC
  5
2C4E
  8
0
 10
28.057262916982399
 20
-30.280615544917602
 30
0.0
 40
0.1250051737894633
 50
180.0023713431799
 51
269.99762865682129
  0
LINE
  5
2C4F
  8
0
 10
27.48002199645191
 20
38.428350248936013
 30
0.0
 11
21.47996738789924
 21
38.428350248973523
 31
0.0
  0
ARC
  5
2C50
  8
0
 10
21.47996738791916
 20
41.614395038712779
 30
0.0
 40
3.186044789739277
 50
264.9344603406762
 51
269.99999999964172
  0
ARC
  5
2C51
  8
0
 10
21.212929034556581
 20
38.601826423240112
 30
0.0
 40
0.1616640026859113
 50
214.706456518301
 51
264.9344603406762
  0
ARC
  5
2C52
  8
0
 10
16.974812051852339
 20
38.439137461077422
 30
0.0
 40
4.1058240115357894
 50
0.9858403466190727
 51
4.756793122462688
  0
ARC
  5
2C53
  8
0
 10
28.899806601946239
 20
39.672823007851918
 30
0.0
 40
7.8840723096384
 50
177.65345255747039
 51
186.50513594553451
  0
ARC
  5
2C54
  8
0
 10
20.410338704172119
 20
39.987475147252013
 30
0.0
 40
0.6120609404976131
 50
0.7629183782353758
 51
80.163308805167347
  0
LINE
  5
2C55
  8
0
 10
27.480015244894851
 20
22.555343402495559
 30
0.0
 11
21.4799673879
 21
22.550170213000001
 31
0.0
  0
ARC
  5
2C56
  8
0
 10
21.4803705055145
 20
22.082620168473511
 30
0.0
 40
0.4675502183087261
 50
90.049399914523008
 51
169.97085852336269
  0
LINE
  5
2C57
  8
0
 10
21.019964779199999
 20
22.1640435915
 30
0.0
 11
21.019964779199999
 21
21.2493792814
 31
0.0
  0
ARC
  5
2C58
  8
0
 10
21.372881597487901
 20
21.252153273621829
 30
0.0
 40
0.3529277201684518
 50
180.45034627254751
 51
268.31043891771321
  0
LINE
  5
2C59
  8
0
 10
21.362475830600012
 20
20.899378989300011
 30
0.0
 11
27.480014540533229
 21
20.899379192857008
 31
0.0
  0
LINE
  5
2C5A
  8
0
 10
27.480009590756769
 20
9.2623841728927534
 30
0.0
 11
21.456949966499991
 21
9.2571911428499973
 31
0.0
  0
ARC
  5
2C5B
  8
0
 10
21.457353084114501
 20
8.7896410983235
 30
0.0
 40
0.4675502183087261
 50
90.049399914523008
 51
169.97085852336221
  0
LINE
  5
2C5C
  8
0
 10
20.996947357799989
 20
8.871064521349993
 30
0.0
 11
20.996947357799989
 21
7.9564002112499992
 31
0.0
  0
ARC
  5
2C5D
  8
0
 10
21.349864176087891
 20
7.9591742034718251
 30
0.0
 40
0.3529277201684518
 50
180.45034627254751
 51
268.31043891771321
  0
LINE
  5
2C5E
  8
0
 10
21.339458409199992
 20
7.6063999191500002
 30
0.0
 11
27.480008886386699
 21
7.6064001234727039
 31
0.0
  0
LINE
  5
2C5F
  8
0
 10
27.479997036512881
 20
-20.252822107847472
 30
0.0
 11
21.46302206119999
 21
-20.255100708000001
 31
0.0
  0
ARC
  5
2C60
  8
0
 10
21.435216874009608
 20
-20.668421991545291
 30
0.0
 40
0.414255491051382
 50
86.151364160211216
 51
176.66663554833261
  0
LINE
  5
2C61
  8
0
 10
21.021662250766379
 20
-20.644334952284169
 30
0.0
 11
20.996956115099991
 21
-21.647190323850001
 31
0.0
  0
ARC
  5
2C62
  8
0
 10
21.505967142081769
 20
-21.697795182351928
 30
0.0
 40
0.5115203586300758
 50
174.322424720615
 51
264.2784010093589
  0
LINE
  5
2C63
  8
0
 10
21.45497119549999
 20
-22.2067671764
 30
0.0
 11
27.479996204952862
 21
-22.207831580553741
 31
0.0
  0
LINE
  5
2C64
  8
0
 10
21.479967387899219
 20
38.42593206250001
 30
0.0
 11
21.47996738791851
 21
22.550170213000019
 31
0.0
  0
LINE
  5
2C65
  8
0
 10
21.47996738792051
 20
20.899378993209449
 30
0.0
 11
21.479967387934661
 21
9.2572109882721705
 31
0.0
  0
LINE
  5
2C66
  8
0
 10
21.479967387936671
 20
7.606399923825343
 30
0.0
 11
21.479967387970511
 21
-20.255094290884369
 31
0.0
  0
LINE
  5
2C67
  8
0
 10
21.479967387972859
 20
-22.206771592323761
 30
0.0
 11
21.479967387980071
 21
-28.124854370496539
 31
0.0
  0
LINE
  5
2C68
  8
0
 10
27.479993688187282
 20
-28.124783339589001
 30
0.0
 11
21.479967387980071
 21
-28.124854370500021
 31
0.0
  0
ARC
  5
2C69
  8
0
 10
21.480001056598301
 20
-30.96886399979654
 30
0.0
 40
2.8440096294958028
 50
90.000678292263061
 51
95.714540729933589
  0
ARC
  5
2C6A
  8
0
 10
21.21273037084876
 20
-28.298015730856669
 30
0.0
 40
0.1598218389043744
 50
95.714540729933589
 51
146.13084654612351
  0
ARC
  5
2C6B
  8
0
 10
34.337224919350852
 20
-28.582754645629379
 30
0.0
 40
13.26246560284841
 50
178.38488408221241
 51
178.88108642942791
  0
ARC
  5
2C6C
  8
0
 10
34.045756380119961
 20
-29.591728256667711
 30
0.0
 40
13.030306211055111
 50
174.41581192166711
 51
179.18163420427709
  0
LINE
  5
2C6D
  8
0
 10
21.01677929740001
 20
-29.405620406699999
 30
0.0
 11
21.021545397299999
 21
-29.860350450799999
 31
0.0
  0
ARC
  5
2C6E
  8
0
 10
20.477135083210371
 20
-29.875687977524979
 30
0.0
 40
0.5446263212636825
 50
283.33931124649479
 51
1.6137518740152621
  0
ARC
  5
2C6F
  8
0
 10
18.941022719811539
 20
38.403986614495523
 30
0.0
 40
0.1367303584463698
 50
4.7260612516594698
 51
85.273924080618258
  0
LINE
  5
2C70
  8
0
 10
19.0772881969
 20
38.4152520783
 30
0.0
 11
19.0772881969
 21
-28.280620707899999
 31
0.0
  0
ARC
  5
2C71
  8
0
 10
18.941022719825639
 20
-28.269355244436639
 30
0.0
 40
0.1367303584042291
 50
274.72607591491851
 51
355.273938890311
  0
LINE
  5
2C72
  8
0
 10
18.461656718
 20
37.92974780250001
 30
0.0
 11
12.79491967589999
 21
37.92974780250001
 31
0.0
  0
LINE
  5
2C73
  8
0
 10
12.79491967589999
 20
37.92974780250001
 30
0.0
 11
12.79491967589999
 21
32.263010760399283
 31
0.0
  0
LINE
  5
2C74
  8
0
 10
12.79491967589999
 20
32.263010760399283
 30
0.0
 11
18.461656718
 21
32.263010760399283
 31
0.0
  0
LINE
  5
2C75
  8
0
 10
18.461656718
 20
32.263010760399283
 30
0.0
 11
18.461656718
 21
37.92974780250001
 31
0.0
  0
LINE
  5
2C76
  8
0
 10
18.461656718
 20
31.256747802400731
 30
0.0
 11
12.79491967589999
 21
31.256747802400731
 31
0.0
  0
LINE
  5
2C77
  8
0
 10
12.79491967589999
 20
31.256747802400731
 30
0.0
 11
12.79491967589999
 21
25.5900107603
 31
0.0
  0
LINE
  5
2C78
  8
0
 10
12.79491967589999
 20
25.5900107603
 30
0.0
 11
18.461656718
 21
25.5900107603
 31
0.0
  0
LINE
  5
2C79
  8
0
 10
18.461656718
 20
25.5900107603
 30
0.0
 11
18.461656718
 21
31.256747802400731
 31
0.0
  0
LINE
  5
2C7A
  8
0
 10
18.461656718
 20
24.58374780240073
 30
0.0
 11
12.79491967589999
 21
24.58374780240073
 31
0.0
  0
LINE
  5
2C7B
  8
0
 10
12.79491967589999
 20
24.58374780240073
 30
0.0
 11
12.79491967589999
 21
18.917010760299998
 31
0.0
  0
LINE
  5
2C7C
  8
0
 10
12.79491967589999
 20
18.917010760299998
 30
0.0
 11
18.461656718
 21
18.917010760299998
 31
0.0
  0
LINE
  5
2C7D
  8
0
 10
18.461656718
 20
18.917010760299998
 30
0.0
 11
18.461656718
 21
24.58374780240073
 31
0.0
  0
LINE
  5
2C7E
  8
0
 10
18.461656718
 20
17.910747802400721
 30
0.0
 11
12.79491967589999
 21
17.910747802400721
 31
0.0
  0
LINE
  5
2C7F
  8
0
 10
12.79491967589999
 20
17.910747802400721
 30
0.0
 11
12.79491967589999
 21
12.2440107603
 31
0.0
  0
LINE
  5
2C80
  8
0
 10
12.79491967589999
 20
12.2440107603
 30
0.0
 11
18.461656718
 21
12.2440107603
 31
0.0
  0
LINE
  5
2C81
  8
0
 10
18.461656718
 20
12.2440107603
 30
0.0
 11
18.461656718
 21
17.910747802400721
 31
0.0
  0
LINE
  5
2C82
  8
0
 10
18.461656718
 20
11.237747802400721
 30
0.0
 11
12.79491967589999
 21
11.237747802400721
 31
0.0
  0
LINE
  5
2C83
  8
0
 10
12.79491967589999
 20
11.237747802400721
 30
0.0
 11
12.79491967589999
 21
5.5710107602999983
 31
0.0
  0
LINE
  5
2C84
  8
0
 10
12.79491967589999
 20
5.5710107602999983
 30
0.0
 11
18.461656718
 21
5.5710107602999983
 31
0.0
  0
LINE
  5
2C85
  8
0
 10
18.461656718
 20
5.5710107602999983
 30
0.0
 11
18.461656718
 21
11.237747802400721
 31
0.0
  0
LINE
  5
2C86
  8
0
 10
18.461656718
 20
4.5647478024007171
 30
0.0
 11
12.79491967589999
 21
4.5647478024007171
 31
0.0
  0
LINE
  5
2C87
  8
0
 10
12.79491967589999
 20
4.5647478024007171
 30
0.0
 11
12.79491967589999
 21
-1.1019892397000031
 31
0.0
  0
LINE
  5
2C88
  8
0
 10
12.79491967589999
 20
-1.1019892397000031
 30
0.0
 11
18.461656718
 21
-1.1019892397000031
 31
0.0
  0
LINE
  5
2C89
  8
0
 10
18.461656718
 20
-1.1019892397000031
 30
0.0
 11
18.461656718
 21
4.5647478024007171
 31
0.0
  0
LINE
  5
2C8A
  8
0
 10
18.461656718
 20
-2.1082521975992772
 30
0.0
 11
12.79491967589999
 21
-2.1082521975992772
 31
0.0
  0
LINE
  5
2C8B
  8
0
 10
12.79491967589999
 20
-2.1082521975992772
 30
0.0
 11
12.79491967589999
 21
-7.7749892396999982
 31
0.0
  0
LINE
  5
2C8C
  8
0
 10
12.79491967589999
 20
-7.7749892396999982
 30
0.0
 11
18.461656718
 21
-7.7749892396999982
 31
0.0
  0
LINE
  5
2C8D
  8
0
 10
18.461656718
 20
-7.7749892396999982
 30
0.0
 11
18.461656718
 21
-2.1082521975992772
 31
0.0
  0
LINE
  5
2C8E
  8
0
 10
18.461656718
 20
-8.7812521975992794
 30
0.0
 11
12.79491967589999
 21
-8.7812521975992794
 31
0.0
  0
LINE
  5
2C8F
  8
0
 10
12.79491967589999
 20
-8.7812521975992794
 30
0.0
 11
12.79491967589999
 21
-14.4479892397
 31
0.0
  0
LINE
  5
2C90
  8
0
 10
12.79491967589999
 20
-14.4479892397
 30
0.0
 11
18.461656718
 21
-14.4479892397
 31
0.0
  0
LINE
  5
2C91
  8
0
 10
18.461656718
 20
-14.4479892397
 30
0.0
 11
18.461656718
 21
-8.7812521975992794
 31
0.0
  0
LINE
  5
2C92
  8
0
 10
18.461656718
 20
-15.454252197599279
 30
0.0
 11
12.79491967589999
 21
-15.454252197599279
 31
0.0
  0
LINE
  5
2C93
  8
0
 10
12.79491967589999
 20
-15.454252197599279
 30
0.0
 11
12.79491967589999
 21
-21.120989239699998
 31
0.0
  0
LINE
  5
2C94
  8
0
 10
12.79491967589999
 20
-21.120989239699998
 30
0.0
 11
18.461656718
 21
-21.120989239699998
 31
0.0
  0
LINE
  5
2C95
  8
0
 10
18.461656718
 20
-21.120989239699998
 30
0.0
 11
18.461656718
 21
-15.454252197599279
 31
0.0
  0
LINE
  5
2C96
  8
0
 10
18.461656718
 20
-22.127252197499271
 30
0.0
 11
12.79491967589999
 21
-22.127252197499271
 31
0.0
  0
LINE
  5
2C97
  8
0
 10
12.79491967589999
 20
-22.127252197499271
 30
0.0
 11
12.79491967589999
 21
-27.793989239599998
 31
0.0
  0
LINE
  5
2C98
  8
0
 10
12.79491967589999
 20
-27.793989239599998
 30
0.0
 11
18.461656718
 21
-27.793989239599998
 31
0.0
  0
LINE
  5
2C99
  8
0
 10
18.461656718
 20
-27.793989239599998
 30
0.0
 11
18.461656718
 21
-22.127252197499271
 31
0.0
  0
LINE
  5
2C9A
  8
0
 10
19.037715361007429
 20
38.500659899621198
 30
0.0
 11
20.921510647716669
 21
40.324108239825648
 31
0.0
  0
LINE
  5
2C9B
  8
0
 10
19.037705695938769
 20
-28.36603819556689
 30
0.0
 11
20.887033395846391
 21
-30.234298076534142
 31
0.0
  0
LINE
  5
2C9C
  8
0
 10
11.783656718
 20
37.92974780250001
 30
0.0
 11
6.1169196758999931
 21
37.92974780250001
 31
0.0
  0
LINE
  5
2C9D
  8
0
 10
6.1169196758999931
 20
37.92974780250001
 30
0.0
 11
6.1169196758999931
 21
32.263010760399283
 31
0.0
  0
LINE
  5
2C9E
  8
0
 10
6.1169196758999931
 20
32.263010760399283
 30
0.0
 11
11.783656718
 21
32.263010760399283
 31
0.0
  0
LINE
  5
2C9F
  8
0
 10
11.783656718
 20
32.263010760399283
 30
0.0
 11
11.783656718
 21
37.92974780250001
 31
0.0
  0
LINE
  5
2CA0
  8
0
 10
11.783656718
 20
31.256747802400731
 30
0.0
 11
6.1169196758999931
 21
31.256747802400731
 31
0.0
  0
LINE
  5
2CA1
  8
0
 10
6.1169196758999931
 20
31.256747802400731
 30
0.0
 11
6.1169196758999931
 21
25.5900107603
 31
0.0
  0
LINE
  5
2CA2
  8
0
 10
6.1169196758999931
 20
25.5900107603
 30
0.0
 11
11.783656718
 21
25.5900107603
 31
0.0
  0
LINE
  5
2CA3
  8
0
 10
11.783656718
 20
25.5900107603
 30
0.0
 11
11.783656718
 21
31.256747802400731
 31
0.0
  0
LINE
  5
2CA4
  8
0
 10
11.783656718
 20
24.58374780240073
 30
0.0
 11
6.1169196758999931
 21
24.58374780240073
 31
0.0
  0
LINE
  5
2CA5
  8
0
 10
6.1169196758999931
 20
24.58374780240073
 30
0.0
 11
6.1169196758999931
 21
18.917010760299998
 31
0.0
  0
LINE
  5
2CA6
  8
0
 10
6.1169196758999931
 20
18.917010760299998
 30
0.0
 11
11.783656718
 21
18.917010760299998
 31
0.0
  0
LINE
  5
2CA7
  8
0
 10
11.783656718
 20
18.917010760299998
 30
0.0
 11
11.783656718
 21
24.58374780240073
 31
0.0
  0
LINE
  5
2CA8
  8
0
 10
11.783656718
 20
17.910747802400721
 30
0.0
 11
6.1169196758999931
 21
17.910747802400721
 31
0.0
  0
LINE
  5
2CA9
  8
0
 10
6.1169196758999931
 20
17.910747802400721
 30
0.0
 11
6.1169196758999931
 21
12.2440107603
 31
0.0
  0
LINE
  5
2CAA
  8
0
 10
6.1169196758999931
 20
12.2440107603
 30
0.0
 11
11.783656718
 21
12.2440107603
 31
0.0
  0
LINE
  5
2CAB
  8
0
 10
11.783656718
 20
12.2440107603
 30
0.0
 11
11.783656718
 21
17.910747802400721
 31
0.0
  0
LINE
  5
2CAC
  8
0
 10
11.783656718
 20
11.237747802400721
 30
0.0
 11
6.1169196758999931
 21
11.237747802400721
 31
0.0
  0
LINE
  5
2CAD
  8
0
 10
6.1169196758999931
 20
11.237747802400721
 30
0.0
 11
6.1169196758999931
 21
5.5710107602999983
 31
0.0
  0
LINE
  5
2CAE
  8
0
 10
6.1169196758999931
 20
5.5710107602999983
 30
0.0
 11
11.783656718
 21
5.5710107602999983
 31
0.0
  0
LINE
  5
2CAF
  8
0
 10
11.783656718
 20
5.5710107602999983
 30
0.0
 11
11.783656718
 21
11.237747802400721
 31
0.0
  0
LINE
  5
2CB0
  8
0
 10
11.783656718
 20
4.5647478024007171
 30
0.0
 11
6.1169196758999931
 21
4.5647478024007171
 31
0.0
  0
LINE
  5
2CB1
  8
0
 10
6.1169196758999931
 20
4.5647478024007171
 30
0.0
 11
6.1169196758999931
 21
-1.1019892397000031
 31
0.0
  0
LINE
  5
2CB2
  8
0
 10
6.1169196758999931
 20
-1.1019892397000031
 30
0.0
 11
11.783656718
 21
-1.1019892397000031
 31
0.0
  0
LINE
  5
2CB3
  8
0
 10
11.783656718
 20
-1.1019892397000031
 30
0.0
 11
11.783656718
 21
4.5647478024007171
 31
0.0
  0
LINE
  5
2CB4
  8
0
 10
11.783656718
 20
-2.1082521975992772
 30
0.0
 11
6.1169196758999931
 21
-2.1082521975992772
 31
0.0
  0
LINE
  5
2CB5
  8
0
 10
6.1169196758999931
 20
-2.1082521975992772
 30
0.0
 11
6.1169196758999931
 21
-7.7749892396999982
 31
0.0
  0
LINE
  5
2CB6
  8
0
 10
6.1169196758999931
 20
-7.7749892396999982
 30
0.0
 11
11.783656718
 21
-7.7749892396999982
 31
0.0
  0
LINE
  5
2CB7
  8
0
 10
11.783656718
 20
-7.7749892396999982
 30
0.0
 11
11.783656718
 21
-2.1082521975992772
 31
0.0
  0
LINE
  5
2CB8
  8
0
 10
11.783656718
 20
-8.7812521975992794
 30
0.0
 11
6.1169196758999931
 21
-8.7812521975992794
 31
0.0
  0
LINE
  5
2CB9
  8
0
 10
6.1169196758999931
 20
-8.7812521975992794
 30
0.0
 11
6.1169196758999931
 21
-14.4479892397
 31
0.0
  0
LINE
  5
2CBA
  8
0
 10
6.1169196758999931
 20
-14.4479892397
 30
0.0
 11
11.783656718
 21
-14.4479892397
 31
0.0
  0
LINE
  5
2CBB
  8
0
 10
11.783656718
 20
-14.4479892397
 30
0.0
 11
11.783656718
 21
-8.7812521975992794
 31
0.0
  0
LINE
  5
2CBC
  8
0
 10
11.783656718
 20
-15.454252197599279
 30
0.0
 11
6.1169196758999931
 21
-15.454252197599279
 31
0.0
  0
LINE
  5
2CBD
  8
0
 10
6.1169196758999931
 20
-15.454252197599279
 30
0.0
 11
6.1169196758999931
 21
-21.120989239699998
 31
0.0
  0
LINE
  5
2CBE
  8
0
 10
6.1169196758999931
 20
-21.120989239699998
 30
0.0
 11
11.783656718
 21
-21.120989239699998
 31
0.0
  0
LINE
  5
2CBF
  8
0
 10
11.783656718
 20
-21.120989239699998
 30
0.0
 11
11.783656718
 21
-15.454252197599279
 31
0.0
  0
LINE
  5
2CC0
  8
0
 10
11.783656718
 20
-22.127252197499271
 30
0.0
 11
6.1169196758999931
 21
-22.127252197499271
 31
0.0
  0
LINE
  5
2CC1
  8
0
 10
6.1169196758999931
 20
-22.127252197499271
 30
0.0
 11
6.1169196758999931
 21
-27.793989239599998
 31
0.0
  0
LINE
  5
2CC2
  8
0
 10
6.1169196758999931
 20
-27.793989239599998
 30
0.0
 11
11.783656718
 21
-27.793989239599998
 31
0.0
  0
LINE
  5
2CC3
  8
0
 10
11.783656718
 20
-27.793989239599998
 30
0.0
 11
11.783656718
 21
-22.127252197499271
 31
0.0
  0
CIRCLE
  5
2CC4
  8
0
 10
15.7362881969
 20
41.469379281400002
 30
0.0
 40
0.0939997297000004
  0
CIRCLE
  5
2CC5
  8
0
 10
14.9862881969
 20
41.469379281400002
 30
0.0
 40
0.0939997297000004
  0
CIRCLE
  5
2CC6
  8
0
 10
14.2362881969
 20
41.469379281400002
 30
0.0
 40
0.0939997297000004
  0
CIRCLE
  5
2CC7
  8
0
 10
13.4862881969
 20
41.469379281400002
 30
0.0
 40
0.0939997297000004
  0
CIRCLE
  5
2CC8
  8
0
 10
12.7362881969
 20
41.469379281400002
 30
0.0
 40
0.0939997297000004
  0
CIRCLE
  5
2CC9
  8
0
 10
11.9862881969
 20
41.469379281400002
 30
0.0
 40
0.0939997297000004
  0
CIRCLE
  5
2CCA
  8
0
 10
11.2362881969
 20
41.469379281400002
 30
0.0
 40
0.0939997297000004
  0
CIRCLE
  5
2CCB
  8
0
 10
10.4862881969
 20
41.469379281400002
 30
0.0
 40
0.0939997297000004
  0
CIRCLE
  5
2CCC
  8
0
 10
9.7362881969000004
 20
41.469379281400002
 30
0.0
 40
0.0939997297000004
  0
CIRCLE
  5
2CCD
  8
0
 10
8.9862881969000004
 20
41.469379281400002
 30
0.0
 40
0.0939997297000004
  0
CIRCLE
  5
2CCE
  8
0
 10
8.2362881969000004
 20
41.469379281400002
 30
0.0
 40
0.0939997297000004
  0
CIRCLE
  5
2CCF
  8
0
 10
7.4862881969000004
 20
41.469379281400002
 30
0.0
 40
0.0939997297000004
  0
CIRCLE
  5
2CD0
  8
0
 10
6.7362881969000004
 20
41.469379281400002
 30
0.0
 40
0.0939997297000004
  0
CIRCLE
  5
2CD1
  8
0
 10
5.9862881969000004
 20
41.469379281400002
 30
0.0
 40
0.0939997297000004
  0
LINE
  5
2D15
  8
0
 10
29.478128080899999
 20
41.89068010790001
 30
0.0
 11
29.501288196800001
 21
40.588614425635697
 31
0.0
  0
LINE
  5
2D16
  8
0
 10
-18.255551687099992
 20
41.89068010790001
 30
0.0
 11
-18.27871180299999
 21
40.588614425635697
 31
0.0
  0
ATTDEF
  5
387B
  8
DEFPOINTS
 10
5.607105222739392
 20
-34.876547224915221
 30
0.0
 40
0.001
  1
72120100
  3

  2
MODELNUMBER
 70
     0
1001
AcDbAttr
1070
     0
1070
     1
  0
ATTDEF
  5
387C
  8
DEFPOINTS
 10
5.607105222739392
 20
-34.878213891581879
 30
0.0
 40
0.001
  1
ENSEMBLE
  3

  2
TRADENAME
 70
     0
1001
AcDbAttr
1070
     0
1070
     1
  0
ATTDEF
  5
387D
  8
DEFPOINTS
 10
5.607105222739392
 20
-34.879880558248573
 30
0.0
 40
0.001
  1
SHOWER STALL
  3

  2
PRODUCT
 70
     0
1001
AcDbAttr
1070
     0
1070
     1
  0
ATTDEF
  5
387E
  8
DEFPOINTS
 10
5.607105222739392
 20
-34.881547224915238
 30
0.0
 40
0.001
  1
VIKRELL
  3

  2
MATERIAL
 70
     0
1001
AcDbAttr
1070
     0
1070
     1
  0
ENDSEC
  0
EOF
