  0
SECTION
  2
HEADER
  9
$ACADVER
  1
AC1009
  9
$INSBASE
 10
3975.3837053813640523
 20
806.0004709632107733
 30
0.0
  9
$EXTMIN
 10
3945.3837022634361347
 20
774.667070963210449
 30
0.0
  9
$EXTMAX
 10
4005.3837022634352252
 20
806.006228912032384
 30
0.0
  9
$LIMMIN
 10
0.0
 20
0.0
  9
$LIMMAX
 10
11.6929133858000007
 20
8.2677165353999982
  9
$ORTHOMODE
 70
     0
  9
$REGENMODE
 70
     1
  9
$FILLMODE
 70
     1
  9
$QTEXTMODE
 70
     0
  9
$MIRRTEXT
 70
     0
  9
$DRAGMODE
 70
     2
  9
$LTSCALE
 40
0.6431102362
  9
$OSMODE
 70
  4095
  9
$ATTMODE
 70
     1
  9
$TEXTSIZE
 40
0.2
  9
$TRACEWID
 40
0.05
  9
$TEXTSTYLE
  7
STANDARD
  9
$CLAYER
  8
0
  9
$CELTYPE
  6
BYLAYER
  9
$CECOLOR
 62
   256
  9
$DIMSCALE
 40
1.0
  9
$DIMASZ
 40
0.1875
  9
$DIMEXO
 40
0.0625
  9
$DIMDLI
 40
0.4443307087
  9
$DIMRND
 40
0.0
  9
$DIMDLE
 40
0.0
  9
$DIMEXE
 40
0.125
  9
$DIMTP
 40
0.01
  9
$DIMTM
 40
0.01
  9
$DIMTXT
 40
2.0
  9
$DIMCEN
 40
0.1052362205
  9
$DIMTSZ
 40
0.0
  9
$DIMTOL
 70
     1
  9
$DIMLIM
 70
     0
  9
$DIMTIH
 70
     1
  9
$DIMTOH
 70
     1
  9
$DIMSE1
 70
     0
  9
$DIMSE2
 70
     0
  9
$DIMTAD
 70
     0
  9
$DIMZIN
 70
     0
  9
$DIMBLK
  1

  9
$DIMASO
 70
     1
  9
$DIMSHO
 70
     1
  9
$DIMPOST
  1
\X
  9
$DIMAPOST
  1

  9
$DIMALT
 70
     1
  9
$DIMALTD
 70
     2
  9
$DIMALTF
 40
25.3999999999999986
  9
$DIMLFAC
 40
1.0
  9
$DIMTOFL
 70
     0
  9
$DIMTVP
 40
0.0
  9
$DIMTIX
 70
     0
  9
$DIMSOXD
 70
     0
  9
$DIMSAH
 70
     0
  9
$DIMBLK1
  1

  9
$DIMBLK2
  1

  9
$DIMSTYLE
  2
STANDARD
  9
$DIMCLRD
 70
     0
  9
$DIMCLRE
 70
     0
  9
$DIMCLRT
 70
     0
  9
$DIMTFAC
 40
1.0
  9
$DIMGAP
 40
0.09
  9
$LUNITS
 70
     2
  9
$LUPREC
 70
     4
  9
$SKETCHINC
 40
0.1
  9
$FILLETRAD
 40
0.0
  9
$AUNITS
 70
     0
  9
$AUPREC
 70
     0
  9
$MENU
  1
.
  9
$ELEVATION
 40
0.0
  9
$PELEVATION
 40
0.0
  9
$THICKNESS
 40
0.0
  9
$LIMCHECK
 70
     0
  9
$BLIPMODE
 70
     0
  9
$CHAMFERA
 40
0.0
  9
$CHAMFERB
 40
0.0
  9
$SKPOLY
 70
     0
  9
$TDCREATE
 40
2458060.468368056230247
  9
$TDUPDATE
 40
2458857.4317939821630716
  9
$TDINDWG
 40
4.4993241898000003
  9
$TDUSRTIMER
 40
4.4993241898000003
  9
$USRTIMER
 70
     1
  9
$ANGBASE
 50
0.0
  9
$ANGDIR
 70
     0
  9
$PDMODE
 70
     0
  9
$PDSIZE
 40
0.3125
  9
$PLINEWID
 40
0.0
  9
$COORDS
 70
     1
  9
$SPLFRAME
 70
     0
  9
$SPLINETYPE
 70
     6
  9
$SPLINESEGS
 70
     8
  9
$ATTDIA
 70
     1
  9
$ATTREQ
 70
     1
  9
$HANDLING
 70
     1
  9
$HANDSEED
  5
194C2
  9
$SURFTAB1
 70
     6
  9
$SURFTAB2
 70
     6
  9
$SURFTYPE
 70
     6
  9
$SURFU
 70
     6
  9
$SURFV
 70
     6
  9
$UCSNAME
  2

  9
$UCSORG
 10
0.0
 20
0.0
 30
0.0
  9
$UCSXDIR
 10
1.0
 20
0.0
 30
0.0
  9
$UCSYDIR
 10
0.0
 20
1.0
 30
0.0
  9
$PUCSNAME
  2

  9
$PUCSORG
 10
0.0
 20
0.0
 30
0.0
  9
$PUCSXDIR
 10
1.0
 20
0.0
 30
0.0
  9
$PUCSYDIR
 10
0.0
 20
1.0
 30
0.0
  9
$USERI1
 70
     0
  9
$USERI2
 70
     0
  9
$USERI3
 70
     0
  9
$USERI4
 70
     0
  9
$USERI5
 70
     0
  9
$USERR1
 40
0.0
  9
$USERR2
 40
0.0
  9
$USERR3
 40
0.0
  9
$USERR4
 40
0.0
  9
$USERR5
 40
0.0
  9
$WORLDVIEW
 70
     1
  9
$SHADEDGE
 70
     3
  9
$SHADEDIF
 70
    70
  9
$TILEMODE
 70
     1
  9
$MAXACTVP
 70
    64
  9
$PLIMCHECK
 70
     0
  9
$PEXTMIN
 10
1.0000000000000000E+20
 20
1.0000000000000000E+20
 30
1.0000000000000000E+20
  9
$PEXTMAX
 10
-1.0000000000000000E+20
 20
-1.0000000000000000E+20
 30
-1.0000000000000000E+20
  9
$PLIMMIN
 10
0.0
 20
0.0
  9
$PLIMMAX
 10
12.0
 20
9.0
  9
$UNITMODE
 70
     0
  9
$VISRETAIN
 70
     1
  9
$PLINEGEN
 70
     0
  9
$PSLTSCALE
 70
     1
  0
ENDSEC
  0
SECTION
  2
TABLES
  0
TABLE
  2
VPORT
 70
     1
  0
VPORT
  2
*ACTIVE
 70
     0
 10
0.0
 20
0.0
 11
1.0
 21
1.0
 12
0.0
 22
0.0
 13
0.0
 23
0.0
 14
1.0
 24
1.0
 15
0.0
 25
0.0
 16
0.0
 26
0.0
 36
183.7151848838024932
 17
3975.3837890625
 27
790.3366410673442033
 37
0.0
 40
67.6915351642254421
 41
2.005224660397074
 42
50.0
 43
0.0
 44
0.0
 50
0.0
 51
0.0
 71
     0
 72
   100
 73
     1
 74
     1
 75
     0
 76
     0
 77
     0
 78
     0
  0
ENDTAB
  0
TABLE
  2
LTYPE
 70
     2
  0
LTYPE
  2
CONTINUOUS
 70
     0
  3
Solid line
 72
    65
 73
     0
 40
0.0
  0
LTYPE
  2
PHANTOM2
 70
     0
  3
___ _ _ ___ _ _ ___ _ _ ___ _ _
 72
    65
 73
     6
 40
1.25
 49
0.625
 49
-0.125
 49
0.125
 49
-0.125
 49
0.125
 49
-0.125
  0
ENDTAB
  0
TABLE
  2
LAYER
 70
     2
  0
LAYER
  2
0
 70
     0
 62
   255
  6
CONTINUOUS
  0
LAYER
  2
DEFPOINTS
 70
     0
 62
     7
  6
CONTINUOUS
  0
ENDTAB
  0
TABLE
  2
STYLE
 70
     1
  0
STYLE
  2
STANDARD
 70
     0
 40
0.0
 41
0.8
 50
0.0
 71
     0
 42
0.2
  3
txt
  4

  0
ENDTAB
  0
TABLE
  2
VIEW
 70
     0
  0
ENDTAB
  0
TABLE
  2
UCS
 70
     0
  0
ENDTAB
  0
TABLE
  2
APPID
 70
     9
  0
APPID
  2
ACAD
 70
     0
  0
APPID
  2
ACAD_MLEADERVER
 70
     0
  0
APPID
  2
ACAD_EXEMPT_FROM_CAD_STANDARDS
 70
     0
  0
APPID
  2
ACAD_NAV_VCDISPLAY
 70
     0
  0
APPID
  2
ACAECLAYERSTANDARD
 70
     0
  0
APPID
  2
ACCMTRANSPARENCY
 70
     0
  0
APPID
  2
ACAD_DSTYLE_DIMJAG
 70
     0
  0
APPID
  2
ACAD_DSTYLE_DIMTALN
 70
     0
  0
APPID
  2
ACDBATTR
 70
     0
  0
ENDTAB
  0
TABLE
  2
DIMSTYLE
 70
     1
  0
DIMSTYLE
  2
STANDARD
 70
     0
  3

  4

  5

  6

  7

 40
1.0
 41
0.1875
 42
0.0625
 43
0.38
 44
0.125
 45
0.0
 46
0.0
 47
0.01
 48
0.01
140
0.15625
141
0.09
142
0.0
143
25.3999999999999986
144
1.0
145
0.0
146
1.0
147
0.09
 71
     1
 72
     0
 73
     1
 74
     1
 75
     0
 76
     0
 77
     0
 78
     4
170
     0
171
     2
172
     0
173
     0
174
     0
175
     0
176
     0
177
     0
178
     0
  0
ENDTAB
  0
ENDSEC
  0
SECTION
  2
BLOCKS
  0
BLOCK
  8
0
  2
$MODEL_SPACE
 70
     0
 10
0.0
 20
0.0
 30
0.0
  3
$MODEL_SPACE
  1

  0
ENDBLK
  5
21
  8
0
  0
BLOCK
 67
     1
  8
0
  2
$PAPER_SPACE
 70
     0
 10
0.0
 20
0.0
 30
0.0
  3
$PAPER_SPACE
  1

  0
ENDBLK
  5
1D
 67
     1
  8
0
  0
BLOCK
  8
0
  2
_FILLED
 70
     0
 10
0.0
 20
0.0
 30
0.0
  3
_FILLED
  1

  0
SOLID
  5
1863B
  8
0
  6
BYBLOCK
 62
     0
 10
0.0
 20
0.0
 30
0.0
 11
-1.0
 21
0.1666666667
 31
0.0
 12
-1.0
 22
-0.1666666667
 32
0.0
 13
-1.0
 23
-0.1666666667
 33
0.0
  0
ENDBLK
  5
1863C
  8
0
  6
BYBLOCK
 62
     0
  0
ENDSEC
  0
SECTION
  2
ENTITIES
  0
ATTDEF
  5
3930
  8
DEFPOINTS
 10
3975.3838830087711358
 20
806.0052289120320665
 30
0.0
 40
0.001
  1
71570128
  3

  2
MODELNUMBER
 70
     0
1001
ACDBATTR
1070
     0
1070
     1
  0
ATTDEF
  5
3931
  8
DEFPOINTS
 10
3975.3838830087711358
 20
806.0035622453655151
 30
0.0
 40
0.001
  1
TRAVERSE
  3

  2
TRADENAME
 70
     0
1001
ACDBATTR
1070
     0
1070
     1
  0
ATTDEF
  5
3932
  8
DEFPOINTS
 10
3975.3838830087711358
 20
806.0018955786988499
 30
0.0
 40
0.001
  1
BATH AND WALL SURROUND
  3

  2
PRODUCT
 70
     0
1001
ACDBATTR
1070
     0
1070
     1
  0
ARC
  5
193CB
  8
0
 10
4005.3460956527851522
 20
774.730814354208519
 30
0.0
 40
0.0623919817734886
 50
179.9041096320187023
 51
268.0941907543452771
  0
LINE
  5
193CC
  8
0
 10
4005.3440207130361159
 20
774.6684568846105776
 30
0.0
 11
4005.3837022634352252
 21
774.667070963210449
 31
0.0
  0
ARC
  5
193CD
  8
0
 10
4005.1586325214911994
 20
805.7253996010502988
 30
0.0
 40
0.2250697532575059
 50
0.0181665932591338
 51
90.0273364825195728
  0
LINE
  5
193CE
  8
0
 10
4005.1585251380997761
 20
805.9504693286910424
 30
0.0
 11
3945.6088731529171127
 21
805.9504709632661843
 31
0.0
  0
ARC
  5
193CF
  8
0
 10
3945.6087800015820903
 20
805.7253931951591994
 30
0.0
 40
0.2250777873828933
 50
89.976287404714526
 51
179.9621018294014902
  0
LINE
  5
193D0
  8
0
 10
4005.2837022634362256
 20
775.8651921935603468
 30
0.0
 11
4005.2837037583899473
 21
774.7309187735453406
 31
0.0
  0
ARC
  5
193D1
  8
0
 10
4001.0503084133551965
 20
805.0108223617896783
 30
0.0
 40
0.9896499811885949
 50
71.7088829180755312
 51
90.095675293043783
  0
ARC
  5
193D2
  8
0
 10
3949.717096838703128
 20
805.0108180341397883
 30
0.0
 40
0.9896543180495925
 50
89.9040060869558886
 51
108.2908152870167982
  0
LINE
  5
193D3
  8
0
 10
4005.3837022634352252
 20
801.3302557383449312
 30
0.0
 11
4004.9054580582360359
 21
801.3136038175109661
 31
0.0
  0
ARC
  5
193D4
  8
0
 10
4004.9031861433700215
 20
801.3758222326655414
 30
0.0
 40
0.0622598809950957
 50
182.0052413554670068
 51
272.0912349551388161
  0
LINE
  5
193D5
  8
0
 10
4004.8409643884410798
 20
801.3736437021667598
 30
0.0
 11
4004.8290462903210027
 21
801.7107777432089506
 31
0.0
  0
ARC
  5
193D6
  8
0
 10
4004.7666044194779715
 20
801.7080648717325175
 30
0.0
 40
0.0625007752430817
 50
2.4877281035622318
 51
92.0111529933891887
  0
LINE
  5
193D7
  8
0
 10
4004.7644110151532004
 20
801.7705271474151232
 30
0.0
 11
4004.6050735963967782
 21
801.7649625135998122
 31
0.0
  0
ARC
  5
193D8
  8
0
 10
4004.6072550282538032
 20
801.7025000963111552
 30
0.0
 40
0.0625004977458447
 50
92.0001797352398967
 51
178.167306869882907
  0
LINE
  5
193D9
  8
0
 10
4004.5447865010992246
 20
801.7044989294242896
 30
0.0
 11
4004.5327106718368668
 21
801.3587625625109467
 31
0.0
  0
ARC
  5
193DA
  8
0
 10
4004.4702517281448308
 20
801.3609421574861926
 30
0.0
 40
0.062496962176527
 50
271.9735950560378228
 51
358.0013921025283139
  0
ARC
  5
193DB
  8
0
 10
4004.075554424216989
 20
801.3466632923847328
 30
0.0
 40
0.0620052239258129
 50
190.0017057791943955
 51
271.4285176791539129
  0
ARC
  5
193DC
  8
0
 10
4000.9444061346239323
 20
801.7708739432180209
 30
0.0
 40
2.9479192762859392
 50
10.1403765710390807
 51
90.1233820936959233
  0
LINE
  5
193DD
  8
0
 10
4000.9380580200800068
 20
804.7187863844110325
 30
0.0
 11
3949.829340270936882
 21
804.7187852892297997
 31
0.0
  0
ARC
  5
193DE
  8
0
 10
3949.8229809368008318
 20
801.7708995076167184
 30
0.0
 40
2.9478926409500521
 50
89.8763987249713665
 51
169.9081328780997922
  0
ARC
  5
193DF
  8
0
 10
3898.1703600581558931
 20
810.3928794834334894
 30
0.0
 40
49.4195652571784407
 50
349.4398771691890033
 51
350.5601228301687229
  0
ARC
  5
193E0
  8
0
 10
3946.691668048442807
 20
801.3467694794494491
 30
0.0
 40
0.0622029963824397
 50
271.632075941100311
 51
349.9310950153409863
  0
LINE
  5
193E1
  8
0
 10
4004.4724040560590765
 20
801.2984822682304866
 30
0.0
 11
4003.8094680746357881
 21
801.2753310039108783
 31
0.0
  0
ARC
  5
193E2
  8
0
 10
4003.8073355202750463
 20
801.3371433115571563
 30
0.0
 40
0.0618490837818379
 50
238.0259942085328078
 51
271.9759482359780236
  0
LINE
  5
193E3
  8
0
 10
4004.0740088342208765
 20
801.2846773347358749
 30
0.0
 11
3946.6934396673359515
 21
801.2845917171429164
 31
0.0
  0
ARC
  5
193E4
  8
0
 10
3946.9600688973359865
 20
801.3371417977100464
 30
0.0
 40
0.0618475659991241
 50
270.0739854028356035
 51
301.8248855878093764
  0
LINE
  5
193E5
  8
0
 10
3946.9601487603890746
 20
801.2752942832739791
 30
0.0
 11
3946.2949739420928381
 21
801.298482164922234
 31
0.0
  0
ARC
  5
193E6
  8
0
 10
3946.2971551606369758
 20
801.3609440916111453
 30
0.0
 40
0.0625000000001787
 50
182.0003044091685922
 51
267.9999999999182023
  0
LINE
  5
193E7
  8
0
 10
3946.2346932455370734
 20
801.3587625412104671
 30
0.0
 11
3946.2226142864160465
 21
801.7046059942346119
 31
0.0
  0
ARC
  5
193E8
  8
0
 10
3946.1601496749099169
 20
801.7025005018441561
 30
0.0
 40
0.0625000863106415
 50
1.9305358475637111
 51
87.9941867159730151
  0
LINE
  5
193E9
  8
0
 10
3946.162337233909966
 20
801.7649622931604654
 30
0.0
 11
3946.0029867470448153
 21
801.7705270434698832
 31
0.0
  0
ARC
  5
193EA
  8
0
 10
3946.0007995304717952
 20
801.7080651391515858
 30
0.0
 40
0.0625001872590989
 50
87.9945040628827257
 51
177.5123225662416928
  0
LINE
  5
193EB
  8
0
 10
3945.9383582446598666
 20
801.7107779298859214
 30
0.0
 11
3945.9265896022370725
 21
801.3738841937109783
 31
0.0
  0
ARC
  5
193EC
  8
0
 10
3945.8641276871449008
 20
801.3760657442131787
 30
0.0
 40
0.0624999999955698
 50
268.0000001749327225
 51
357.9996954973726133
  0
LINE
  5
193ED
  8
0
 10
3945.8619464685930325
 20
801.3136038175222211
 30
0.0
 11
3945.3837022634370442
 21
801.3303041332552539
 31
0.0
  0
LINE
  5
193EE
  8
0
 10
4005.3837022634352252
 20
801.3002861868119453
 30
0.0
 11
4003.8283873836357998
 21
801.2459733944108393
 31
0.0
  0
ARC
  5
193EF
  8
0
 10
4003.8308669223538345
 20
801.1830418050371918
 30
0.0
 40
0.0629804180150544
 50
92.2563176674165817
 51
179.9381373750456987
  0
ARC
  5
193F0
  8
0
 10
4004.4256933738920452
 20
776.2008533188259207
 30
0.0
 40
0.2510609276481856
 50
180.0730123910682039
 51
265.7864911484994082
  0
LINE
  5
193F1
  8
0
 10
4004.4072470900359804
 20
775.9504709632104777
 30
0.0
 11
4005.2233838138331521
 21
775.9234093070107292
 31
0.0
  0
ARC
  5
193F2
  8
0
 10
4004.0894297464560623
 20
801.1924927149422047
 30
0.0
 40
0.062641669753593
 50
94.9555237678077049
 51
180.314348136671498
  0
ARC
  5
193F3
  8
0
 10
3973.3723435444330789
 20
791.3510504630837659
 30
0.0
 40
30.1991291734781697
 50
359.9514688802381102
 51
19.2042938599148805
  0
ARC
  5
193F4
  8
0
 10
3973.2466617584750566
 20
791.3055997752437634
 30
0.0
 40
30.3248066367417515
 50
340.3366912605616221
 51
0.0375446842876462
  0
ARC
  5
193F5
  8
0
 10
3998.8740339809892248
 20
782.0119878485387517
 30
0.0
 40
3.0673170635278271
 50
300.0053330801524112
 51
342.7330885532339266
  0
LINE
  5
193F6
  8
0
 10
3998.5005059925370006
 20
778.9203920778104475
 30
0.0
 11
3954.139584883536827
 21
778.9203906269106028
 31
0.0
  0
ARC
  5
193F7
  8
0
 10
3953.7953895743758039
 20
783.512253582752237
 30
0.0
 40
4.6047449241058924
 50
206.8321563466274995
 51
274.2867410735080966
  0
CIRCLE
  5
193F8
  8
0
 10
3997.1337022634361347
 20
791.3254709632105914
 30
0.0
 40
1.387500000000002
  0
ARC
  5
193F9
  8
0
 10
3972.5942662540928723
 20
791.3262187114264634
 30
0.0
 40
29.008235079581091
 50
343.2791140474997178
 51
16.141036772289759
  0
ARC
  5
193FA
  8
0
 10
3997.5125328140370584
 20
783.8602029275642735
 30
0.0
 40
2.9955853806022978
 50
270.2338854810893167
 51
342.9177971053616716
  0
LINE
  5
193FB
  8
0
 10
3997.5247609744369583
 20
780.8646425051103961
 30
0.0
 11
3960.6334323361361385
 21
780.7595475058104739
 31
0.0
  0
ARC
  5
193FC
  8
0
 10
3960.66330692163001
 20
783.7580693100179587
 30
0.0
 40
2.9986706223201729
 50
196.509799972693088
 51
269.4291750593731081
  0
ARC
  5
193FD
  8
0
 10
3986.7029044775690636
 20
791.3255040422759521
 30
0.0
 40
30.1155404793510613
 50
164.3120898166885127
 51
196.2349257121929895
  0
ARC
  5
193FE
  8
0
 10
3960.58565830173211
 20
798.6473386015679807
 30
0.0
 40
2.991416124709632
 50
118.1624290402266979
 51
164.064141134878497
  0
CIRCLE
  5
193FF
  8
0
 10
3997.1337022634361347
 20
791.3254709632105914
 30
0.0
 40
1.0
  0
LINE
  5
19400
  8
0
 10
4005.3837022634352252
 20
805.7254709632105687
 30
0.0
 11
4005.3837022634352252
 21
774.667070963210449
 31
0.0
  0
LINE
  5
19401
  8
0
 10
3945.3837022634370442
 20
805.7255420723686257
 30
0.0
 11
3945.3837022634361347
 21
774.667070963210449
 31
0.0
  0
LINE
  5
19402
  8
0
 10
3945.4837016216470147
 20
775.6406725834104918
 30
0.0
 11
4005.2837022634362256
 21
775.6406725834104918
 31
0.0
  0
LINE
  5
19403
  8
0
 10
4001.0486558482139117
 20
806.0004709632107733
 30
0.0
 11
3949.7187549145151024
 21
806.0004709632106596
 31
0.0
  0
ARC
  5
19404
  8
0
 10
4005.1626801470488317
 20
805.7265858400772913
 30
0.0
 40
0.0939304143571183
 50
359.3199301898949898
 51
47.5395049112145287
  0
ARC
  5
19405
  8
0
 10
4005.0637944692389283
 20
805.7879822715462979
 30
0.0
 40
0.06248869324129
 50
1.990527262689584
 51
90.0128709436603032
  0
LINE
  5
19406
  8
0
 10
4005.2566039448361153
 20
805.7254709632105687
 30
0.0
 11
4005.2569047186980242
 21
804.9228286386917262
 31
0.0
  0
ARC
  5
19407
  8
0
 10
4005.0637712597740574
 20
805.7879967040227029
 30
0.0
 40
0.1625110242146619
 50
2.7812965147301929
 51
88.7544715430912845
  0
LINE
  5
19408
  8
0
 10
4005.2260908509620094
 20
805.7958823433807538
 30
0.0
 11
4005.3837022634352252
 21
801.3302557383449312
 31
0.0
  0
ARC
  5
19409
  8
0
 10
286664.7232734094723128
 20
50642.5528474119128077
 30
0.0
 40
287021.2939773626276292
 50
189.9999064148665866
 51
190.000099790441709
  0
LINE
  5
1940A
  8
0
 10
4005.126245455760909
 20
805.7901527704697173
 30
0.0
 11
4005.2771111559891324
 21
801.4714048025481361
 31
0.0
  0
LINE
  5
1940B
  8
0
 10
4005.0637804317589143
 20
805.8504709632107961
 30
0.0
 11
3945.703617859258884
 21
805.8504709632107961
 31
0.0
  0
ARC
  5
1940C
  8
0
 10
3945.7036209772700204
 20
805.7879709631562264
 30
0.0
 40
0.0625000001324097
 50
90.0028583828923701
 51
177.9993149270420929
  0
LINE
  5
1940D
  8
0
 10
3945.6411590765342225
 20
805.7901529285479683
 30
0.0
 11
3945.4902931385618103
 21
801.4713981560502134
 31
0.0
  0
ARC
  5
1940E
  8
0
 10
3945.3097468156270224
 20
801.469734591378824
 30
0.0
 40
0.1805539868644844
 50
308.7582117192696955
 51
0.5279118168676618
  0
ARC
  5
1940F
  8
0
 10
4005.2211099789551554
 20
775.8606970251985331
 30
0.0
 40
0.0627534908602325
 50
4.1077387227092199
 51
87.9234674404716543
  0
ARC
  5
19410
  8
0
 10
3998.6069406706242262
 20
782.850219694135717
 30
0.0
 40
3.9312686800486132
 50
268.4485916407940067
 51
297.2659639315339746
  0
ARC
  5
19411
  8
0
 10
3975.5768565477419543
 20
791.309049721201859
 30
0.0
 40
27.7098457516320806
 50
160.908093341933693
 51
200.878142034515804
  0
ARC
  5
19412
  8
0
 10
15599.6166439578591962
 20
868.9176902790551367
 30
0.0
 40
11596.0465839990902168
 50
180.3346767908745107
 51
180.4422673366022138
  0
ARC
  5
19413
  8
0
 10
-9278.3417420043206221
 20
710.1210084627766719
 30
0.0
 40
13282.6807439830099611
 50
0.2850398636284209
 51
0.3928448612797111
  0
ARC
  5
19414
  8
0
 10
3997.5850685215409612
 20
798.5384298237735266
 30
0.0
 40
2.9976128587670341
 50
16.5157297605708209
 51
66.3684580441314438
  0
ARC
  5
19415
  8
0
 10
4015.4644248544409493
 20
791.324095944085002
 30
0.0
 40
12.9221107182297992
 50
175.6207498016665056
 51
184.3267390747963077
  0
ARC
  5
19416
  8
0
 10
3990.3311938324141011
 20
791.3168057430839326
 30
0.0
 40
12.4072717609051608
 50
355.3410616404067923
 51
4.9419876229152084
  0
ARC
  5
19417
  8
0
 10
4001.8603456230298434
 20
790.3621264068614209
 30
0.0
 40
0.838806417719185
 50
340.6098288455381748
 51
356.371065873402415
  0
ARC
  5
19418
  8
0
 10
4003.6105929260379526
 20
790.4076265282662916
 30
0.0
 40
1.033104719541063
 50
183.24210540460831
 51
198.3389823331964976
  0
ARC
  5
19419
  8
0
 10
4002.640583546552989
 20
790.0867954843088228
 30
0.0
 40
0.0114341785204256
 50
201.6760763160067995
 51
343.9971224446417182
  0
ARC
  5
1941A
  8
0
 10
4002.0037533674399128
 20
792.327515052896274
 30
0.0
 40
0.6910375345782312
 50
4.8262887885458898
 51
20.2206272003877494
  0
ARC
  5
1941B
  8
0
 10
4003.5356774401611801
 20
792.26116039655858
 30
0.0
 40
0.9569252829040291
 50
161.3698398100248994
 51
177.0264000799197106
  0
ARC
  5
1941C
  8
0
 10
4002.6404783842172037
 20
792.5633353925984466
 30
0.0
 40
0.012107474941101
 50
14.4788444006935002
 51
163.0855099698829918
  0
ARC
  5
1941D
  8
0
 10
4016.4474086288578292
 20
791.3262555955725475
 30
0.0
 40
13.76552537251054
 50
176.4436162204860068
 51
183.5978474177341866
  0
ARC
  5
1941E
  8
0
 10
3957.7295767240398163
 20
797.8344396752072498
 30
0.0
 40
8.7161074581349336
 50
156.6818231981550866
 51
163.070612141247409
  0
ARC
  5
1941F
  8
0
 10
4004.4351103848789535
 20
779.4092360901496477
 30
0.0
 40
0.5195874433368298
 50
180.0867089739948881
 51
192.7081037979721998
  0
ARC
  5
19420
  8
0
 10
4004.6607674006709203
 20
779.4944626392118607
 30
0.0
 40
0.7592044906446258
 50
195.236944067433086
 51
228.9251722421377906
  0
LINE
  5
19421
  8
0
 10
3945.3837022634370442
 20
801.3002862818931362
 30
0.0
 11
3946.9390198659980342
 21
801.2459733944108393
 31
0.0
  0
ARC
  5
19422
  8
0
 10
3946.936540327280909
 20
801.1830418050371918
 30
0.0
 40
0.0629804180150544
 50
0.061862624954248
 51
87.7436823325834041
  0
ARC
  5
19423
  8
0
 10
3946.6781215270198118
 20
801.192548051439644
 30
0.0
 40
0.0624979768778426
 50
359.6341978156879122
 51
85.1680262969234434
  0
ARC
  5
19424
  8
0
 10
-7642.3635578975990938
 20
868.8766142397347494
 30
0.0
 40
11589.5607759009908477
 50
359.5576882299404247
 51
359.6653389862290737
  0
ARC
  5
19425
  8
0
 10
17076.080134965119214
 20
711.024741124616753
 30
0.0
 40
13129.6491311515401321
 50
179.6065201376979985
 51
179.7155816489012068
  0
ARC
  5
19426
  8
0
 10
3945.7036209725820299
 20
805.7879709654149565
 30
0.0
 40
0.162499995250471
 50
89.9999983939894292
 51
176.638064784950501
  0
LINE
  5
19427
  8
0
 10
3945.5414006384999084
 20
805.7975004810342625
 30
0.0
 11
3945.3837022634370442
 21
801.3303041332552539
 31
0.0
  0
ARC
  5
19428
  8
0
 10
4005.4478352046980945
 20
801.46503884862625
 30
0.0
 40
0.1708426942446075
 50
177.8645457925321125
 51
232.834616449755913
  0
ARC
  5
19429
  8
0
 10
3945.6119484627110978
 20
805.7249099006496635
 30
0.0
 40
0.1012244430037575
 50
134.1823762265453013
 51
179.6824217508541039
  0
LINE
  5
1942A
  8
0
 10
3945.5107255746361261
 20
805.7254709632105687
 30
0.0
 11
3945.510803401692101
 21
804.930758103577773
 31
0.0
  0
ARC
  5
1942B
  8
0
 10
3945.4213061513250977
 20
774.730814354208519
 30
0.0
 40
0.0623919817734886
 50
271.9058092456547229
 51
0.0958903679812648
  0
LINE
  5
1942C
  8
0
 10
3945.4233810910750435
 20
774.6684568846105776
 30
0.0
 11
3945.3837022634361347
 21
774.667070963210449
 31
0.0
  0
LINE
  5
1942D
  8
0
 10
3945.4837022634369532
 20
775.8609473919105994
 30
0.0
 11
3945.4836980457198479
 21
774.7309187735453406
 31
0.0
  0
ARC
  5
1942E
  8
0
 10
3946.3417062503699526
 20
776.2008578599994735
 30
0.0
 40
0.2510656167152961
 50
274.2139288274004798
 51
359.9259388283052203
  0
LINE
  5
1942F
  8
0
 10
3946.3601547140738148
 20
775.9504709632104777
 30
0.0
 11
3945.5440179902780073
 21
775.9234093070107292
 31
0.0
  0
ARC
  5
19430
  8
0
 10
3945.5461735763938123
 20
775.8609751884232537
 30
0.0
 40
0.0624713191414808
 50
91.9773955400077341
 51
180.0254936656467919
  0
ARC
  5
19431
  8
0
 10
3946.3164720471809233
 20
779.4110097919289046
 30
0.0
 40
0.53541234068159
 50
347.4791425531757909
 51
359.7260446748583149
  0
ARC
  5
19432
  8
0
 10
3946.1069646707028369
 20
779.4943181337097258
 30
0.0
 40
0.7588478573263709
 50
311.1758628579137849
 51
344.7670295191762193
  0
LINE
  5
19434
  8
0
 10
4004.7691442634341001
 20
801.2788253485560972
 30
0.0
 11
4004.7563512596361761
 21
801.6451690458105759
 31
0.0
  0
LINE
  5
19435
  8
0
 10
4004.7563512596361761
 20
801.6451690458105759
 30
0.0
 11
4004.630746913882831
 21
801.6407828453990305
 31
0.0
  0
ARC
  5
19436
  8
0
 10
4004.6329281324360636
 20
801.5783209187106877
 30
0.0
 40
0.0624999999999642
 50
92.000000008111698
 51
178.0000000000351008
  0
LINE
  5
19437
  8
0
 10
4004.5704662057369205
 20
801.5805021373142836
 30
0.0
 11
4004.5596759819359249
 21
801.27151055501065
 31
0.0
  0
LINE
  5
19438
  8
0
 10
3945.9982540384939966
 20
801.2788256610167537
 30
0.0
 11
3946.0110470313811675
 21
801.6451690458105759
 31
0.0
  0
LINE
  5
19439
  8
0
 10
3946.0110470313811675
 20
801.6451690458105759
 30
0.0
 11
3946.1366513771340578
 21
801.6407828453990305
 31
0.0
  0
ARC
  5
1943A
  8
0
 10
3946.1344701585808252
 20
801.5783209187106877
 30
0.0
 40
0.0624999999999642
 50
1.9999999999648941
 51
87.999999991888302
  0
LINE
  5
1943B
  8
0
 10
3946.1969320852799683
 20
801.5805021373142836
 30
0.0
 11
3946.2077222981438354
 21
801.2715108682061782
 31
0.0
  0
VIEWPORT
  5
7BC8
 67
     1
  8
0
 10
8.4975296442687753
 20
4.5
 30
0.0
 40
16.9950592885375507
 41
9.0
 68
     1
 69
     1
1001
ACAD
1000
MVIEW
1002
{
1070
    16
1010
0.0
1020
0.0
1030
0.0
1010
0.0
1020
0.0
1030
1.0
1040
0.0
1040
9.0
1040
8.4975296442687753
1040
4.5
1040
50.0
1040
0.0
1040
0.0
1070
     0
1070
   100
1070
     1
1070
     1
1070
     0
1070
     0
1070
     0
1070
     0
1040
0.0
1040
0.0
1040
0.0
1040
1.0
1040
1.0
1040
0.0
1040
0.0
1070
     0
1002
{
1002
}
1002
}
  0
ENDSEC
  0
EOF
