  0
SECTION
  2
HEADER
  9
$ACADVER
  1
AC1009
  9
$INSBASE
 10
3969.8931162600028983
 20
759.7116486401835118
 30
0.0
  9
$EXTMIN
 10
3939.893114898622116
 20
728.3782486401833012
 30
0.0
  9
$EXTMAX
 10
3999.893114898622116
 20
759.7178981116223895
 30
0.0
  9
$LIMMIN
 10
0.0
 20
0.0
  9
$LIMMAX
 10
11.6929133858000007
 20
8.2677165353999982
  9
$ORTHOMODE
 70
     0
  9
$REGENMODE
 70
     1
  9
$FILLMODE
 70
     1
  9
$QTEXTMODE
 70
     0
  9
$MIRRTEXT
 70
     0
  9
$DRAGMODE
 70
     2
  9
$LTSCALE
 40
0.6431102362
  9
$OSMODE
 70
  4095
  9
$ATTMODE
 70
     1
  9
$TEXTSIZE
 40
0.2
  9
$TRACEWID
 40
0.05
  9
$TEXTSTYLE
  7
STANDARD
  9
$CLAYER
  8
0
  9
$CELTYPE
  6
BYLAYER
  9
$CECOLOR
 62
   256
  9
$DIMSCALE
 40
1.0
  9
$DIMASZ
 40
0.1875
  9
$DIMEXO
 40
0.0625
  9
$DIMDLI
 40
0.4443307087
  9
$DIMRND
 40
0.0
  9
$DIMDLE
 40
0.0
  9
$DIMEXE
 40
0.125
  9
$DIMTP
 40
0.01
  9
$DIMTM
 40
0.01
  9
$DIMTXT
 40
2.0
  9
$DIMCEN
 40
0.1052362205
  9
$DIMTSZ
 40
0.0
  9
$DIMTOL
 70
     1
  9
$DIMLIM
 70
     0
  9
$DIMTIH
 70
     1
  9
$DIMTOH
 70
     1
  9
$DIMSE1
 70
     0
  9
$DIMSE2
 70
     0
  9
$DIMTAD
 70
     0
  9
$DIMZIN
 70
     0
  9
$DIMBLK
  1

  9
$DIMASO
 70
     1
  9
$DIMSHO
 70
     1
  9
$DIMPOST
  1
\X
  9
$DIMAPOST
  1

  9
$DIMALT
 70
     1
  9
$DIMALTD
 70
     2
  9
$DIMALTF
 40
25.3999999999999986
  9
$DIMLFAC
 40
1.0
  9
$DIMTOFL
 70
     0
  9
$DIMTVP
 40
0.0
  9
$DIMTIX
 70
     0
  9
$DIMSOXD
 70
     0
  9
$DIMSAH
 70
     0
  9
$DIMBLK1
  1

  9
$DIMBLK2
  1

  9
$DIMSTYLE
  2
STANDARD
  9
$DIMCLRD
 70
     0
  9
$DIMCLRE
 70
     0
  9
$DIMCLRT
 70
     0
  9
$DIMTFAC
 40
1.0
  9
$DIMGAP
 40
0.09
  9
$LUNITS
 70
     2
  9
$LUPREC
 70
     4
  9
$SKETCHINC
 40
0.1
  9
$FILLETRAD
 40
0.0
  9
$AUNITS
 70
     0
  9
$AUPREC
 70
     0
  9
$MENU
  1
.
  9
$ELEVATION
 40
0.0
  9
$PELEVATION
 40
0.0
  9
$THICKNESS
 40
0.0
  9
$LIMCHECK
 70
     0
  9
$BLIPMODE
 70
     0
  9
$CHAMFERA
 40
0.0
  9
$CHAMFERB
 40
0.0
  9
$SKPOLY
 70
     0
  9
$TDCREATE
 40
2458060.468368056230247
  9
$TDUPDATE
 40
2458857.4240393522195518
  9
$TDINDWG
 40
4.4982593749999999
  9
$TDUSRTIMER
 40
4.4982593749999999
  9
$USRTIMER
 70
     1
  9
$ANGBASE
 50
0.0
  9
$ANGDIR
 70
     0
  9
$PDMODE
 70
     0
  9
$PDSIZE
 40
0.3125
  9
$PLINEWID
 40
0.0
  9
$COORDS
 70
     1
  9
$SPLFRAME
 70
     0
  9
$SPLINETYPE
 70
     6
  9
$SPLINESEGS
 70
     8
  9
$ATTDIA
 70
     1
  9
$ATTREQ
 70
     1
  9
$HANDLING
 70
     1
  9
$HANDSEED
  5
19394
  9
$SURFTAB1
 70
     6
  9
$SURFTAB2
 70
     6
  9
$SURFTYPE
 70
     6
  9
$SURFU
 70
     6
  9
$SURFV
 70
     6
  9
$UCSNAME
  2

  9
$UCSORG
 10
0.0
 20
0.0
 30
0.0
  9
$UCSXDIR
 10
1.0
 20
0.0
 30
0.0
  9
$UCSYDIR
 10
0.0
 20
1.0
 30
0.0
  9
$PUCSNAME
  2

  9
$PUCSORG
 10
0.0
 20
0.0
 30
0.0
  9
$PUCSXDIR
 10
1.0
 20
0.0
 30
0.0
  9
$PUCSYDIR
 10
0.0
 20
1.0
 30
0.0
  9
$USERI1
 70
     0
  9
$USERI2
 70
     0
  9
$USERI3
 70
     0
  9
$USERI4
 70
     0
  9
$USERI5
 70
     0
  9
$USERR1
 40
0.0
  9
$USERR2
 40
0.0
  9
$USERR3
 40
0.0
  9
$USERR4
 40
0.0
  9
$USERR5
 40
0.0
  9
$WORLDVIEW
 70
     1
  9
$SHADEDGE
 70
     3
  9
$SHADEDIF
 70
    70
  9
$TILEMODE
 70
     1
  9
$MAXACTVP
 70
    64
  9
$PLIMCHECK
 70
     0
  9
$PEXTMIN
 10
1.0000000000000000E+20
 20
1.0000000000000000E+20
 30
1.0000000000000000E+20
  9
$PEXTMAX
 10
-1.0000000000000000E+20
 20
-1.0000000000000000E+20
 30
-1.0000000000000000E+20
  9
$PLIMMIN
 10
0.0
 20
0.0
  9
$PLIMMAX
 10
12.0
 20
9.0
  9
$UNITMODE
 70
     0
  9
$VISRETAIN
 70
     1
  9
$PLINEGEN
 70
     0
  9
$PSLTSCALE
 70
     1
  0
ENDSEC
  0
SECTION
  2
TABLES
  0
TABLE
  2
VPORT
 70
     1
  0
VPORT
  2
*ACTIVE
 70
     0
 10
0.0
 20
0.0
 11
1.0
 21
1.0
 12
0.0
 22
0.0
 13
0.0
 23
0.0
 14
1.0
 24
1.0
 15
0.0
 25
0.0
 16
0.0
 26
0.0
 36
183.7157975073654086
 17
3969.89306640625
 27
744.0480664874517061
 37
0.0
 40
67.6917608909637067
 41
2.005224660397074
 42
50.0
 43
0.0
 44
0.0
 50
0.0
 51
0.0
 71
     0
 72
   100
 73
     1
 74
     1
 75
     0
 76
     0
 77
     0
 78
     0
  0
ENDTAB
  0
TABLE
  2
LTYPE
 70
     2
  0
LTYPE
  2
CONTINUOUS
 70
     0
  3
Solid line
 72
    65
 73
     0
 40
0.0
  0
LTYPE
  2
PHANTOM2
 70
     0
  3
___ _ _ ___ _ _ ___ _ _ ___ _ _
 72
    65
 73
     6
 40
1.25
 49
0.625
 49
-0.125
 49
0.125
 49
-0.125
 49
0.125
 49
-0.125
  0
ENDTAB
  0
TABLE
  2
LAYER
 70
     2
  0
LAYER
  2
0
 70
     0
 62
   255
  6
CONTINUOUS
  0
LAYER
  2
DEFPOINTS
 70
     0
 62
     7
  6
CONTINUOUS
  0
ENDTAB
  0
TABLE
  2
STYLE
 70
     1
  0
STYLE
  2
STANDARD
 70
     0
 40
0.0
 41
0.8
 50
0.0
 71
     0
 42
0.2
  3
txt
  4

  0
ENDTAB
  0
TABLE
  2
VIEW
 70
     0
  0
ENDTAB
  0
TABLE
  2
UCS
 70
     0
  0
ENDTAB
  0
TABLE
  2
APPID
 70
     9
  0
APPID
  2
ACAD
 70
     0
  0
APPID
  2
ACAD_MLEADERVER
 70
     0
  0
APPID
  2
ACAD_EXEMPT_FROM_CAD_STANDARDS
 70
     0
  0
APPID
  2
ACAD_NAV_VCDISPLAY
 70
     0
  0
APPID
  2
ACAECLAYERSTANDARD
 70
     0
  0
APPID
  2
ACCMTRANSPARENCY
 70
     0
  0
APPID
  2
ACAD_DSTYLE_DIMJAG
 70
     0
  0
APPID
  2
ACAD_DSTYLE_DIMTALN
 70
     0
  0
APPID
  2
ACDBATTR
 70
     0
  0
ENDTAB
  0
TABLE
  2
DIMSTYLE
 70
     1
  0
DIMSTYLE
  2
STANDARD
 70
     0
  3

  4

  5

  6

  7

 40
1.0
 41
0.1875
 42
0.0625
 43
0.38
 44
0.125
 45
0.0
 46
0.0
 47
0.01
 48
0.01
140
0.15625
141
0.09
142
0.0
143
25.3999999999999986
144
1.0
145
0.0
146
1.0
147
0.09
 71
     1
 72
     0
 73
     1
 74
     1
 75
     0
 76
     0
 77
     0
 78
     4
170
     0
171
     2
172
     0
173
     0
174
     0
175
     0
176
     0
177
     0
178
     0
  0
ENDTAB
  0
ENDSEC
  0
SECTION
  2
BLOCKS
  0
BLOCK
  8
0
  2
$MODEL_SPACE
 70
     0
 10
0.0
 20
0.0
 30
0.0
  3
$MODEL_SPACE
  1

  0
ENDBLK
  5
21
  8
0
  0
BLOCK
 67
     1
  8
0
  2
$PAPER_SPACE
 70
     0
 10
0.0
 20
0.0
 30
0.0
  3
$PAPER_SPACE
  1

  0
ENDBLK
  5
1D
 67
     1
  8
0
  0
BLOCK
  8
0
  2
_FILLED
 70
     0
 10
0.0
 20
0.0
 30
0.0
  3
_FILLED
  1

  0
SOLID
  5
1863B
  8
0
  6
BYBLOCK
 62
     0
 10
0.0
 20
0.0
 30
0.0
 11
-1.0
 21
0.1666666667
 31
0.0
 12
-1.0
 22
-0.1666666667
 32
0.0
 13
-1.0
 23
-0.1666666667
 33
0.0
  0
ENDBLK
  5
1863C
  8
0
  6
BYBLOCK
 62
     0
  0
ENDSEC
  0
SECTION
  2
ENTITIES
  0
ATTDEF
  5
3930
  8
DEFPOINTS
 10
3969.8832200862648278
 20
759.7168981116220721
 30
0.0
 40
0.001
  1
71570126
  3

  2
MODELNUMBER
 70
     0
1001
ACDBATTR
1070
     0
1070
     1
  0
ATTDEF
  5
3931
  8
DEFPOINTS
 10
3969.8832200862648278
 20
759.7152314449552932
 30
0.0
 40
0.001
  1
TRAVERSE
  3

  2
TRADENAME
 70
     0
1001
ACDBATTR
1070
     0
1070
     1
  0
ATTDEF
  5
3932
  8
DEFPOINTS
 10
3969.8832200862648278
 20
759.7135647782887418
 30
0.0
 40
0.001
  1
BATH AND WALL SURROUND
  3

  2
PRODUCT
 70
     0
1001
ACDBATTR
1070
     0
1070
     1
  0
ARC
  5
1929D
  8
0
 10
3999.855508287970224
 20
728.4419920311811438
 30
0.0
 40
0.0623919817734886
 50
179.9041096320121937
 51
268.0941907543452771
  0
LINE
  5
1929E
  8
0
 10
3999.8534333482220973
 20
728.379634561582975
 30
0.0
 11
3999.893114898622116
 21
728.3782486401833012
 31
0.0
  0
ARC
  5
1929F
  8
0
 10
3999.668045158096902
 20
759.4365772786113666
 30
0.0
 40
0.225069751838642
 50
0.0181664436376986
 51
90.0268896813396537
  0
LINE
  5
192A0
  8
0
 10
3999.6679395298328927
 20
759.6616470056635535
 30
0.0
 11
3940.1182875446488652
 21
759.6616486402388091
 31
0.0
  0
ARC
  5
192A1
  8
0
 10
3940.1181926380209006
 20
759.436570871612048
 30
0.0
 40
0.2250777886358917
 50
89.9758405773342105
 51
179.9621016973021028
  0
LINE
  5
192A2
  8
0
 10
3999.793114898622207
 20
729.5763698705329716
 30
0.0
 11
3999.7931163935759287
 21
728.4420964505178517
 31
0.0
  0
ARC
  5
192A3
  8
0
 10
3995.5597209792990725
 20
758.7219997545985279
 30
0.0
 40
0.9896502727259386
 50
71.7088842751456355
 51
90.0959305859209252
  0
ARC
  5
192A4
  8
0
 10
3944.2265094046028935
 20
758.7219959954594515
 30
0.0
 40
0.9896540263240423
 50
89.9042613762378835
 51
108.2908166449066982
  0
LINE
  5
192A5
  8
0
 10
3999.893114898622116
 20
755.0414334153174423
 30
0.0
 11
3999.4148706934220172
 21
755.0247814944833635
 31
0.0
  0
ARC
  5
192A6
  8
0
 10
3999.4125987785560028
 20
755.0869999096382799
 30
0.0
 40
0.0622598809950957
 50
182.0052413554670068
 51
272.0912349551127249
  0
LINE
  5
192A7
  8
0
 10
3999.3503770236279706
 20
755.0848213791392709
 30
0.0
 11
3999.3384589255069841
 21
755.4219554201814617
 31
0.0
  0
ARC
  5
192A8
  8
0
 10
3999.2760170546648624
 20
755.4192425487051423
 30
0.0
 40
0.0625007752430817
 50
2.4877281035622318
 51
92.0111529933891887
  0
LINE
  5
192A9
  8
0
 10
3999.2738236503391818
 20
755.4817048243876343
 30
0.0
 11
3999.11448623158185
 21
755.4761401905722096
 31
0.0
  0
ARC
  5
192AA
  8
0
 10
3999.1166676634397845
 20
755.4136777732836663
 30
0.0
 40
0.0625004977458447
 50
92.0001797352398967
 51
178.167306869882907
  0
LINE
  5
192AB
  8
0
 10
3999.0541991362852059
 20
755.4156766063968007
 30
0.0
 11
3999.0421233070219387
 21
755.0699402394833442
 31
0.0
  0
ARC
  5
192AC
  8
0
 10
3998.9796643633308122
 20
755.0721198344590448
 30
0.0
 40
0.062496962176527
 50
271.9735950560378228
 51
358.0013921025217201
  0
ARC
  5
192AD
  8
0
 10
3998.5849670594029703
 20
755.0578409693572439
 30
0.0
 40
0.0620052239258129
 50
190.0017057791943955
 51
271.4285176791539129
  0
ARC
  5
192AE
  8
0
 10
3995.453818777251854
 20
755.4820516245106319
 30
0.0
 40
2.9479192681998341
 50
10.1403765138446609
 51
90.1233480983244704
  0
LINE
  5
192AF
  8
0
 10
3995.447472411812214
 20
758.4299640613835436
 30
0.0
 11
3944.3387546626690892
 21
758.4299629662025382
 31
0.0
  0
ARC
  5
192B0
  8
0
 10
3944.3323935794378485
 20
755.4820771802695845
 30
0.0
 40
2.9478926490434141
 50
89.87636472949535
 51
169.9081328208202137
  0
ARC
  5
192B1
  8
0
 10
3892.6797726945401337
 20
764.1040571602005684
 30
0.0
 40
49.4195652559609186
 50
349.4398771691650154
 51
350.5601228301792958
  0
ARC
  5
192B2
  8
0
 10
3941.2010806836278789
 20
755.0579471564218466
 30
0.0
 40
0.0622029963824397
 50
271.632075941100311
 51
349.9310950153346198
  0
LINE
  5
192B3
  8
0
 10
3998.9818166912450579
 20
755.0096599452031114
 30
0.0
 11
3998.3188807098222242
 21
754.9865086808836168
 31
0.0
  0
ARC
  5
192B4
  8
0
 10
3998.3167481554610276
 20
755.0483209885298947
 30
0.0
 40
0.0618490837818379
 50
238.0259942085293972
 51
271.9759482359780236
  0
LINE
  5
192B5
  8
0
 10
3998.5834214694059483
 20
754.9958550117084997
 30
0.0
 11
3941.2028523025219329
 21
754.9957693941153138
 31
0.0
  0
ARC
  5
192B6
  8
0
 10
3941.4694815325219679
 20
755.0483194746827849
 30
0.0
 40
0.0618475659991241
 50
270.0739854028356035
 51
301.8248855878060226
  0
LINE
  5
192B7
  8
0
 10
3941.4695613955750559
 20
754.9864719602467176
 30
0.0
 11
3940.80438657727791
 21
755.0096598418948588
 31
0.0
  0
ARC
  5
192B8
  8
0
 10
3940.8065677958220476
 20
755.0721217685836564
 30
0.0
 40
0.0625000000001787
 50
182.0003044091685922
 51
267.9999999999182023
  0
LINE
  5
192B9
  8
0
 10
3940.7441058807230547
 20
755.0699402181833193
 30
0.0
 11
3940.7320269216011184
 21
755.4157836712072367
 31
0.0
  0
ARC
  5
192BA
  8
0
 10
3940.6695623100949888
 20
755.4136781788167809
 30
0.0
 40
0.0625000863106415
 50
1.9305358475637111
 51
87.9941867159730151
  0
LINE
  5
192BB
  8
0
 10
3940.6717498690950379
 20
755.4761399701333175
 30
0.0
 11
3940.5123993822298871
 21
755.4817047204426217
 31
0.0
  0
ARC
  5
192BC
  8
0
 10
3940.5102121656577765
 20
755.4192428161243242
 30
0.0
 40
0.0625001872590989
 50
87.9945040628827257
 51
177.5123225662416928
  0
LINE
  5
192BD
  8
0
 10
3940.4477708798449385
 20
755.4219556068585462
 30
0.0
 11
3940.4360022374221444
 21
755.085061870683603
 31
0.0
  0
ARC
  5
192BE
  8
0
 10
3940.3735403223308822
 20
755.0872434211858035
 30
0.0
 40
0.0624999999955698
 50
268.0000001749327225
 51
357.9996954973726133
  0
LINE
  5
192BF
  8
0
 10
3940.3713591037781043
 20
755.0247814944948459
 30
0.0
 11
3939.893114898622116
 21
755.0414818102278787
 31
0.0
  0
LINE
  5
192C0
  8
0
 10
3999.893114898622116
 20
755.0114638637846838
 30
0.0
 11
3998.3378000188217811
 21
754.9571510713834641
 31
0.0
  0
ARC
  5
192C1
  8
0
 10
3998.3402795575398159
 20
754.8942194820097029
 30
0.0
 40
0.0629804180150544
 50
92.2563176674165817
 51
179.9381373750456987
  0
ARC
  5
192C2
  8
0
 10
3998.9351060090780265
 20
729.9120309957984318
 30
0.0
 40
0.2510609276481856
 50
180.0730123910682039
 51
265.7864911484994082
  0
LINE
  5
192C3
  8
0
 10
3998.9166597252210522
 20
729.6616486401831025
 30
0.0
 11
3999.7327964490182239
 21
729.634586983983354
 31
0.0
  0
ARC
  5
192C4
  8
0
 10
3998.5988423816420436
 20
754.9036703919148295
 30
0.0
 40
0.062641669753593
 50
94.9555237678077049
 51
180.314348136671498
  0
ARC
  5
192C5
  8
0
 10
3967.8817561796181508
 20
745.0622281400561633
 30
0.0
 40
30.1991291734781697
 50
359.9514688802381102
 51
19.2042938599148805
  0
ARC
  5
192C6
  8
0
 10
3967.7560743936601284
 20
745.0167774522165018
 30
0.0
 40
30.3248066367417515
 50
340.3366912605737866
 51
0.0375446842876462
  0
ARC
  5
192C7
  8
0
 10
3993.3834466161738419
 20
735.7231655255116038
 30
0.0
 40
3.0673170635278271
 50
300.0053330801490006
 51
342.7330885532276739
  0
LINE
  5
192C8
  8
0
 10
3993.0099186277220724
 20
732.631569754783186
 30
0.0
 11
3948.6489975187218988
 21
732.6315683038830002
 31
0.0
  0
ARC
  5
192C9
  8
0
 10
3948.3048022095617853
 20
737.2234312597249755
 30
0.0
 40
4.6047449241058924
 50
206.8321563466217015
 51
274.2867410735080966
  0
CIRCLE
  5
192CA
  8
0
 10
3991.643114898622116
 20
745.0366486401831025
 30
0.0
 40
1.387500000000002
  0
ARC
  5
192CB
  8
0
 10
3967.1036788892779441
 20
745.0373963883992019
 30
0.0
 40
29.008235079581091
 50
343.2791140474997178
 51
16.1410367723022716
  0
ARC
  5
192CC
  8
0
 10
3992.0219454492221303
 20
737.5713806045368983
 30
0.0
 40
2.9955853806022978
 50
270.2338854810893167
 51
342.9177971053616716
  0
LINE
  5
192CD
  8
0
 10
3992.0341736096220302
 20
734.5758201820831346
 30
0.0
 11
3955.1428449713221198
 21
734.4707251827830987
 31
0.0
  0
ARC
  5
192CE
  8
0
 10
3955.1727195568159914
 20
737.4692469869905835
 30
0.0
 40
2.9986706223201729
 50
196.509799972693088
 51
269.4291750593731081
  0
ARC
  5
192CF
  8
0
 10
3981.2123171127550449
 20
745.0366817192484632
 30
0.0
 40
30.1155404793510613
 50
164.3120898166885127
 51
196.2349257121929895
  0
ARC
  5
192D0
  8
0
 10
3955.0950709369180913
 20
752.3585162785404918
 30
0.0
 40
2.991416124709632
 50
118.1624290402235999
 51
164.0641411348659915
  0
CIRCLE
  5
192D1
  8
0
 10
3991.643114898622116
 20
745.0366486401831025
 30
0.0
 40
1.0
  0
LINE
  5
192D2
  8
0
 10
3999.893114898622116
 20
759.4366486401830798
 30
0.0
 11
3999.893114898622116
 21
728.3782486401833012
 31
0.0
  0
LINE
  5
192D3
  8
0
 10
3939.893114898622116
 20
759.4367197493411368
 30
0.0
 11
3939.893114898622116
 21
728.3782486401833012
 31
0.0
  0
LINE
  5
192D4
  8
0
 10
3939.9931142568320865
 20
729.4001739885832194
 30
0.0
 11
3999.7931151308448534
 21
729.4001739885832194
 31
0.0
  0
LINE
  5
192D5
  8
0
 10
3995.5580640040911931
 20
759.7116486401835118
 30
0.0
 11
3944.2281630703910196
 21
759.7116486401835118
 31
0.0
  0
ARC
  5
192D6
  8
0
 10
3999.6652649987499899
 20
759.4363617062110734
 30
0.0
 40
0.1007519898552792
 50
0.1631742246467428
 51
45.8705498761998527
  0
ARC
  5
192D7
  8
0
 10
3999.5732071050738341
 20
759.4991599488078009
 30
0.0
 40
0.0624886925827214
 50
1.9905270186538231
 51
90.0112609636031209
  0
LINE
  5
192D8
  8
0
 10
3999.7660165800220966
 20
759.4366486401830798
 30
0.0
 11
3999.7662937860259262
 21
758.6339998028656737
 31
0.0
  0
ARC
  5
192D9
  8
0
 10
3999.5731838949600387
 20
759.4991743809953277
 30
0.0
 40
0.1625110242146565
 50
3.3526707548288202
 51
88.7544715430912845
  0
LINE
  5
192DA
  8
0
 10
3999.7354167778898955
 20
759.5086783111040631
 30
0.0
 11
3999.893114898622116
 21
755.0414334153174423
 31
0.0
  0
ARC
  5
192DB
  8
0
 10
286679.0599567102035508
 20
50599.7600917174495407
 30
0.0
 40
287041.4271128340042196
 50
189.9999064182568986
 51
190.0000997802679876
  0
LINE
  5
192DC
  8
0
 10
3999.6356580909468903
 20
759.5013304474423421
 30
0.0
 11
3999.7865237911760232
 21
755.1825824795207609
 31
0.0
  0
LINE
  5
192DD
  8
0
 10
3999.573194823490212
 20
759.5616486401836482
 30
0.0
 11
3940.2130322509910911
 21
759.5616486401836482
 31
0.0
  0
ARC
  5
192DE
  8
0
 10
3940.2130336123450434
 20
759.4991486401778502
 30
0.0
 40
0.0625000000203305
 50
90.0012479978693278
 51
177.9993149685791138
  0
LINE
  5
192DF
  8
0
 10
3940.1505717117202039
 20
759.5013306055207067
 30
0.0
 11
3939.9997057737468822
 21
755.1825758330228382
 31
0.0
  0
ARC
  5
192E0
  8
0
 10
3939.8191594507170521
 20
755.1809122683994246
 30
0.0
 40
0.1805539869596318
 50
308.7582117326693947
 51
0.5279118013838731
  0
ARC
  5
192E1
  8
0
 10
3999.7305226141411367
 20
729.5718747021710442
 30
0.0
 40
0.0627534908602325
 50
4.1077387227092199
 51
87.9234674404716543
  0
ARC
  5
192E2
  8
0
 10
3993.1163533058088433
 20
736.5613973711083418
 30
0.0
 40
3.9312686800486132
 50
268.4485916407940067
 51
297.2659639315310187
  0
ARC
  5
192E3
  8
0
 10
3970.0862691829270261
 20
745.0202273981747112
 30
0.0
 40
27.7098457516320806
 50
160.908093341933693
 51
200.8781420345096933
  0
ARC
  5
192E4
  8
0
 10
15594.1260565930406301
 20
822.6288679560277615
 30
0.0
 40
11596.0465839990902168
 50
180.3346767908745107
 51
180.4422673366022138
  0
ARC
  5
192E5
  8
0
 10
-9283.8323293691300933
 20
663.8321861397494104
 30
0.0
 40
13282.6807439830099611
 50
0.2850398636284209
 51
0.3928448612731974
  0
ARC
  5
192E6
  8
0
 10
3992.0944811567260331
 20
752.2496075007461513
 30
0.0
 40
2.9976128587670341
 50
16.5157297605708209
 51
66.3684580441314438
  0
ARC
  5
192E7
  8
0
 10
4009.9738374896251116
 20
745.0352736210575131
 30
0.0
 40
12.9221107182297992
 50
175.6207498016665056
 51
184.3267390747897991
  0
ARC
  5
192E8
  8
0
 10
3984.8406064675991729
 20
745.0279834200564437
 30
0.0
 40
12.4072717609051608
 50
355.3410616404067923
 51
4.9419876229152084
  0
ARC
  5
192E9
  8
0
 10
3996.3697582582158248
 20
744.0733040838340457
 30
0.0
 40
0.838806417719185
 50
340.6098288455503962
 51
356.371065873402415
  0
ARC
  5
192EA
  8
0
 10
3998.1200055612239339
 20
744.1188042052388028
 30
0.0
 40
1.033104719541063
 50
183.2421054046016877
 51
198.3389823331964976
  0
ARC
  5
192EB
  8
0
 10
3997.1499961817398798
 20
743.7979731612813339
 30
0.0
 40
0.0114341785204256
 50
201.6760763160006888
 51
343.9971224446480278
  0
ARC
  5
192EC
  8
0
 10
3996.5131660026249847
 20
746.0386927298688988
 30
0.0
 40
0.6910375345782312
 50
4.8262887885458898
 51
20.2206272003816387
  0
ARC
  5
192ED
  8
0
 10
3998.0450900753457972
 20
745.9723380735312048
 30
0.0
 40
0.9569252829040291
 50
161.3698398100434872
 51
177.0264000799197106
  0
ARC
  5
192EE
  8
0
 10
3997.1498910194031851
 20
746.2745130695710714
 30
0.0
 40
0.012107474941101
 50
14.4788444006871995
 51
163.0855099698829918
  0
ARC
  5
192EF
  8
0
 10
4010.956821264042901
 20
745.0374332725451723
 30
0.0
 40
13.76552537251054
 50
176.4436162204860068
 51
183.5978474177341866
  0
ARC
  5
192F0
  8
0
 10
3952.2389893592257977
 20
751.5456173521797609
 30
0.0
 40
8.7161074581349336
 50
156.681823198161112
 51
163.070612141247409
  0
ARC
  5
192F1
  8
0
 10
3998.9445230200649348
 20
733.1204137671221588
 30
0.0
 40
0.5195874433368298
 50
180.0867089739948881
 51
192.7081037979721998
  0
ARC
  5
192F2
  8
0
 10
3999.1701800358559922
 20
733.2056403161844855
 30
0.0
 40
0.7592044906446258
 50
195.236944067433086
 51
228.8121899804004045
  0
LINE
  5
192F3
  8
0
 10
3939.893114898622116
 20
755.0114639588655336
 30
0.0
 11
3941.4484325011840156
 21
754.9571510713834641
 31
0.0
  0
ARC
  5
192F4
  8
0
 10
3941.4459529624659808
 20
754.8942194820097029
 30
0.0
 40
0.0629804180150544
 50
0.061862624954248
 51
87.7436823325834041
  0
ARC
  5
192F5
  8
0
 10
3941.1875341622039741
 20
754.9037257284123825
 30
0.0
 40
0.0624979768778426
 50
359.6341978156813752
 51
85.1680262969234434
  0
ARC
  5
192F6
  8
0
 10
-7647.8541452624131125
 20
822.5877919167072605
 30
0.0
 40
11589.5607759009908477
 50
359.5576882299404247
 51
359.6653389862356107
  0
ARC
  5
192F7
  8
0
 10
17070.5895476003097428
 20
664.7359188015893778
 30
0.0
 40
13129.6491311515401321
 50
179.6065201376979985
 51
179.7155816489012068
  0
ARC
  5
192F8
  8
0
 10
3940.2130336077671018
 20
759.4991486423878086
 30
0.0
 40
0.162499995250272
 50
89.999998393963395
 51
176.6380647850349987
  0
LINE
  5
192F9
  8
0
 10
3940.0508132736858897
 20
759.5086781580068873
 30
0.0
 11
3939.893114898622116
 21
755.0414818102278787
 31
0.0
  0
ARC
  5
192FA
  8
0
 10
3999.9572478399149986
 20
755.1762165256168373
 30
0.0
 40
0.1708426942758243
 50
177.8645457988743885
 51
232.8346164457304042
  0
ARC
  5
192FB
  8
0
 10
3940.1213610978961697
 20
759.4360875776222883
 30
0.0
 40
0.1012244430037575
 50
134.1823762265684934
 51
179.6824217508541039
  0
LINE
  5
192FC
  8
0
 10
3940.0201382098221075
 20
759.4366486401830798
 30
0.0
 11
3940.0202160368771729
 21
758.6419357805524442
 31
0.0
  0
ARC
  5
192FD
  8
0
 10
3939.9307187865110791
 20
728.4419920311811438
 30
0.0
 40
0.0623919817734886
 50
271.9058092456547229
 51
0.0958903679812648
  0
LINE
  5
192FE
  8
0
 10
3939.9327937262601154
 20
728.379634561582975
 30
0.0
 11
3939.893114898622116
 21
728.3782486401833012
 31
0.0
  0
LINE
  5
192FF
  8
0
 10
3939.9931148986220251
 20
729.5721250688832242
 30
0.0
 11
3939.9931106809049197
 21
728.4420964505178517
 31
0.0
  0
ARC
  5
19300
  8
0
 10
3940.8511188855550245
 20
729.9120355369720983
 30
0.0
 40
0.2510656167152961
 50
274.2139288274004798
 51
359.9259388283052203
  0
LINE
  5
19301
  8
0
 10
3940.8695673492597962
 20
729.6616486401831025
 30
0.0
 11
3940.0534306254630792
 21
729.634586983983354
 31
0.0
  0
ARC
  5
19302
  8
0
 10
3940.0555862115788841
 20
729.5721528653959922
 30
0.0
 40
0.0624713191414808
 50
91.9773955400077341
 51
180.0254936656467919
  0
ARC
  5
19303
  8
0
 10
3940.8258846823669046
 20
733.1221874689015294
 30
0.0
 40
0.53541234068159
 50
347.4791425531694244
 51
359.7260446748583149
  0
ARC
  5
19304
  8
0
 10
3940.6163773058879087
 20
733.2054958106823506
 30
0.0
 40
0.7588478573263709
 50
311.1758628578857042
 51
344.7670295191762193
  0
LINE
  5
19306
  8
0
 10
3999.27855689862281
 20
754.990003025528722
 30
0.0
 11
3999.2657638948221575
 21
755.3563467228832451
 31
0.0
  0
LINE
  5
19307
  8
0
 10
3999.2657638948221575
 20
755.3563467228832451
 30
0.0
 11
3999.1401595491788612
 21
755.3519605224851148
 31
0.0
  0
ARC
  5
19308
  8
0
 10
3999.1423407677471005
 20
755.2894985957725567
 30
0.0
 40
0.0625000000247003
 50
92.0000000204432382
 51
178.0000000316792921
  0
LINE
  5
19309
  8
0
 10
3999.0798788410220368
 20
755.2916798143829737
 30
0.0
 11
3999.0690886171219063
 21
754.9826882319888455
 31
0.0
  0
LINE
  5
1930A
  8
0
 10
3940.5076701824909833
 20
754.990003215459069
 30
0.0
 11
3940.5204631796600552
 21
755.3563467228832451
 31
0.0
  0
LINE
  5
1930B
  8
0
 10
3940.5204631796600552
 20
755.3563467228832451
 30
0.0
 11
3940.6460675253019872
 21
755.3519605224851148
 31
0.0
  0
ARC
  5
1930C
  8
0
 10
3940.6438863067351122
 20
755.2894985957725567
 30
0.0
 40
0.0625000000247003
 50
1.9999999683206759
 51
87.9999999795567334
  0
LINE
  5
1930D
  8
0
 10
3940.7063482334601758
 20
755.2916798143829737
 30
0.0
 11
3940.7171384507128096
 21
754.9826884223491561
 31
0.0
  0
VIEWPORT
  5
7BC8
 67
     1
  8
0
 10
8.4975296442687753
 20
4.5
 30
0.0
 40
16.9950592885375507
 41
9.0
 68
     1
 69
     1
1001
ACAD
1000
MVIEW
1002
{
1070
    16
1010
0.0
1020
0.0
1030
0.0
1010
0.0
1020
0.0
1030
1.0
1040
0.0
1040
9.0
1040
8.4975296442687753
1040
4.5
1040
50.0
1040
0.0
1040
0.0
1070
     0
1070
   100
1070
     1
1070
     1
1070
     0
1070
     0
1070
     0
1070
     0
1040
0.0
1040
0.0
1040
0.0
1040
1.0
1040
1.0
1040
0.0
1040
0.0
1070
     0
1002
{
1002
}
1002
}
  0
ENDSEC
  0
EOF
