  0
SECTION
  2
HEADER
  9
$ACADVER
  1
AC1009
  9
$INSBASE
 10
4702.5099739747538479
 20
549.8371993791796513
 30
0.0
  9
$EXTMIN
 10
4672.5099708568241113
 20
549.8310263212924838
 30
0.0
  9
$EXTMAX
 10
4732.5099708568259302
 20
628.908890524886715
 30
0.0
  9
$LIMMIN
 10
0.0
 20
0.0
  9
$LIMMAX
 10
11.6929133858000007
 20
8.2677165353999982
  9
$ORTHOMODE
 70
     0
  9
$REGENMODE
 70
     1
  9
$FILLMODE
 70
     1
  9
$QTEXTMODE
 70
     0
  9
$MIRRTEXT
 70
     0
  9
$DRAGMODE
 70
     2
  9
$LTSCALE
 40
0.6431102362
  9
$OSMODE
 70
  4095
  9
$ATTMODE
 70
     1
  9
$TEXTSIZE
 40
0.2
  9
$TRACEWID
 40
0.05
  9
$TEXTSTYLE
  7
STANDARD
  9
$CLAYER
  8
0
  9
$CELTYPE
  6
BYLAYER
  9
$CECOLOR
 62
   256
  9
$DIMSCALE
 40
1.0
  9
$DIMASZ
 40
0.1875
  9
$DIMEXO
 40
0.0625
  9
$DIMDLI
 40
0.4443307087
  9
$DIMRND
 40
0.0
  9
$DIMDLE
 40
0.0
  9
$DIMEXE
 40
0.125
  9
$DIMTP
 40
0.01
  9
$DIMTM
 40
0.01
  9
$DIMTXT
 40
2.0
  9
$DIMCEN
 40
0.1052362205
  9
$DIMTSZ
 40
0.0
  9
$DIMTOL
 70
     1
  9
$DIMLIM
 70
     0
  9
$DIMTIH
 70
     1
  9
$DIMTOH
 70
     1
  9
$DIMSE1
 70
     0
  9
$DIMSE2
 70
     0
  9
$DIMTAD
 70
     0
  9
$DIMZIN
 70
     0
  9
$DIMBLK
  1

  9
$DIMASO
 70
     1
  9
$DIMSHO
 70
     1
  9
$DIMPOST
  1
\X
  9
$DIMAPOST
  1

  9
$DIMALT
 70
     1
  9
$DIMALTD
 70
     2
  9
$DIMALTF
 40
25.3999999999999986
  9
$DIMLFAC
 40
1.0
  9
$DIMTOFL
 70
     0
  9
$DIMTVP
 40
0.0
  9
$DIMTIX
 70
     0
  9
$DIMSOXD
 70
     0
  9
$DIMSAH
 70
     0
  9
$DIMBLK1
  1

  9
$DIMBLK2
  1

  9
$DIMSTYLE
  2
STANDARD
  9
$DIMCLRD
 70
     0
  9
$DIMCLRE
 70
     0
  9
$DIMCLRT
 70
     0
  9
$DIMTFAC
 40
1.0
  9
$DIMGAP
 40
0.09
  9
$LUNITS
 70
     2
  9
$LUPREC
 70
     4
  9
$SKETCHINC
 40
0.1
  9
$FILLETRAD
 40
0.0
  9
$AUNITS
 70
     0
  9
$AUPREC
 70
     0
  9
$MENU
  1
.
  9
$ELEVATION
 40
0.0
  9
$PELEVATION
 40
0.0
  9
$THICKNESS
 40
0.0
  9
$LIMCHECK
 70
     0
  9
$BLIPMODE
 70
     0
  9
$CHAMFERA
 40
0.0
  9
$CHAMFERB
 40
0.0
  9
$SKPOLY
 70
     0
  9
$TDCREATE
 40
2458060.468368056230247
  9
$TDUPDATE
 40
2458857.4034259258769453
  9
$TDINDWG
 40
4.5118241898000004
  9
$TDUSRTIMER
 40
4.5118241898000004
  9
$USRTIMER
 70
     1
  9
$ANGBASE
 50
0.0
  9
$ANGDIR
 70
     0
  9
$PDMODE
 70
     0
  9
$PDSIZE
 40
0.3125
  9
$PLINEWID
 40
0.0
  9
$COORDS
 70
     1
  9
$SPLFRAME
 70
     0
  9
$SPLINETYPE
 70
     6
  9
$SPLINESEGS
 70
     8
  9
$ATTDIA
 70
     1
  9
$ATTREQ
 70
     1
  9
$HANDLING
 70
     1
  9
$HANDSEED
  5
2635D
  9
$SURFTAB1
 70
     6
  9
$SURFTAB2
 70
     6
  9
$SURFTYPE
 70
     6
  9
$SURFU
 70
     6
  9
$SURFV
 70
     6
  9
$UCSNAME
  2

  9
$UCSORG
 10
0.0
 20
0.0
 30
0.0
  9
$UCSXDIR
 10
1.0
 20
0.0
 30
0.0
  9
$UCSYDIR
 10
0.0
 20
1.0
 30
0.0
  9
$PUCSNAME
  2

  9
$PUCSORG
 10
0.0
 20
0.0
 30
0.0
  9
$PUCSXDIR
 10
1.0
 20
0.0
 30
0.0
  9
$PUCSYDIR
 10
0.0
 20
1.0
 30
0.0
  9
$USERI1
 70
     0
  9
$USERI2
 70
     0
  9
$USERI3
 70
     0
  9
$USERI4
 70
     0
  9
$USERI5
 70
     0
  9
$USERR1
 40
0.0
  9
$USERR2
 40
0.0
  9
$USERR3
 40
0.0
  9
$USERR4
 40
0.0
  9
$USERR5
 40
0.0
  9
$WORLDVIEW
 70
     1
  9
$SHADEDGE
 70
     3
  9
$SHADEDIF
 70
    70
  9
$TILEMODE
 70
     1
  9
$MAXACTVP
 70
    64
  9
$PLIMCHECK
 70
     0
  9
$PEXTMIN
 10
1.0000000000000000E+20
 20
1.0000000000000000E+20
 30
1.0000000000000000E+20
  9
$PEXTMAX
 10
-1.0000000000000000E+20
 20
-1.0000000000000000E+20
 30
-1.0000000000000000E+20
  9
$PLIMMIN
 10
0.0
 20
0.0
  9
$PLIMMAX
 10
12.0
 20
9.0
  9
$UNITMODE
 70
     0
  9
$VISRETAIN
 70
     1
  9
$PLINEGEN
 70
     0
  9
$PSLTSCALE
 70
     1
  0
ENDSEC
  0
SECTION
  2
TABLES
  0
TABLE
  2
VPORT
 70
     1
  0
VPORT
  2
*ACTIVE
 70
     0
 10
0.0
 20
0.0
 11
1.0
 21
1.0
 12
0.0
 22
0.0
 13
0.0
 23
0.0
 14
1.0
 24
1.0
 15
0.0
 25
0.0
 16
0.0
 26
0.0
 36
269.4025346640727889
 17
4702.509765625
 27
589.3699504165057306
 37
0.0
 40
99.2638205713847555
 41
2.005224660397074
 42
50.0
 43
0.0
 44
0.0
 50
0.0
 51
0.0
 71
     0
 72
   100
 73
     1
 74
     1
 75
     0
 76
     0
 77
     0
 78
     0
  0
ENDTAB
  0
TABLE
  2
LTYPE
 70
     2
  0
LTYPE
  2
CONTINUOUS
 70
     0
  3
Solid line
 72
    65
 73
     0
 40
0.0
  0
LTYPE
  2
PHANTOM2
 70
     0
  3
___ _ _ ___ _ _ ___ _ _ ___ _ _
 72
    65
 73
     6
 40
1.25
 49
0.625
 49
-0.125
 49
0.125
 49
-0.125
 49
0.125
 49
-0.125
  0
ENDTAB
  0
TABLE
  2
LAYER
 70
     2
  0
LAYER
  2
0
 70
     0
 62
   255
  6
CONTINUOUS
  0
LAYER
  2
DEFPOINTS
 70
     0
 62
     7
  6
CONTINUOUS
  0
ENDTAB
  0
TABLE
  2
STYLE
 70
     1
  0
STYLE
  2
STANDARD
 70
     0
 40
0.0
 41
0.8
 50
0.0
 71
     0
 42
0.2
  3
txt
  4

  0
ENDTAB
  0
TABLE
  2
VIEW
 70
     0
  0
ENDTAB
  0
TABLE
  2
UCS
 70
     0
  0
ENDTAB
  0
TABLE
  2
APPID
 70
     9
  0
APPID
  2
ACAD
 70
     0
  0
APPID
  2
ACAD_MLEADERVER
 70
     0
  0
APPID
  2
ACAD_EXEMPT_FROM_CAD_STANDARDS
 70
     0
  0
APPID
  2
ACAD_NAV_VCDISPLAY
 70
     0
  0
APPID
  2
ACAECLAYERSTANDARD
 70
     0
  0
APPID
  2
ACCMTRANSPARENCY
 70
     0
  0
APPID
  2
ACAD_DSTYLE_DIMJAG
 70
     0
  0
APPID
  2
ACAD_DSTYLE_DIMTALN
 70
     0
  0
APPID
  2
ACDBATTR
 70
     0
  0
ENDTAB
  0
TABLE
  2
DIMSTYLE
 70
     1
  0
DIMSTYLE
  2
STANDARD
 70
     0
  3

  4

  5

  6

  7

 40
1.0
 41
0.1875
 42
0.0625
 43
0.38
 44
0.125
 45
0.0
 46
0.0
 47
0.01
 48
0.01
140
0.15625
141
0.09
142
0.0
143
25.3999999999999986
144
1.0
145
0.0
146
1.0
147
0.09
 71
     1
 72
     0
 73
     1
 74
     1
 75
     0
 76
     0
 77
     0
 78
     4
170
     0
171
     2
172
     0
173
     0
174
     0
175
     0
176
     0
177
     0
178
     0
  0
ENDTAB
  0
ENDSEC
  0
SECTION
  2
BLOCKS
  0
BLOCK
  8
0
  2
$MODEL_SPACE
 70
     0
 10
0.0
 20
0.0
 30
0.0
  3
$MODEL_SPACE
  1

  0
ENDBLK
  5
21
  8
0
  0
BLOCK
 67
     1
  8
0
  2
$PAPER_SPACE
 70
     0
 10
0.0
 20
0.0
 30
0.0
  3
$PAPER_SPACE
  1

  0
ENDBLK
  5
1D
 67
     1
  8
0
  0
BLOCK
  8
0
  2
_FILLED
 70
     0
 10
0.0
 20
0.0
 30
0.0
  3
_FILLED
  1

  0
SOLID
  5
1AED4
  8
0
  6
BYBLOCK
 62
     0
 10
0.0
 20
0.0
 30
0.0
 11
-1.0
 21
0.1666666667
 31
0.0
 12
-1.0
 22
-0.1666666667
 32
0.0
 13
-1.0
 23
-0.1666666667
 33
0.0
  0
ENDBLK
  5
1AED5
  8
0
  6
BYBLOCK
 62
     0
  0
ENDSEC
  0
SECTION
  2
ENTITIES
  0
ATTDEF
  5
3930
  8
DEFPOINTS
 10
4702.4986770204159257
 20
549.8343596546260414
 30
0.0
 40
0.001
  1
71570122
  3

  2
MODELNUMBER
 70
     0
1001
ACDBATTR
1070
     0
1070
     1
  0
ATTDEF
  5
3931
  8
DEFPOINTS
 10
4702.4986770204159257
 20
549.8326929879593763
 30
0.0
 40
0.001
  1
TRAVERSE
  3

  2
TRADENAME
 70
     0
1001
ACDBATTR
1070
     0
1070
     1
  0
ATTDEF
  5
3932
  8
DEFPOINTS
 10
4702.4986770204159257
 20
549.8310263212927111
 30
0.0
 40
0.001
  1
BATH AND WALL SURROUND
  3

  2
PRODUCT
 70
     0
1001
ACDBATTR
1070
     0
1070
     1
  0
LINE
  5
25C29
  8
0
 10
4672.6988839472569452
 20
570.5871993791798786
 30
0.0
 11
4732.3210604891555704
 21
570.5871993791798786
 31
0.0
  0
LINE
  5
25C2A
  8
0
 10
4674.3424677559078191
 20
568.5698227299783412
 30
0.0
 11
4730.6774766805028776
 21
568.5697979010446943
 31
0.0
  0
ARC
  5
25C2B
  8
0
 10
4730.668802986971059
 20
569.2021598484512879
 30
0.0
 40
0.6324214302879443
 50
270.7858392991759047
 51
358.1756215621904857
  0
LINE
  5
25C2C
  8
0
 10
4732.2907291288256602
 20
570.5871993791798786
 30
0.0
 11
4732.3075935147244309
 21
571.0701322066798866
 31
0.0
  0
LINE
  5
25C2D
  8
0
 10
4732.3075935147244309
 20
571.0701322066798866
 30
0.0
 11
4732.4465813486249317
 21
571.0749857687796975
 31
0.0
  0
ARC
  5
25C2E
  8
0
 10
4731.4708294570973521
 20
570.4621255185797963
 30
0.0
 40
0.125154397011138
 50
92.0555785455047442
 51
178.611457473621499
  0
LINE
  5
25C2F
  8
0
 10
4731.3457118109854491
 20
570.4651582933092868
 30
0.0
 11
4731.3009038460731972
 21
569.182026060648468
 31
0.0
  0
ARC
  5
25C30
  8
0
 10
4732.4473426292533986
 20
571.1376093929731041
 30
0.0
 40
0.0626282512552443
 50
269.3035213285232885
 51
359.9501720470768191
  0
ARC
  5
25C31
  8
0
 10
4732.47247383897502
 20
628.8353682123946555
 30
0.0
 40
0.0625002593878911
 50
93.0027251197436442
 51
179.9999051321223931
  0
CIRCLE
  5
25C32
  8
0
 10
4731.7599735795865854
 20
628.4092753791798032
 30
0.0
 40
0.09375
  0
CIRCLE
  5
25C33
  8
0
 10
4731.0099735795865854
 20
628.4092753791798032
 30
0.0
 40
0.09375
  0
CIRCLE
  5
25C34
  8
0
 10
4730.2599735795865854
 20
628.4092753791798032
 30
0.0
 40
0.09375
  0
CIRCLE
  5
25C35
  8
0
 10
4729.5099735795865854
 20
628.4092753791798032
 30
0.0
 40
0.09375
  0
CIRCLE
  5
25C36
  8
0
 10
4728.7599735795865854
 20
628.4092753791798032
 30
0.0
 40
0.09375
  0
CIRCLE
  5
25C37
  8
0
 10
4728.0099735795865854
 20
628.4092753791798032
 30
0.0
 40
0.09375
  0
CIRCLE
  5
25C38
  8
0
 10
4727.2599735795865854
 20
628.4092753791798032
 30
0.0
 40
0.09375
  0
CIRCLE
  5
25C39
  8
0
 10
4726.5099735795865854
 20
628.4092753791798032
 30
0.0
 40
0.09375
  0
CIRCLE
  5
25C3A
  8
0
 10
4725.7599735795865854
 20
628.4092753791798032
 30
0.0
 40
0.09375
  0
CIRCLE
  5
25C3B
  8
0
 10
4725.0099735795865854
 20
628.4092753791798032
 30
0.0
 40
0.09375
  0
CIRCLE
  5
25C3C
  8
0
 10
4724.2599735795865854
 20
628.4092753791798032
 30
0.0
 40
0.09375
  0
CIRCLE
  5
25C3D
  8
0
 10
4723.5099735795865854
 20
628.4092753791798032
 30
0.0
 40
0.09375
  0
CIRCLE
  5
25C3E
  8
0
 10
4722.7599735795865854
 20
628.4092753791798032
 30
0.0
 40
0.09375
  0
CIRCLE
  5
25C3F
  8
0
 10
4722.0099735795865854
 20
628.4092753791798032
 30
0.0
 40
0.09375
  0
CIRCLE
  5
25C40
  8
0
 10
4721.2599735795865854
 20
628.4092753791798032
 30
0.0
 40
0.09375
  0
CIRCLE
  5
25C41
  8
0
 10
4720.5099735795865854
 20
628.4092753791798032
 30
0.0
 40
0.09375
  0
CIRCLE
  5
25C42
  8
0
 10
4719.7599735795865854
 20
628.4092753791798032
 30
0.0
 40
0.09375
  0
CIRCLE
  5
25C43
  8
0
 10
4719.0099735795865854
 20
628.4092753791798032
 30
0.0
 40
0.09375
  0
CIRCLE
  5
25C44
  8
0
 10
4718.2599735795865854
 20
628.4092753791798032
 30
0.0
 40
0.09375
  0
CIRCLE
  5
25C45
  8
0
 10
4717.5099735795865854
 20
628.4092753791798032
 30
0.0
 40
0.09375
  0
CIRCLE
  5
25C46
  8
0
 10
4716.7599735795865854
 20
628.4092753791798032
 30
0.0
 40
0.09375
  0
CIRCLE
  5
25C47
  8
0
 10
4716.0099735795865854
 20
628.4092753791798032
 30
0.0
 40
0.09375
  0
CIRCLE
  5
25C48
  8
0
 10
4715.2599735795865854
 20
628.4092753791798032
 30
0.0
 40
0.09375
  0
CIRCLE
  5
25C49
  8
0
 10
4714.5099735795865854
 20
628.4092753791798032
 30
0.0
 40
0.09375
  0
CIRCLE
  5
25C4A
  8
0
 10
4713.7599735795865854
 20
628.4092753791798032
 30
0.0
 40
0.09375
  0
CIRCLE
  5
25C4B
  8
0
 10
4713.0099735795865854
 20
628.4092753791798032
 30
0.0
 40
0.09375
  0
CIRCLE
  5
25C4C
  8
0
 10
4712.2599735795865854
 20
628.4092753791798032
 30
0.0
 40
0.09375
  0
CIRCLE
  5
25C4D
  8
0
 10
4711.5099735795865854
 20
628.4092753791798032
 30
0.0
 40
0.09375
  0
CIRCLE
  5
25C4E
  8
0
 10
4702.5099735796884488
 20
628.4092753791798032
 30
0.0
 40
0.09375
  0
CIRCLE
  5
25C4F
  8
0
 10
4703.2599735796884488
 20
628.4092753791798032
 30
0.0
 40
0.09375
  0
CIRCLE
  5
25C50
  8
0
 10
4704.0099735796884488
 20
628.4092753791798032
 30
0.0
 40
0.09375
  0
CIRCLE
  5
25C51
  8
0
 10
4704.7599735796884488
 20
628.4092753791798032
 30
0.0
 40
0.09375
  0
CIRCLE
  5
25C52
  8
0
 10
4705.5099735796884488
 20
628.4092753791798032
 30
0.0
 40
0.09375
  0
CIRCLE
  5
25C53
  8
0
 10
4706.2599735796866298
 20
628.4092753791798032
 30
0.0
 40
0.09375
  0
CIRCLE
  5
25C54
  8
0
 10
4707.0099735796866298
 20
628.4092753791798032
 30
0.0
 40
0.09375
  0
CIRCLE
  5
25C55
  8
0
 10
4707.7599735796866298
 20
628.4092753791798032
 30
0.0
 40
0.09375
  0
CIRCLE
  5
25C56
  8
0
 10
4708.5099735796866298
 20
628.4092753791798032
 30
0.0
 40
0.09375
  0
CIRCLE
  5
25C57
  8
0
 10
4709.2599735796866298
 20
628.4092753791798032
 30
0.0
 40
0.09375
  0
CIRCLE
  5
25C58
  8
0
 10
4710.0099735796866298
 20
628.4092753791798032
 30
0.0
 40
0.09375
  0
CIRCLE
  5
25C59
  8
0
 10
4710.7599735796866298
 20
628.4092753791798032
 30
0.0
 40
0.09375
  0
LINE
  5
25C5A
  8
0
 10
4672.829889570524756
 20
628.9088905248798937
 30
0.0
 11
4732.1900548658868502
 21
628.908890524886715
 31
0.0
  0
ARC
  5
25C5B
  8
0
 10
4731.9698932275678089
 20
615.6182519491677567
 30
0.0
 40
13.2924619577110192
 50
88.4086282997298554
 51
89.0509726832245718
  0
ARC
  5
25C5C
  8
0
 10
4732.3318800160059254
 20
628.8407164451857625
 30
0.0
 40
0.0652645652224314
 50
73.1601983280708339
 51
83.7019390295574652
  0
ARC
  5
25C5D
  8
0
 10
4732.3497974255460576
 20
628.899859797025556
 30
0.0
 40
0.0034667890539801
 50
23.8051489340712301
 51
73.4154948619705863
  0
LINE
  5
25C5E
  8
0
 10
4732.3529692719703235
 20
628.901259088488132
 30
0.0
 11
4732.4099735796189634
 21
628.8057394916479552
 31
0.0
  0
ARC
  5
25C5F
  8
0
 10
4732.3472302937316272
 20
627.7028767574470294
 30
0.0
 40
0.0631070482025065
 50
273.1935825065467043
 51
353.8451755204021083
  0
LINE
  5
25C60
  8
0
 10
4732.3507459667480362
 20
627.6398677137618733
 30
0.0
 11
4731.5903551351702845
 21
627.6000068681792072
 31
0.0
  0
ARC
  5
25C61
  8
0
 10
4731.6039310407295488
 20
627.3422066168512856
 30
0.0
 40
0.2581574612450347
 50
93.0144433970347251
 51
180.0016063375441036
  0
LINE
  5
25C62
  8
0
 10
4731.3457735795873305
 20
627.3421993791797604
 30
0.0
 11
4731.3457735795873305
 21
570.7121993791797649
 31
0.0
  0
ARC
  5
25C63
  8
0
 10
4731.470913821580325
 20
570.7122560316073532
 30
0.0
 40
0.1251402548152468
 50
180.0259384569503993
 51
267.9055372812507017
  0
LINE
  5
25C64
  8
0
 10
4673.6741735795867498
 20
627.3421993791797604
 30
0.0
 11
4731.3457735795873305
 21
627.3421993791797604
 31
0.0
  0
ARC
  5
25C65
  8
0
 10
4732.7569118632973186
 20
626.9355330535919393
 30
0.0
 40
1.6165649126030699
 50
166.0368440684484028
 51
178.7003171073774013
  0
LINE
  5
25C66
  8
0
 10
4731.1407628364731863
 20
626.9721996563206403
 30
0.0
 11
4731.1407628357883368
 21
625.1441968791798445
 31
0.0
  0
ARC
  5
25C67
  8
0
 10
4732.7585566423813361
 20
625.1810807984049916
 30
0.0
 40
1.618214208364283
 50
181.3060544878958069
 51
193.9566661938904133
  0
ARC
  5
25C68
  8
0
 10
4720.8519753304053665
 20
627.2408172460626474
 30
0.0
 40
0.082590736034968
 50
98.7086293287308223
 51
176.0578882937666947
  0
LINE
  5
25C69
  8
0
 10
4720.8394702921868884
 20
627.3224558012798298
 30
0.0
 11
4727.9805802240871344
 21
627.3249383528797125
 31
0.0
  0
ARC
  5
25C6A
  8
0
 10
4727.9713122730381656
 20
627.2394919840975263
 30
0.0
 40
0.0859475238429649
 50
4.6549835224746277
 51
83.8096064398093432
  0
LINE
  5
25C6B
  8
0
 10
4728.0569762952873134
 20
627.246467093179831
 30
0.0
 11
4728.0569671501871198
 21
624.8698984979688476
 31
0.0
  0
ARC
  5
25C6C
  8
0
 10
4727.9747328390658367
 20
624.8754283634231115
 30
0.0
 40
0.0824200299533133
 50
278.6135839955026086
 51
356.1529236846308208
  0
LINE
  5
25C6D
  8
0
 10
4727.9870768670880352
 20
624.7939379571796508
 30
0.0
 11
4720.8459669422873048
 21
624.7914554054798373
 31
0.0
  0
ARC
  5
25C6E
  8
0
 10
4720.8552290158131655
 20
624.8768960591863788
 30
0.0
 40
0.0859412084614658
 50
184.6514972331663103
 51
263.8130911929200124
  0
LINE
  5
25C6F
  8
0
 10
4720.7695708638866563
 20
624.8699266746798457
 30
0.0
 11
4720.7695800024876007
 21
627.2464952400797529
 31
0.0
  0
ARC
  5
25C70
  8
0
 10
4728.1508384968055907
 20
627.2459687784109974
 30
0.0
 40
0.0796300539901669
 50
89.0823246575048557
 51
183.0096542621313063
  0
LINE
  5
25C71
  8
0
 10
4728.1521138335492651
 20
627.3255886189953117
 30
0.0
 11
4731.1881146759869807
 21
627.3256067668203286
 31
0.0
  0
LINE
  5
25C72
  8
0
 10
4731.1881146766008897
 20
624.7907869907800205
 30
0.0
 11
4728.1522620772348091
 21
624.7906530133384422
 31
0.0
  0
ARC
  5
25C73
  8
0
 10
4728.1510226181280814
 20
624.8705228637478513
 30
0.0
 40
0.0798794670943839
 50
177.0077559573169026
 51
270.8890723521359973
  0
LINE
  5
25C74
  8
0
 10
4728.07125205788725
 20
624.8746926337797731
 30
0.0
 11
4728.0713182763865916
 21
627.2417878642798996
 31
0.0
  0
LINE
  5
25C75
  8
0
 10
4732.4099735795871311
 20
628.8353683158796912
 30
0.0
 11
4732.4099735808104015
 21
627.6961107054630702
 31
0.0
  0
LINE
  5
25C76
  8
0
 10
4674.6236690790956345
 20
601.1054986626509162
 30
0.0
 11
4730.3962753573168811
 21
601.1054986626509162
 31
0.0
  0
LINE
  5
25C77
  8
0
 10
4673.8668850745252712
 20
599.8219401478005466
 30
0.0
 11
4731.1530593618872444
 21
599.8219399848176181
 31
0.0
  0
LINE
  5
25C78
  8
0
 10
4679.324033808882632
 20
555.8628546045254097
 30
0.0
 11
4725.6959141406241542
 21
555.8627447454199455
 31
0.0
  0
ARC
  5
25C79
  8
0
 10
4725.5308363775684484
 20
557.1484902659058207
 30
0.0
 40
1.296299429647757
 50
277.3162196433714257
 51
340.0483707609128032
  0
ARC
  5
25C7A
  8
0
 10
4703.0598121673037895
 20
567.905581457236849
 30
0.0
 40
26.2034442119824007
 50
334.6971575742351206
 51
357.3377401126600716
  0
LINE
  5
25C7B
  8
0
 10
4675.7849732940630929
 20
566.6884712362799519
 30
0.0
 11
4729.2349746554427838
 21
566.6884712362798382
 31
0.0
  0
LINE
  5
25C7C
  8
0
 10
4732.5099708568259302
 20
628.8999193791797779
 30
0.0
 11
4732.5099708568259302
 21
571.1375549275797994
 31
0.0
  0
ARC
  5
25C7D
  8
0
 10
4730.3348696726507114
 20
601.8916491329893006
 30
0.0
 40
0.7885450019640446
 50
274.4662665479622206
 51
356.3564961187436211
  0
ARC
  5
25C7E
  8
0
 10
4730.7755537404027564
 20
596.060838988410751
 30
0.0
 40
3.3030006539860381
 50
82.7482021412330226
 51
90.264925923434447
  0
LINE
  5
25C7F
  8
0
 10
4676.9556138984562494
 20
627.6492609390799089
 30
0.0
 11
4728.0643305379562662
 21
627.6492609390799089
 31
0.0
  0
ARC
  5
25C80
  8
0
 10
4728.4112552226251864
 20
651.5275489298918501
 30
0.0
 40
23.8808080706870207
 50
269.1676152912262978
 51
276.0910459019813175
  0
ARC
  5
25C81
  8
0
 10
4731.9740197230103149
 20
622.8941928849214946
 30
0.0
 40
4.9944754139039249
 50
93.0274796247690148
 51
101.8873600615361994
  0
ARC
  5
25C82
  8
0
 10
13561.2758252591193013
 20
-167529.1012857723981142
 30
0.0
 40
168388.6342796013050247
 50
93.0055546351913449
 51
93.0057192370183543
  0
ARC
  5
25C83
  8
0
 10
4732.1899686698861842
 20
627.9695210187276189
 30
0.0
 40
0.0625483017807696
 50
273.0767498460432989
 51
359.8532436870183915
  0
LINE
  5
25C84
  8
0
 10
4732.2525167664871333
 20
627.9693608088798555
 30
0.0
 11
4732.2525167664871333
 21
628.8394358621798119
 31
0.0
  0
ARC
  5
25C85
  8
0
 10
4732.3234039659446353
 20
628.8357527516149048
 30
0.0
 40
0.0709828172892516
 50
96.8168032733122459
 51
177.0257379894295013
  0
LINE
  5
25C86
  8
0
 10
4732.46610222558229
 20
549.8371993791796513
 30
0.0
 11
4732.4661011064254126
 21
570.3872159921646698
 31
0.0
  0
ARC
  5
25C87
  8
0
 10
4732.3936759858579535
 20
570.4066993798411431
 30
0.0
 40
0.0750000032306652
 50
344.9430809952243067
 51
357.9987814878639938
  0
LINE
  5
25C88
  8
0
 10
4732.3669759257672922
 20
571.0722058861634878
 30
0.0
 11
4732.3510404571688923
 21
570.6161517568720001
 31
0.0
  0
ARC
  5
25C89
  8
0
 10
4732.3210587545381713
 20
570.6171993792157764
 30
0.0
 40
0.0300000000861011
 50
270.0033128757762029
 51
357.9987818373584787
  0
ARC
  5
25C8A
  8
0
 10
4713.5508753304056881
 20
627.2408172460626474
 30
0.0
 40
0.082590736034968
 50
98.7086293287308223
 51
176.0578882937666947
  0
LINE
  5
25C8B
  8
0
 10
4713.5383702921863005
 20
627.3224558012798298
 30
0.0
 11
4720.6794802240865465
 21
627.3249383528797125
 31
0.0
  0
ARC
  5
25C8C
  8
0
 10
4720.6702122730366682
 20
627.2394919840975263
 30
0.0
 40
0.0859475238429649
 50
4.6549835224746277
 51
83.8096064398093432
  0
LINE
  5
25C8D
  8
0
 10
4720.755876295287635
 20
627.246467093179831
 30
0.0
 11
4720.7558671501874414
 21
624.8698984979688476
 31
0.0
  0
ARC
  5
25C8E
  8
0
 10
4720.6736328390652488
 20
624.8754283634231115
 30
0.0
 40
0.0824200299533133
 50
278.6135839955026086
 51
356.1529236846308208
  0
LINE
  5
25C8F
  8
0
 10
4720.6859768670874473
 20
624.7939379571796508
 30
0.0
 11
4713.5448669422876264
 21
624.7914554054798373
 31
0.0
  0
ARC
  5
25C90
  8
0
 10
4713.5541290158143966
 20
624.8768960591863788
 30
0.0
 40
0.0859412084614658
 50
184.6514972331663103
 51
263.8130911929200124
  0
LINE
  5
25C91
  8
0
 10
4713.4684708638869779
 20
624.8699266746798457
 30
0.0
 11
4713.4684800024870128
 21
627.2464952400797529
 31
0.0
  0
ARC
  5
25C92
  8
0
 10
4706.2497753304041908
 20
627.2408172460626474
 30
0.0
 40
0.082590736034968
 50
98.7086293287308223
 51
176.0578882937666947
  0
LINE
  5
25C93
  8
0
 10
4706.2372702921866221
 20
627.3224558012798298
 30
0.0
 11
4713.3783802240877776
 21
627.3249383528797125
 31
0.0
  0
ARC
  5
25C94
  8
0
 10
4713.3691122730378993
 20
627.2394919840975263
 30
0.0
 40
0.0859475238429649
 50
4.6549835224746277
 51
83.8096064398093432
  0
LINE
  5
25C95
  8
0
 10
4713.4547762952870471
 20
627.246467093179831
 30
0.0
 11
4713.454767150187763
 21
624.8698984979688476
 31
0.0
  0
ARC
  5
25C96
  8
0
 10
4713.3725328390646609
 20
624.8754283634231115
 30
0.0
 40
0.0824200299533133
 50
278.6135839955026086
 51
356.1529236846308208
  0
LINE
  5
25C97
  8
0
 10
4713.3848768670868594
 20
624.7939379571796508
 30
0.0
 11
4706.2437669422870385
 21
624.7914554054798373
 31
0.0
  0
ARC
  5
25C98
  8
0
 10
4706.2530290158128992
 20
624.8768960591863788
 30
0.0
 40
0.0859412084614658
 50
184.6514972331663103
 51
263.8130911929200124
  0
LINE
  5
25C99
  8
0
 10
4706.16737086388639
 20
624.8699266746798457
 30
0.0
 11
4706.1673800024873344
 21
627.2464952400797529
 31
0.0
  0
ARC
  5
25C9A
  8
0
 10
4702.5992253304057158
 20
624.6927672460625445
 30
0.0
 40
0.082590736034968
 50
98.7086293287308223
 51
176.0578882937666947
  0
LINE
  5
25C9B
  8
0
 10
4702.5867202921872376
 20
624.7744058012798405
 30
0.0
 11
4709.7278302240865742
 21
624.7768883528798369
 31
0.0
  0
ARC
  5
25C9C
  8
0
 10
4709.7185622730376053
 20
624.691441984097537
 30
0.0
 40
0.0859475238429649
 50
4.6549835224746277
 51
83.8096064398093432
  0
LINE
  5
25C9D
  8
0
 10
4709.8042262952876627
 20
624.6984170931798417
 30
0.0
 11
4709.8042171501865596
 21
622.3218484979688583
 31
0.0
  0
ARC
  5
25C9E
  8
0
 10
4709.721982839066186
 20
622.3273783634231222
 30
0.0
 40
0.0824200299533133
 50
278.6135839955026086
 51
356.1529236846308208
  0
LINE
  5
25C9F
  8
0
 10
4709.7343268670883845
 20
622.2458879571797752
 30
0.0
 11
4702.5932169422876541
 21
622.243405405479848
 31
0.0
  0
ARC
  5
25CA0
  8
0
 10
4702.6024790158144242
 20
622.3288460591865032
 30
0.0
 40
0.0859412084614658
 50
184.6514972331663103
 51
263.8130911929200124
  0
LINE
  5
25CA1
  8
0
 10
4702.5168208638870055
 20
622.3218766746798565
 30
0.0
 11
4702.5168300024870405
 21
624.6984452400797636
 31
0.0
  0
ARC
  5
25CA2
  8
0
 10
4709.9003253304053942
 20
624.6927672460625445
 30
0.0
 40
0.082590736034968
 50
98.7086293287308223
 51
176.0578882937666947
  0
LINE
  5
25CA3
  8
0
 10
4709.887820292186916
 20
624.7744058012798405
 30
0.0
 11
4717.0289302240871621
 21
624.7768883528798369
 31
0.0
  0
ARC
  5
25CA4
  8
0
 10
4717.0196622730372837
 20
624.691441984097537
 30
0.0
 40
0.0859475238429649
 50
4.6549835224746277
 51
83.8096064398093432
  0
LINE
  5
25CA5
  8
0
 10
4717.1053262952873411
 20
624.6984170931798417
 30
0.0
 11
4717.1053171501871475
 21
622.3218484979688583
 31
0.0
  0
ARC
  5
25CA6
  8
0
 10
4717.0230828390649549
 20
622.3273783634231222
 30
0.0
 40
0.0824200299533133
 50
278.6135839955026086
 51
356.1529236846308208
  0
LINE
  5
25CA7
  8
0
 10
4717.0354268670880629
 20
622.2458879571797752
 30
0.0
 11
4709.8943169422873325
 21
622.243405405479848
 31
0.0
  0
ARC
  5
25CA8
  8
0
 10
4709.9035790158141026
 20
622.3288460591865032
 30
0.0
 40
0.0859412084614658
 50
184.6514972331663103
 51
263.8130911929200124
  0
LINE
  5
25CA9
  8
0
 10
4709.8179208638866839
 20
622.3218766746798565
 30
0.0
 11
4709.8179300024867189
 21
624.6984452400797636
 31
0.0
  0
ARC
  5
25CAA
  8
0
 10
4717.2014253304041631
 20
624.6927672460625445
 30
0.0
 40
0.082590736034968
 50
98.7086293287308223
 51
176.0578882937666947
  0
LINE
  5
25CAB
  8
0
 10
4717.1889202921865945
 20
624.7744058012798405
 30
0.0
 11
4724.3300302240868405
 21
624.7768883528798369
 31
0.0
  0
ARC
  5
25CAC
  8
0
 10
4724.3207622730378716
 20
624.691441984097537
 30
0.0
 40
0.0859475238429649
 50
4.6549835224746277
 51
83.8096064398093432
  0
LINE
  5
25CAD
  8
0
 10
4724.4064262952870195
 20
624.6984170931798417
 30
0.0
 11
4724.4064171501868259
 21
622.3218484979688583
 31
0.0
  0
ARC
  5
25CAE
  8
0
 10
4724.3241828390646333
 20
622.3273783634231222
 30
0.0
 40
0.0824200299533133
 50
278.6135839955026086
 51
356.1529236846308208
  0
LINE
  5
25CAF
  8
0
 10
4724.3365268670868318
 20
622.2458879571797752
 30
0.0
 11
4717.1954169422870109
 21
622.243405405479848
 31
0.0
  0
ARC
  5
25CB0
  8
0
 10
4717.2046790158128715
 20
622.3288460591865032
 30
0.0
 40
0.0859412084614658
 50
184.6514972331663103
 51
263.8130911929200124
  0
LINE
  5
25CB1
  8
0
 10
4717.1190208638872718
 20
622.3218766746798565
 30
0.0
 11
4717.1190300024873068
 21
624.6984452400797636
 31
0.0
  0
ARC
  5
25CB2
  8
0
 10
4706.2497753304041908
 20
622.1447172460625552
 30
0.0
 40
0.082590736034968
 50
98.7086293287308223
 51
176.0578882937666947
  0
LINE
  5
25CB3
  8
0
 10
4706.2372702921866221
 20
622.2263558012798512
 30
0.0
 11
4713.3783802240877776
 21
622.228838352879734
 31
0.0
  0
ARC
  5
25CB4
  8
0
 10
4713.3691122730378993
 20
622.1433919840975477
 30
0.0
 40
0.0859475238429649
 50
4.6549835224746277
 51
83.8096064398093432
  0
LINE
  5
25CB5
  8
0
 10
4713.4547762952870471
 20
622.1503670931798524
 30
0.0
 11
4713.454767150187763
 21
619.7737984979687553
 31
0.0
  0
ARC
  5
25CB6
  8
0
 10
4713.3725328390646609
 20
619.7793283634231329
 30
0.0
 40
0.0824200299533133
 50
278.6135839955026086
 51
356.1529236846308208
  0
LINE
  5
25CB7
  8
0
 10
4713.3848768670868594
 20
619.6978379571796722
 30
0.0
 11
4706.2437669422870385
 21
619.6953554054798587
 31
0.0
  0
ARC
  5
25CB8
  8
0
 10
4706.2530290158128992
 20
619.780796059186514
 30
0.0
 40
0.0859412084614658
 50
184.6514972331663103
 51
263.8130911929200124
  0
LINE
  5
25CB9
  8
0
 10
4706.16737086388639
 20
619.7738266746797535
 30
0.0
 11
4706.1673800024873344
 21
622.1503952400796607
 31
0.0
  0
ARC
  5
25CBA
  8
0
 10
4713.5508753304056881
 20
622.1447172460625552
 30
0.0
 40
0.082590736034968
 50
98.7086293287308223
 51
176.0578882937666947
  0
LINE
  5
25CBB
  8
0
 10
4713.5383702921863005
 20
622.2263558012798512
 30
0.0
 11
4720.6794802240865465
 21
622.228838352879734
 31
0.0
  0
ARC
  5
25CBC
  8
0
 10
4720.6702122730366682
 20
622.1433919840975477
 30
0.0
 40
0.0859475238429649
 50
4.6549835224746277
 51
83.8096064398093432
  0
LINE
  5
25CBD
  8
0
 10
4720.755876295287635
 20
622.1503670931798524
 30
0.0
 11
4720.7558671501874414
 21
619.7737984979687553
 31
0.0
  0
ARC
  5
25CBE
  8
0
 10
4720.6736328390652488
 20
619.7793283634231329
 30
0.0
 40
0.0824200299533133
 50
278.6135839955026086
 51
356.1529236846308208
  0
LINE
  5
25CBF
  8
0
 10
4720.6859768670874473
 20
619.6978379571796722
 30
0.0
 11
4713.5448669422876264
 21
619.6953554054798587
 31
0.0
  0
ARC
  5
25CC0
  8
0
 10
4713.5541290158143966
 20
619.780796059186514
 30
0.0
 40
0.0859412084614658
 50
184.6514972331663103
 51
263.8130911929200124
  0
LINE
  5
25CC1
  8
0
 10
4713.4684708638869779
 20
619.7738266746797535
 30
0.0
 11
4713.4684800024870128
 21
622.1503952400796607
 31
0.0
  0
ARC
  5
25CC2
  8
0
 10
4720.8519753304053665
 20
622.1447172460625552
 30
0.0
 40
0.082590736034968
 50
98.7086293287308223
 51
176.0578882937666947
  0
LINE
  5
25CC3
  8
0
 10
4720.8394702921868884
 20
622.2263558012798512
 30
0.0
 11
4727.9805802240871344
 21
622.228838352879734
 31
0.0
  0
ARC
  5
25CC4
  8
0
 10
4727.9713122730381656
 20
622.1433919840975477
 30
0.0
 40
0.0859475238429649
 50
4.6549835224746277
 51
83.8096064398093432
  0
LINE
  5
25CC5
  8
0
 10
4728.0569762952873134
 20
622.1503670931798524
 30
0.0
 11
4728.0569671501871198
 21
619.7737984979687553
 31
0.0
  0
ARC
  5
25CC6
  8
0
 10
4727.9747328390658367
 20
619.7793283634231329
 30
0.0
 40
0.0824200299533133
 50
278.6135839955026086
 51
356.1529236846308208
  0
LINE
  5
25CC7
  8
0
 10
4727.9870768670880352
 20
619.6978379571796722
 30
0.0
 11
4720.8459669422873048
 21
619.6953554054798587
 31
0.0
  0
ARC
  5
25CC8
  8
0
 10
4720.8552290158131655
 20
619.780796059186514
 30
0.0
 40
0.0859412084614658
 50
184.6514972331663103
 51
263.8130911929200124
  0
LINE
  5
25CC9
  8
0
 10
4720.7695708638866563
 20
619.7738266746797535
 30
0.0
 11
4720.7695800024876007
 21
622.1503952400796607
 31
0.0
  0
ARC
  5
25CCA
  8
0
 10
4717.2014253304041631
 20
619.5966672460625659
 30
0.0
 40
0.082590736034968
 50
98.7086293287308223
 51
176.0578882937666947
  0
LINE
  5
25CCB
  8
0
 10
4717.1889202921865945
 20
619.6783058012797483
 30
0.0
 11
4724.3300302240868405
 21
619.6807883528797447
 31
0.0
  0
ARC
  5
25CCC
  8
0
 10
4724.3207622730378716
 20
619.5953419840974448
 30
0.0
 40
0.0859475238429649
 50
4.6549835224746277
 51
83.8096064398093432
  0
LINE
  5
25CCD
  8
0
 10
4724.4064262952870195
 20
619.6023170931797495
 30
0.0
 11
4724.4064171501868259
 21
617.2257484979687661
 31
0.0
  0
ARC
  5
25CCE
  8
0
 10
4724.3241828390646333
 20
617.2312783634231437
 30
0.0
 40
0.0824200299533133
 50
278.6135839955026086
 51
356.1529236846308208
  0
LINE
  5
25CCF
  8
0
 10
4724.3365268670868318
 20
617.1497879571797966
 30
0.0
 11
4717.1954169422870109
 21
617.1473054054797558
 31
0.0
  0
ARC
  5
25CD0
  8
0
 10
4717.2046790158128715
 20
617.2327460591865247
 30
0.0
 40
0.0859412084614658
 50
184.6514972331663103
 51
263.8130911929200124
  0
LINE
  5
25CD1
  8
0
 10
4717.1190208638872718
 20
617.2257766746797643
 30
0.0
 11
4717.1190300024873068
 21
619.6023452400797851
 31
0.0
  0
ARC
  5
25CD2
  8
0
 10
4709.9003253304053942
 20
619.5966672460625659
 30
0.0
 40
0.082590736034968
 50
98.7086293287308223
 51
176.0578882937666947
  0
LINE
  5
25CD3
  8
0
 10
4709.887820292186916
 20
619.6783058012797483
 30
0.0
 11
4717.0289302240871621
 21
619.6807883528797447
 31
0.0
  0
ARC
  5
25CD4
  8
0
 10
4717.0196622730372837
 20
619.5953419840974448
 30
0.0
 40
0.0859475238429649
 50
4.6549835224746277
 51
83.8096064398093432
  0
LINE
  5
25CD5
  8
0
 10
4717.1053262952873411
 20
619.6023170931797495
 30
0.0
 11
4717.1053171501871475
 21
617.2257484979687661
 31
0.0
  0
ARC
  5
25CD6
  8
0
 10
4717.0230828390649549
 20
617.2312783634231437
 30
0.0
 40
0.0824200299533133
 50
278.6135839955026086
 51
356.1529236846308208
  0
LINE
  5
25CD7
  8
0
 10
4717.0354268670880629
 20
617.1497879571797966
 30
0.0
 11
4709.8943169422873325
 21
617.1473054054797558
 31
0.0
  0
ARC
  5
25CD8
  8
0
 10
4709.9035790158141026
 20
617.2327460591865247
 30
0.0
 40
0.0859412084614658
 50
184.6514972331663103
 51
263.8130911929200124
  0
LINE
  5
25CD9
  8
0
 10
4709.8179208638866839
 20
617.2257766746797643
 30
0.0
 11
4709.8179300024867189
 21
619.6023452400797851
 31
0.0
  0
ARC
  5
25CDA
  8
0
 10
4702.5992253304057158
 20
619.5966672460625659
 30
0.0
 40
0.082590736034968
 50
98.7086293287308223
 51
176.0578882937666947
  0
LINE
  5
25CDB
  8
0
 10
4702.5867202921872376
 20
619.6783058012797483
 30
0.0
 11
4709.7278302240865742
 21
619.6807883528797447
 31
0.0
  0
ARC
  5
25CDC
  8
0
 10
4709.7185622730376053
 20
619.5953419840974448
 30
0.0
 40
0.0859475238429649
 50
4.6549835224746277
 51
83.8096064398093432
  0
LINE
  5
25CDD
  8
0
 10
4709.8042262952876627
 20
619.6023170931797495
 30
0.0
 11
4709.8042171501865596
 21
617.2257484979687661
 31
0.0
  0
ARC
  5
25CDE
  8
0
 10
4709.721982839066186
 20
617.2312783634231437
 30
0.0
 40
0.0824200299533133
 50
278.6135839955026086
 51
356.1529236846308208
  0
LINE
  5
25CDF
  8
0
 10
4709.7343268670883845
 20
617.1497879571797966
 30
0.0
 11
4702.5932169422876541
 21
617.1473054054797558
 31
0.0
  0
ARC
  5
25CE0
  8
0
 10
4702.6024790158144242
 20
617.2327460591865247
 30
0.0
 40
0.0859412084614658
 50
184.6514972331663103
 51
263.8130911929200124
  0
LINE
  5
25CE1
  8
0
 10
4702.5168208638870055
 20
617.2257766746797643
 30
0.0
 11
4702.5168300024870405
 21
619.6023452400797851
 31
0.0
  0
ARC
  5
25CE2
  8
0
 10
4706.2497753304041908
 20
617.048617246062463
 30
0.0
 40
0.082590736034968
 50
98.7086293287308223
 51
176.0578882937666947
  0
LINE
  5
25CE3
  8
0
 10
4706.2372702921866221
 20
617.1302558012796453
 30
0.0
 11
4713.3783802240877776
 21
617.1327383528797554
 31
0.0
  0
ARC
  5
25CE4
  8
0
 10
4713.3691122730378993
 20
617.0472919840975692
 30
0.0
 40
0.0859475238429649
 50
4.6549835224746277
 51
83.8096064398093432
  0
LINE
  5
25CE5
  8
0
 10
4713.4547762952870471
 20
617.0542670931798739
 30
0.0
 11
4713.454767150187763
 21
614.6776984979687768
 31
0.0
  0
ARC
  5
25CE6
  8
0
 10
4713.3725328390646609
 20
614.6832283634231544
 30
0.0
 40
0.0824200299533133
 50
278.6135839955026086
 51
356.1529236846308208
  0
LINE
  5
25CE7
  8
0
 10
4713.3848768670868594
 20
614.6017379571798074
 30
0.0
 11
4706.2437669422870385
 21
614.5992554054797665
 31
0.0
  0
ARC
  5
25CE8
  8
0
 10
4706.2530290158128992
 20
614.6846960591864217
 30
0.0
 40
0.0859412084614658
 50
184.6514972331663103
 51
263.8130911929200124
  0
LINE
  5
25CE9
  8
0
 10
4706.16737086388639
 20
614.677726674679775
 30
0.0
 11
4706.1673800024873344
 21
617.0542952400797958
 31
0.0
  0
ARC
  5
25CEA
  8
0
 10
4713.5508753304056881
 20
617.048617246062463
 30
0.0
 40
0.082590736034968
 50
98.7086293287308223
 51
176.0578882937666947
  0
LINE
  5
25CEB
  8
0
 10
4713.5383702921863005
 20
617.1302558012796453
 30
0.0
 11
4720.6794802240865465
 21
617.1327383528797554
 31
0.0
  0
ARC
  5
25CEC
  8
0
 10
4720.6702122730366682
 20
617.0472919840975692
 30
0.0
 40
0.0859475238429649
 50
4.6549835224746277
 51
83.8096064398093432
  0
LINE
  5
25CED
  8
0
 10
4720.755876295287635
 20
617.0542670931798739
 30
0.0
 11
4720.7558671501874414
 21
614.6776984979687768
 31
0.0
  0
ARC
  5
25CEE
  8
0
 10
4720.6736328390652488
 20
614.6832283634231544
 30
0.0
 40
0.0824200299533133
 50
278.6135839955026086
 51
356.1529236846308208
  0
LINE
  5
25CEF
  8
0
 10
4720.6859768670874473
 20
614.6017379571798074
 30
0.0
 11
4713.5448669422876264
 21
614.5992554054797665
 31
0.0
  0
ARC
  5
25CF0
  8
0
 10
4713.5541290158143966
 20
614.6846960591864217
 30
0.0
 40
0.0859412084614658
 50
184.6514972331663103
 51
263.8130911929200124
  0
LINE
  5
25CF1
  8
0
 10
4713.4684708638869779
 20
614.677726674679775
 30
0.0
 11
4713.4684800024870128
 21
617.0542952400797958
 31
0.0
  0
ARC
  5
25CF2
  8
0
 10
4720.8519753304053665
 20
617.048617246062463
 30
0.0
 40
0.082590736034968
 50
98.7086293287308223
 51
176.0578882937666947
  0
LINE
  5
25CF3
  8
0
 10
4720.8394702921868884
 20
617.1302558012796453
 30
0.0
 11
4727.9805802240871344
 21
617.1327383528797554
 31
0.0
  0
ARC
  5
25CF4
  8
0
 10
4727.9713122730381656
 20
617.0472919840975692
 30
0.0
 40
0.0859475238429649
 50
4.6549835224746277
 51
83.8096064398093432
  0
LINE
  5
25CF5
  8
0
 10
4728.0569762952873134
 20
617.0542670931798739
 30
0.0
 11
4728.0569671501871198
 21
614.6776984979687768
 31
0.0
  0
ARC
  5
25CF6
  8
0
 10
4727.9747328390658367
 20
614.6832283634231544
 30
0.0
 40
0.0824200299533133
 50
278.6135839955026086
 51
356.1529236846308208
  0
LINE
  5
25CF7
  8
0
 10
4727.9870768670880352
 20
614.6017379571798074
 30
0.0
 11
4720.8459669422873048
 21
614.5992554054797665
 31
0.0
  0
ARC
  5
25CF8
  8
0
 10
4720.8552290158131655
 20
614.6846960591864217
 30
0.0
 40
0.0859412084614658
 50
184.6514972331663103
 51
263.8130911929200124
  0
LINE
  5
25CF9
  8
0
 10
4720.7695708638866563
 20
614.677726674679775
 30
0.0
 11
4720.7695800024876007
 21
617.0542952400797958
 31
0.0
  0
ARC
  5
25CFA
  8
0
 10
4717.2014253304041631
 20
614.5005672460625874
 30
0.0
 40
0.082590736034968
 50
98.7086293287308223
 51
176.0578882937666947
  0
LINE
  5
25CFB
  8
0
 10
4717.1889202921865945
 20
614.5822058012797697
 30
0.0
 11
4724.3300302240868405
 21
614.5846883528796525
 31
0.0
  0
ARC
  5
25CFC
  8
0
 10
4724.3207622730378716
 20
614.4992419840974662
 30
0.0
 40
0.0859475238429649
 50
4.6549835224746277
 51
83.8096064398093432
  0
LINE
  5
25CFD
  8
0
 10
4724.4064262952870195
 20
614.5062170931796572
 30
0.0
 11
4724.4064171501868259
 21
612.1296484979689012
 31
0.0
  0
ARC
  5
25CFE
  8
0
 10
4724.3241828390646333
 20
612.1351783634230515
 30
0.0
 40
0.0824200299533133
 50
278.6135839955026086
 51
356.1529236846308208
  0
LINE
  5
25CFF
  8
0
 10
4724.3365268670868318
 20
612.0536879571797044
 30
0.0
 11
4717.1954169422870109
 21
612.0512054054798909
 31
0.0
  0
ARC
  5
25D00
  8
0
 10
4717.2046790158128715
 20
612.1366460591865462
 30
0.0
 40
0.0859412084614658
 50
184.6514972331663103
 51
263.8130911929200124
  0
LINE
  5
25D01
  8
0
 10
4717.1190208638872718
 20
612.1296766746798994
 30
0.0
 11
4717.1190300024873068
 21
614.5062452400796928
 31
0.0
  0
ARC
  5
25D02
  8
0
 10
4709.9003253304053942
 20
614.5005672460625874
 30
0.0
 40
0.082590736034968
 50
98.7086293287308223
 51
176.0578882937666947
  0
LINE
  5
25D03
  8
0
 10
4709.887820292186916
 20
614.5822058012797697
 30
0.0
 11
4717.0289302240871621
 21
614.5846883528796525
 31
0.0
  0
ARC
  5
25D04
  8
0
 10
4717.0196622730372837
 20
614.4992419840974662
 30
0.0
 40
0.0859475238429649
 50
4.6549835224746277
 51
83.8096064398093432
  0
LINE
  5
25D05
  8
0
 10
4717.1053262952873411
 20
614.5062170931796572
 30
0.0
 11
4717.1053171501871475
 21
612.1296484979689012
 31
0.0
  0
ARC
  5
25D06
  8
0
 10
4717.0230828390649549
 20
612.1351783634230515
 30
0.0
 40
0.0824200299533133
 50
278.6135839955026086
 51
356.1529236846308208
  0
LINE
  5
25D07
  8
0
 10
4717.0354268670880629
 20
612.0536879571797044
 30
0.0
 11
4709.8943169422873325
 21
612.0512054054798909
 31
0.0
  0
ARC
  5
25D08
  8
0
 10
4709.9035790158141026
 20
612.1366460591865462
 30
0.0
 40
0.0859412084614658
 50
184.6514972331663103
 51
263.8130911929200124
  0
LINE
  5
25D09
  8
0
 10
4709.8179208638866839
 20
612.1296766746798994
 30
0.0
 11
4709.8179300024867189
 21
614.5062452400796928
 31
0.0
  0
ARC
  5
25D0A
  8
0
 10
4702.5992253304057158
 20
614.5005672460625874
 30
0.0
 40
0.082590736034968
 50
98.7086293287308223
 51
176.0578882937666947
  0
LINE
  5
25D0B
  8
0
 10
4702.5867202921872376
 20
614.5822058012797697
 30
0.0
 11
4709.7278302240865742
 21
614.5846883528796525
 31
0.0
  0
ARC
  5
25D0C
  8
0
 10
4709.7185622730376053
 20
614.4992419840974662
 30
0.0
 40
0.0859475238429649
 50
4.6549835224746277
 51
83.8096064398093432
  0
LINE
  5
25D0D
  8
0
 10
4709.8042262952876627
 20
614.5062170931796572
 30
0.0
 11
4709.8042171501865596
 21
612.1296484979689012
 31
0.0
  0
ARC
  5
25D0E
  8
0
 10
4709.721982839066186
 20
612.1351783634230515
 30
0.0
 40
0.0824200299533133
 50
278.6135839955026086
 51
356.1529236846308208
  0
LINE
  5
25D0F
  8
0
 10
4709.7343268670883845
 20
612.0536879571797044
 30
0.0
 11
4702.5932169422876541
 21
612.0512054054798909
 31
0.0
  0
ARC
  5
25D10
  8
0
 10
4702.6024790158144242
 20
612.1366460591865462
 30
0.0
 40
0.0859412084614658
 50
184.6514972331663103
 51
263.8130911929200124
  0
LINE
  5
25D11
  8
0
 10
4702.5168208638870055
 20
612.1296766746798994
 30
0.0
 11
4702.5168300024870405
 21
614.5062452400796928
 31
0.0
  0
ARC
  5
25D12
  8
0
 10
4706.2497753304041908
 20
611.9525172460625981
 30
0.0
 40
0.082590736034968
 50
98.7086293287308223
 51
176.0578882937666947
  0
LINE
  5
25D13
  8
0
 10
4706.2372702921866221
 20
612.0341558012796668
 30
0.0
 11
4713.3783802240877776
 21
612.0366383528796632
 31
0.0
  0
ARC
  5
25D14
  8
0
 10
4713.3691122730378993
 20
611.951191984097477
 30
0.0
 40
0.0859475238429649
 50
4.6549835224746277
 51
83.8096064398093432
  0
LINE
  5
25D15
  8
0
 10
4713.4547762952870471
 20
611.9581670931798953
 30
0.0
 11
4713.454767150187763
 21
609.5815984979687983
 31
0.0
  0
ARC
  5
25D16
  8
0
 10
4713.3725328390646609
 20
609.5871283634230622
 30
0.0
 40
0.0824200299533133
 50
278.6135839955026086
 51
356.1529236846308208
  0
LINE
  5
25D17
  8
0
 10
4713.3848768670868594
 20
609.5056379571798288
 30
0.0
 11
4706.2437669422870385
 21
609.503155405479788
 31
0.0
  0
ARC
  5
25D18
  8
0
 10
4706.2530290158128992
 20
609.5885960591864432
 30
0.0
 40
0.0859412084614658
 50
184.6514972331663103
 51
263.8130911929200124
  0
LINE
  5
25D19
  8
0
 10
4706.16737086388639
 20
609.5816266746797965
 30
0.0
 11
4706.1673800024873344
 21
611.9581952400798173
 31
0.0
  0
ARC
  5
25D1A
  8
0
 10
4713.5508753304056881
 20
611.9525172460625981
 30
0.0
 40
0.082590736034968
 50
98.7086293287308223
 51
176.0578882937666947
  0
LINE
  5
25D1B
  8
0
 10
4713.5383702921863005
 20
612.0341558012796668
 30
0.0
 11
4720.6794802240865465
 21
612.0366383528796632
 31
0.0
  0
ARC
  5
25D1C
  8
0
 10
4720.6702122730366682
 20
611.951191984097477
 30
0.0
 40
0.0859475238429649
 50
4.6549835224746277
 51
83.8096064398093432
  0
LINE
  5
25D1D
  8
0
 10
4720.755876295287635
 20
611.9581670931798953
 30
0.0
 11
4720.7558671501874414
 21
609.5815984979687983
 31
0.0
  0
ARC
  5
25D1E
  8
0
 10
4720.6736328390652488
 20
609.5871283634230622
 30
0.0
 40
0.0824200299533133
 50
278.6135839955026086
 51
356.1529236846308208
  0
LINE
  5
25D1F
  8
0
 10
4720.6859768670874473
 20
609.5056379571798288
 30
0.0
 11
4713.5448669422876264
 21
609.503155405479788
 31
0.0
  0
ARC
  5
25D20
  8
0
 10
4713.5541290158143966
 20
609.5885960591864432
 30
0.0
 40
0.0859412084614658
 50
184.6514972331663103
 51
263.8130911929200124
  0
LINE
  5
25D21
  8
0
 10
4713.4684708638869779
 20
609.5816266746797965
 30
0.0
 11
4713.4684800024870128
 21
611.9581952400798173
 31
0.0
  0
ARC
  5
25D22
  8
0
 10
4720.8519753304053665
 20
611.9525172460625981
 30
0.0
 40
0.082590736034968
 50
98.7086293287308223
 51
176.0578882937666947
  0
LINE
  5
25D23
  8
0
 10
4720.8394702921868884
 20
612.0341558012796668
 30
0.0
 11
4727.9805802240871344
 21
612.0366383528796632
 31
0.0
  0
ARC
  5
25D24
  8
0
 10
4727.9713122730381656
 20
611.951191984097477
 30
0.0
 40
0.0859475238429649
 50
4.6549835224746277
 51
83.8096064398093432
  0
LINE
  5
25D25
  8
0
 10
4728.0569762952873134
 20
611.9581670931798953
 30
0.0
 11
4728.0569671501871198
 21
609.5815984979687983
 31
0.0
  0
ARC
  5
25D26
  8
0
 10
4727.9747328390658367
 20
609.5871283634230622
 30
0.0
 40
0.0824200299533133
 50
278.6135839955026086
 51
356.1529236846308208
  0
LINE
  5
25D27
  8
0
 10
4727.9870768670880352
 20
609.5056379571798288
 30
0.0
 11
4720.8459669422873048
 21
609.503155405479788
 31
0.0
  0
ARC
  5
25D28
  8
0
 10
4720.8552290158131655
 20
609.5885960591864432
 30
0.0
 40
0.0859412084614658
 50
184.6514972331663103
 51
263.8130911929200124
  0
LINE
  5
25D29
  8
0
 10
4720.7695708638866563
 20
609.5816266746797965
 30
0.0
 11
4720.7695800024876007
 21
611.9581952400798173
 31
0.0
  0
ARC
  5
25D2A
  8
0
 10
4717.2017494226820418
 20
609.4044014016076289
 30
0.0
 40
0.082590736034968
 50
98.7086293287308223
 51
176.0578882937666947
  0
LINE
  5
25D2B
  8
0
 10
4717.1892443844626541
 20
609.4860399568248113
 30
0.0
 11
4724.3303543163629001
 21
609.488522508424694
 31
0.0
  0
ARC
  5
25D2C
  8
0
 10
4724.3210863653130218
 20
609.4030761396425078
 30
0.0
 40
0.0859475238429649
 50
4.6549835224746277
 51
83.8096064398093432
  0
LINE
  5
25D2D
  8
0
 10
4724.4067503875639886
 20
609.4100512487249262
 30
0.0
 11
4724.4067412424628856
 21
607.0334826535139428
 31
0.0
  0
ARC
  5
25D2E
  8
0
 10
4724.324506931340693
 20
607.0390125189682067
 30
0.0
 40
0.0824200299533133
 50
278.6135839955026086
 51
356.1529236846308208
  0
LINE
  5
25D2F
  8
0
 10
4724.3368509593628914
 20
606.957522112724746
 30
0.0
 11
4717.1957410345639801
 21
606.9550395610248188
 31
0.0
  0
ARC
  5
25D30
  8
0
 10
4717.2050031080898407
 20
607.0404802147313603
 30
0.0
 40
0.0859412084614658
 50
184.6514972331663103
 51
263.8130911929200124
  0
LINE
  5
25D31
  8
0
 10
4717.119344956164241
 20
607.0335108302248273
 30
0.0
 11
4717.1193540947642759
 21
609.4100793956248481
 31
0.0
  0
ARC
  5
25D32
  8
0
 10
4709.9003253304053942
 20
609.4044672460626089
 30
0.0
 40
0.082590736034968
 50
98.7086293287308223
 51
176.0578882937666947
  0
LINE
  5
25D33
  8
0
 10
4709.887820292186916
 20
609.4861058012797912
 30
0.0
 11
4717.0289302240871621
 21
609.4885883528797876
 31
0.0
  0
ARC
  5
25D34
  8
0
 10
4717.0196622730372837
 20
609.403141984097374
 30
0.0
 40
0.0859475238429649
 50
4.6549835224746277
 51
83.8096064398093432
  0
LINE
  5
25D35
  8
0
 10
4717.1053262952873411
 20
609.4101170931796787
 30
0.0
 11
4717.1053171501871475
 21
607.0335484979689227
 31
0.0
  0
ARC
  5
25D36
  8
0
 10
4717.0230828390649549
 20
607.0390783634230729
 30
0.0
 40
0.0824200299533133
 50
278.6135839955026086
 51
356.1529236846308208
  0
LINE
  5
25D37
  8
0
 10
4717.0354268670880629
 20
606.9575879571797259
 30
0.0
 11
4709.8943169422873325
 21
606.9551054054799124
 31
0.0
  0
ARC
  5
25D38
  8
0
 10
4709.9035790158141026
 20
607.0405460591864539
 30
0.0
 40
0.0859412084614658
 50
184.6514972331663103
 51
263.8130911929200124
  0
LINE
  5
25D39
  8
0
 10
4709.8179208638866839
 20
607.0335766746798072
 30
0.0
 11
4709.8179300024867189
 21
609.410145240079828
 31
0.0
  0
ARC
  5
25D3A
  8
0
 10
4702.5992253304057158
 20
609.4044672460626089
 30
0.0
 40
0.082590736034968
 50
98.7086293287308223
 51
176.0578882937666947
  0
LINE
  5
25D3B
  8
0
 10
4702.5867202921872376
 20
609.4861058012797912
 30
0.0
 11
4709.7278302240865742
 21
609.4885883528797876
 31
0.0
  0
ARC
  5
25D3C
  8
0
 10
4709.7185622730376053
 20
609.403141984097374
 30
0.0
 40
0.0859475238429649
 50
4.6549835224746277
 51
83.8096064398093432
  0
LINE
  5
25D3D
  8
0
 10
4709.8042262952876627
 20
609.4101170931796787
 30
0.0
 11
4709.8042171501865596
 21
607.0335484979689227
 31
0.0
  0
ARC
  5
25D3E
  8
0
 10
4709.721982839066186
 20
607.0390783634230729
 30
0.0
 40
0.0824200299533133
 50
278.6135839955026086
 51
356.1529236846308208
  0
LINE
  5
25D3F
  8
0
 10
4709.7343268670883845
 20
606.9575879571797259
 30
0.0
 11
4702.5932169422876541
 21
606.9551054054799124
 31
0.0
  0
ARC
  5
25D40
  8
0
 10
4702.6024790158144242
 20
607.0405460591864539
 30
0.0
 40
0.0859412084614658
 50
184.6514972331663103
 51
263.8130911929200124
  0
LINE
  5
25D41
  8
0
 10
4702.5168208638870055
 20
607.0335766746798072
 30
0.0
 11
4702.5168300024870405
 21
609.410145240079828
 31
0.0
  0
ARC
  5
25D42
  8
0
 10
4706.2497753304041908
 20
606.8564172460626196
 30
0.0
 40
0.082590736034968
 50
98.7086293287308223
 51
176.0578882937666947
  0
LINE
  5
25D43
  8
0
 10
4706.2372702921866221
 20
606.9380558012798019
 30
0.0
 11
4713.3783802240877776
 21
606.9405383528796847
 31
0.0
  0
ARC
  5
25D44
  8
0
 10
4713.3691122730378993
 20
606.8550919840974984
 30
0.0
 40
0.0859475238429649
 50
4.6549835224746277
 51
83.8096064398093432
  0
LINE
  5
25D45
  8
0
 10
4713.4547762952870471
 20
606.8620670931798031
 30
0.0
 11
4713.454767150187763
 21
604.4854984979689334
 31
0.0
  0
ARC
  5
25D46
  8
0
 10
4713.3725328390646609
 20
604.4910283634231973
 30
0.0
 40
0.0824200299533133
 50
278.6135839955026086
 51
356.1529236846308208
  0
LINE
  5
25D47
  8
0
 10
4713.3848768670868594
 20
604.4095379571797366
 30
0.0
 11
4706.2437669422870385
 21
604.4070554054798095
 31
0.0
  0
ARC
  5
25D48
  8
0
 10
4706.2530290158128992
 20
604.492496059186351
 30
0.0
 40
0.0859412084614658
 50
184.6514972331663103
 51
263.8130911929200124
  0
LINE
  5
25D49
  8
0
 10
4706.16737086388639
 20
604.4855266746798179
 30
0.0
 11
4706.1673800024873344
 21
606.8620952400798387
 31
0.0
  0
ARC
  5
25D4A
  8
0
 10
4713.5508753304056881
 20
606.8564172460626196
 30
0.0
 40
0.082590736034968
 50
98.7086293287308223
 51
176.0578882937666947
  0
LINE
  5
25D4B
  8
0
 10
4713.5383702921863005
 20
606.9380558012798019
 30
0.0
 11
4720.6794802240865465
 21
606.9405383528796847
 31
0.0
  0
ARC
  5
25D4C
  8
0
 10
4720.6702122730366682
 20
606.8550919840974984
 30
0.0
 40
0.0859475238429649
 50
4.6549835224746277
 51
83.8096064398093432
  0
LINE
  5
25D4D
  8
0
 10
4720.755876295287635
 20
606.8620670931798031
 30
0.0
 11
4720.7558671501874414
 21
604.4854984979689334
 31
0.0
  0
ARC
  5
25D4E
  8
0
 10
4720.6736328390652488
 20
604.4910283634231973
 30
0.0
 40
0.0824200299533133
 50
278.6135839955026086
 51
356.1529236846308208
  0
LINE
  5
25D4F
  8
0
 10
4720.6859768670874473
 20
604.4095379571797366
 30
0.0
 11
4713.5448669422876264
 21
604.4070554054798095
 31
0.0
  0
ARC
  5
25D50
  8
0
 10
4713.5541290158143966
 20
604.492496059186351
 30
0.0
 40
0.0859412084614658
 50
184.6514972331663103
 51
263.8130911929200124
  0
LINE
  5
25D51
  8
0
 10
4713.4684708638869779
 20
604.4855266746798179
 30
0.0
 11
4713.4684800024870128
 21
606.8620952400798387
 31
0.0
  0
ARC
  5
25D52
  8
0
 10
4720.8519753304053665
 20
606.8564172460626196
 30
0.0
 40
0.082590736034968
 50
98.7086293287308223
 51
176.0578882937666947
  0
LINE
  5
25D53
  8
0
 10
4720.8394702921868884
 20
606.9380558012798019
 30
0.0
 11
4727.9805802240871344
 21
606.9405383528796847
 31
0.0
  0
ARC
  5
25D54
  8
0
 10
4727.9713122730381656
 20
606.8550919840974984
 30
0.0
 40
0.0859475238429649
 50
4.6549835224746277
 51
83.8096064398093432
  0
LINE
  5
25D55
  8
0
 10
4728.0569762952873134
 20
606.8620670931798031
 30
0.0
 11
4728.0569671501871198
 21
604.4854984979689334
 31
0.0
  0
ARC
  5
25D56
  8
0
 10
4727.9747328390658367
 20
604.4910283634231973
 30
0.0
 40
0.0824200299533133
 50
278.6135839955026086
 51
356.1529236846308208
  0
LINE
  5
25D57
  8
0
 10
4727.9870768670880352
 20
604.4095379571797366
 30
0.0
 11
4720.8459669422873048
 21
604.4070554054798095
 31
0.0
  0
ARC
  5
25D58
  8
0
 10
4720.8552290158131655
 20
604.492496059186351
 30
0.0
 40
0.0859412084614658
 50
184.6514972331663103
 51
263.8130911929200124
  0
LINE
  5
25D59
  8
0
 10
4720.7695708638866563
 20
604.4855266746798179
 30
0.0
 11
4720.7695800024876007
 21
606.8620952400798387
 31
0.0
  0
ARC
  5
25D5A
  8
0
 10
4717.2014253304041631
 20
604.3083672460626303
 30
0.0
 40
0.082590736034968
 50
98.7086293287308223
 51
176.0578882937666947
  0
LINE
  5
25D5B
  8
0
 10
4717.1889202921865945
 20
604.390005801279699
 30
0.0
 11
4724.3300302240868405
 21
604.3924883528798091
 31
0.0
  0
ARC
  5
25D5C
  8
0
 10
4724.3207622730378716
 20
604.3070419840975092
 30
0.0
 40
0.0859475238429649
 50
4.6549835224746277
 51
83.8096064398093432
  0
LINE
  5
25D5D
  8
0
 10
4724.4064262952870195
 20
604.3140170931798139
 30
0.0
 11
4724.4064171501868259
 21
601.9374484979689441
 31
0.0
  0
ARC
  5
25D5E
  8
0
 10
4724.3241828390646333
 20
601.9429783634229807
 30
0.0
 40
0.0824200299533133
 50
278.6135839955026086
 51
356.1529236846308208
  0
LINE
  5
25D5F
  8
0
 10
4724.3365268670868318
 20
601.8614879571797474
 30
0.0
 11
4717.1954169422870109
 21
601.8590054054798202
 31
0.0
  0
ARC
  5
25D60
  8
0
 10
4717.2046790158128715
 20
601.9444460591864754
 30
0.0
 40
0.0859412084614658
 50
184.6514972331663103
 51
263.8130911929200124
  0
LINE
  5
25D61
  8
0
 10
4717.1190208638872718
 20
601.9374766746798286
 30
0.0
 11
4717.1190300024873068
 21
604.3140452400798495
 31
0.0
  0
ARC
  5
25D62
  8
0
 10
4709.9003253304053942
 20
604.3083672460626303
 30
0.0
 40
0.082590736034968
 50
98.7086293287308223
 51
176.0578882937666947
  0
LINE
  5
25D63
  8
0
 10
4709.887820292186916
 20
604.390005801279699
 30
0.0
 11
4717.0289302240871621
 21
604.3924883528798091
 31
0.0
  0
ARC
  5
25D64
  8
0
 10
4717.0196622730372837
 20
604.3070419840975092
 30
0.0
 40
0.0859475238429649
 50
4.6549835224746277
 51
83.8096064398093432
  0
LINE
  5
25D65
  8
0
 10
4717.1053262952873411
 20
604.3140170931798139
 30
0.0
 11
4717.1053171501871475
 21
601.9374484979689441
 31
0.0
  0
ARC
  5
25D66
  8
0
 10
4717.0230828390649549
 20
601.9429783634229807
 30
0.0
 40
0.0824200299533133
 50
278.6135839955026086
 51
356.1529236846308208
  0
LINE
  5
25D67
  8
0
 10
4717.0354268670880629
 20
601.8614879571797474
 30
0.0
 11
4709.8943169422873325
 21
601.8590054054798202
 31
0.0
  0
ARC
  5
25D68
  8
0
 10
4709.9035790158141026
 20
601.9444460591864754
 30
0.0
 40
0.0859412084614658
 50
184.6514972331663103
 51
263.8130911929200124
  0
LINE
  5
25D69
  8
0
 10
4709.8179208638866839
 20
601.9374766746798286
 30
0.0
 11
4709.8179300024867189
 21
604.3140452400798495
 31
0.0
  0
ARC
  5
25D6A
  8
0
 10
4702.5992253304057158
 20
604.3083672460626303
 30
0.0
 40
0.082590736034968
 50
98.7086293287308223
 51
176.0578882937666947
  0
LINE
  5
25D6B
  8
0
 10
4702.5867202921872376
 20
604.390005801279699
 30
0.0
 11
4709.7278302240865742
 21
604.3924883528798091
 31
0.0
  0
ARC
  5
25D6C
  8
0
 10
4709.7185622730376053
 20
604.3070419840975092
 30
0.0
 40
0.0859475238429649
 50
4.6549835224746277
 51
83.8096064398093432
  0
LINE
  5
25D6D
  8
0
 10
4709.8042262952876627
 20
604.3140170931798139
 30
0.0
 11
4709.8042171501865596
 21
601.9374484979689441
 31
0.0
  0
ARC
  5
25D6E
  8
0
 10
4709.721982839066186
 20
601.9429783634229807
 30
0.0
 40
0.0824200299533133
 50
278.6135839955026086
 51
356.1529236846308208
  0
LINE
  5
25D6F
  8
0
 10
4709.7343268670883845
 20
601.8614879571797474
 30
0.0
 11
4702.5932169422876541
 21
601.8590054054798202
 31
0.0
  0
ARC
  5
25D70
  8
0
 10
4702.6024790158144242
 20
601.9444460591864754
 30
0.0
 40
0.0859412084614658
 50
184.6514972331663103
 51
263.8130911929200124
  0
LINE
  5
25D71
  8
0
 10
4702.5168208638870055
 20
601.9374766746798286
 30
0.0
 11
4702.5168300024870405
 21
604.3140452400798495
 31
0.0
  0
ARC
  5
25D72
  8
0
 10
4732.7569118632973186
 20
621.8394330535927566
 30
0.0
 40
1.6165649126030699
 50
166.0368440684484028
 51
178.7003171073774013
  0
LINE
  5
25D73
  8
0
 10
4731.1407628364731863
 20
621.8760996563213439
 30
0.0
 11
4731.1407628357883368
 21
620.0480968791805481
 31
0.0
  0
ARC
  5
25D74
  8
0
 10
4732.7585566423813361
 20
620.0849807984058089
 30
0.0
 40
1.618214208364283
 50
181.3060544878958069
 51
193.9566661938904133
  0
ARC
  5
25D75
  8
0
 10
4728.1508384968055907
 20
622.1498687784118147
 30
0.0
 40
0.0796300539901669
 50
89.0823246575048557
 51
183.0096542621313063
  0
LINE
  5
25D76
  8
0
 10
4728.1521138335492651
 20
622.2294886189960152
 30
0.0
 11
4731.1881146759869807
 21
622.2295067668211459
 31
0.0
  0
LINE
  5
25D77
  8
0
 10
4731.1881146766008897
 20
619.694686990780724
 30
0.0
 11
4728.1522620772348091
 21
619.6945530133391458
 31
0.0
  0
ARC
  5
25D78
  8
0
 10
4728.1510226181280814
 20
619.7744228637485548
 30
0.0
 40
0.0798794670943839
 50
177.0077559573169026
 51
270.8890723521359973
  0
LINE
  5
25D79
  8
0
 10
4728.07125205788725
 20
619.7785926337807041
 30
0.0
 11
4728.0713182763865916
 21
622.1456878642806032
 31
0.0
  0
ARC
  5
25D7A
  8
0
 10
4728.1508384968055907
 20
617.0537687784119498
 30
0.0
 40
0.0796300539901669
 50
89.0823246575048557
 51
183.0096542621313063
  0
LINE
  5
25D7B
  8
0
 10
4728.1521138335492651
 20
617.1333886189961504
 30
0.0
 11
4731.1881146759869807
 21
617.1334067668212811
 31
0.0
  0
LINE
  5
25D7C
  8
0
 10
4731.1881146766008897
 20
614.5985869907809729
 30
0.0
 11
4728.1522620772348091
 21
614.5984530133395083
 31
0.0
  0
ARC
  5
25D7D
  8
0
 10
4728.1510226181280814
 20
614.6783228637488037
 30
0.0
 40
0.0798794670943839
 50
177.0077559573169026
 51
270.8890723521359973
  0
LINE
  5
25D7E
  8
0
 10
4728.07125205788725
 20
614.6824926337806119
 30
0.0
 11
4728.0713182763865916
 21
617.049587864280852
 31
0.0
  0
ARC
  5
25D7F
  8
0
 10
4732.7568999700788481
 20
611.647233052701722
 30
0.0
 40
1.6165649126030699
 50
166.0368440684484028
 51
178.7003171073774013
  0
LINE
  5
25D80
  8
0
 10
4731.1407509432547158
 20
611.6838996554303094
 30
0.0
 11
4731.1407509425707758
 21
609.8558968782896272
 31
0.0
  0
ARC
  5
25D81
  8
0
 10
4732.7585447491646846
 20
609.8927807975146607
 30
0.0
 40
1.618214208364283
 50
181.3060544878958069
 51
193.9566661938904133
  0
ARC
  5
25D82
  8
0
 10
4728.1508266035898487
 20
611.9576687775206665
 30
0.0
 40
0.0796300539901669
 50
89.0823246575048557
 51
183.0096542621313063
  0
LINE
  5
25D83
  8
0
 10
4728.1521019403326136
 20
612.0372886181049807
 30
0.0
 11
4731.1881027827703292
 21
612.0373067659301114
 31
0.0
  0
LINE
  5
25D84
  8
0
 10
4731.1881027833851476
 20
609.5024869898898032
 30
0.0
 11
4728.1522501840181576
 21
609.5023530124482249
 31
0.0
  0
ARC
  5
25D85
  8
0
 10
4728.1510107249114299
 20
609.5822228628575203
 30
0.0
 40
0.0798794670943839
 50
177.0077559573169026
 51
270.8890723521359973
  0
LINE
  5
25D86
  8
0
 10
4728.0712401646705985
 20
609.5863926328895559
 30
0.0
 11
4728.0713063831708496
 21
611.9534878633895687
 31
0.0
  0
ARC
  5
25D87
  8
0
 10
4732.7569121885708228
 20
606.5511330111294228
 30
0.0
 40
1.616565238696688
 50
166.0368453636451136
 51
178.7003164681011071
  0
LINE
  5
25D88
  8
0
 10
4731.1407628361466777
 20
606.5877996392863452
 30
0.0
 11
4731.1407628354627377
 21
604.7597968621455493
 31
0.0
  0
ARC
  5
25D89
  8
0
 10
4732.7585562779713655
 20
604.7966807529168136
 30
0.0
 40
1.6182138437253071
 50
181.3060537745172098
 51
193.9566677405130974
  0
ARC
  5
25D8A
  8
0
 10
4728.1508385271135921
 20
606.8615687511505712
 30
0.0
 40
0.0796300831407492
 50
89.0823468040049988
 51
183.0096337336011914
  0
LINE
  5
25D8B
  8
0
 10
4728.1521138335492651
 20
606.9411886213747493
 30
0.0
 11
4731.1881146759869807
 21
606.9412067675798426
 31
0.0
  0
LINE
  5
25D8C
  8
0
 10
4731.1881146766008897
 20
604.4063869908463857
 30
0.0
 11
4728.152264524264865
 21
604.4062529746363452
 31
0.0
  0
ARC
  5
25D8D
  8
0
 10
4728.1510221131893559
 20
604.4861214381497803
 30
0.0
 40
0.0798781262253188
 50
177.0066720221026912
 51
270.8912049506047879
  0
LINE
  5
25D8E
  8
0
 10
4728.0712529708871443
 20
604.4902926472798299
 30
0.0
 11
4728.0713182760882773
 21
606.857387863980307
 31
0.0
  0
ARC
  5
25D8F
  8
0
 10
4724.5025253304056605
 20
624.6927672460625445
 30
0.0
 40
0.082590736034968
 50
98.7086293287308223
 51
176.0578882937666947
  0
LINE
  5
25D90
  8
0
 10
4724.4900202921871823
 20
624.7744058012798405
 30
0.0
 11
4731.1881146736131996
 21
624.7767343419523058
 31
0.0
  0
LINE
  5
25D91
  8
0
 10
4731.1881146759869807
 20
622.245731687738953
 30
0.0
 11
4724.4965169422866893
 21
622.243405405479848
 31
0.0
  0
ARC
  5
25D92
  8
0
 10
4724.5057790158143689
 20
622.3288460591865032
 30
0.0
 40
0.0859412084614658
 50
184.6514972331663103
 51
263.8130911929200124
  0
LINE
  5
25D93
  8
0
 10
4724.4201208638878597
 20
622.3218766746798565
 30
0.0
 11
4724.4201300024878947
 21
624.6984452400797636
 31
0.0
  0
ARC
  5
25D94
  8
0
 10
4732.6543361499452658
 20
622.6155160694860342
 30
0.0
 40
1.4985765344588109
 50
180.7402684163834863
 51
191.0635674596516083
  0
LINE
  5
25D95
  8
0
 10
4731.1558846920870565
 20
622.5961548176829865
 30
0.0
 11
4731.1558956258559192
 21
624.4241612982331162
 31
0.0
  0
ARC
  5
25D96
  8
0
 10
4732.6840179404589435
 20
624.4018302280286434
 30
0.0
 40
1.528285472379052
 50
169.0872382839027068
 51
179.1627731654062075
  0
ARC
  5
25D97
  8
0
 10
4724.5025253304056605
 20
619.5966672460625659
 30
0.0
 40
0.082590736034968
 50
98.7086293287308223
 51
176.0578882937666947
  0
LINE
  5
25D98
  8
0
 10
4724.4900202921871823
 20
619.6783058012797483
 30
0.0
 11
4731.1881146764872028
 21
619.6806343419533505
 31
0.0
  0
LINE
  5
25D99
  8
0
 10
4731.1881146764681034
 20
617.1496316877392019
 30
0.0
 11
4724.4965169422866893
 21
617.1473054054797558
 31
0.0
  0
ARC
  5
25D9A
  8
0
 10
4724.5057790158143689
 20
617.2327460591865247
 30
0.0
 40
0.0859412084614658
 50
184.6514972331663103
 51
263.8130911929200124
  0
LINE
  5
25D9B
  8
0
 10
4724.4201208638878597
 20
617.2257766746797643
 30
0.0
 11
4724.4201300024878947
 21
619.6023452400797851
 31
0.0
  0
ARC
  5
25D9C
  8
0
 10
4732.6543361499452658
 20
617.5194160694860557
 30
0.0
 40
1.4985765344588109
 50
180.7402684163834863
 51
191.0635674596516083
  0
LINE
  5
25D9D
  8
0
 10
4731.1558846920870565
 20
617.5000548176828943
 30
0.0
 11
4731.1558956258559192
 21
619.3280612982331377
 31
0.0
  0
ARC
  5
25D9E
  8
0
 10
4732.6840179404589435
 20
619.3057302280286649
 30
0.0
 40
1.5282854723790551
 50
169.0872382839027068
 51
179.1627731654029105
  0
ARC
  5
25D9F
  8
0
 10
4724.5025253304056605
 20
614.5005672460625874
 30
0.0
 40
0.082590736034968
 50
98.7086293287308223
 51
176.0578882937666947
  0
LINE
  5
25DA0
  8
0
 10
4724.4900202921871823
 20
614.5822058012797697
 30
0.0
 11
4731.1881146764862933
 21
614.5845343419533719
 31
0.0
  0
LINE
  5
25DA1
  8
0
 10
4731.1881053704200895
 20
612.0535316845039233
 30
0.0
 11
4724.4965169422866893
 21
612.0512054054798909
 31
0.0
  0
ARC
  5
25DA2
  8
0
 10
4724.5057790158143689
 20
612.1366460591865462
 30
0.0
 40
0.0859412084614658
 50
184.6514972331663103
 51
263.8130911929200124
  0
LINE
  5
25DA3
  8
0
 10
4724.4201208638878597
 20
612.1296766746798994
 30
0.0
 11
4724.4201300024878947
 21
614.5062452400796928
 31
0.0
  0
ARC
  5
25DA4
  8
0
 10
4732.6543361499452658
 20
612.4233160694858498
 30
0.0
 40
1.4985765344588109
 50
180.7402684163834863
 51
191.0635674596516083
  0
LINE
  5
25DA5
  8
0
 10
4731.1558846920870565
 20
612.4039548176830294
 30
0.0
 11
4731.1558956258559192
 21
614.2319612982331591
 31
0.0
  0
ARC
  5
25DA6
  8
0
 10
4732.6840179404589435
 20
614.2096302280288
 30
0.0
 40
1.5282854723791039
 50
169.0872382839027068
 51
179.1627731654029105
  0
ARC
  5
25DA7
  8
0
 10
4724.5025253304056605
 20
609.4044672460626089
 30
0.0
 40
0.082590736034968
 50
98.7086293287308223
 51
176.0578882937666947
  0
LINE
  5
25DA8
  8
0
 10
4724.4900202921871823
 20
609.4861058012797912
 30
0.0
 11
4731.1881050281062926
 21
609.4884343385990633
 31
0.0
  0
LINE
  5
25DA9
  8
0
 10
4731.1881146759869807
 20
606.9574316877390174
 30
0.0
 11
4724.4965169422866893
 21
606.9551054054799124
 31
0.0
  0
ARC
  5
25DAA
  8
0
 10
4724.5057790158143689
 20
607.0405460591864539
 30
0.0
 40
0.0859412084614658
 50
184.6514972331663103
 51
263.8130911929200124
  0
LINE
  5
25DAB
  8
0
 10
4724.4201208638878597
 20
607.0335766746798072
 30
0.0
 11
4724.4201300024878947
 21
609.410145240079828
 31
0.0
  0
ARC
  5
25DAC
  8
0
 10
4732.6543361499452658
 20
607.3272160694859849
 30
0.0
 40
1.4985765344588109
 50
180.7402684163834863
 51
191.0635674596516083
  0
LINE
  5
25DAD
  8
0
 10
4731.1558846920870565
 20
607.3078548176830509
 30
0.0
 11
4731.1558956258559192
 21
609.1358612982331806
 31
0.0
  0
ARC
  5
25DAE
  8
0
 10
4732.6840179404589435
 20
609.1135302280287078
 30
0.0
 40
1.528285472379417
 50
169.0872382839027068
 51
179.1627731653996989
  0
ARC
  5
25DAF
  8
0
 10
4724.5025253304056605
 20
604.3083672460626303
 30
0.0
 40
0.082590736034968
 50
98.7086293287308223
 51
176.0578882937666947
  0
LINE
  5
25DB0
  8
0
 10
4724.4900202921871823
 20
604.390005801279699
 30
0.0
 11
4731.1881146777514004
 21
604.3923343419537559
 31
0.0
  0
LINE
  5
25DB1
  8
0
 10
4731.1881149030041342
 20
601.8613316878179376
 30
0.0
 11
4724.4965169422866893
 21
601.8590054054798202
 31
0.0
  0
ARC
  5
25DB2
  8
0
 10
4724.5057790158143689
 20
601.9444460591864754
 30
0.0
 40
0.0859412084614658
 50
184.6514972331663103
 51
263.8130911929200124
  0
LINE
  5
25DB3
  8
0
 10
4724.4201208638878597
 20
601.9374766746798286
 30
0.0
 11
4724.4201300024878947
 21
604.3140452400798495
 31
0.0
  0
ARC
  5
25DB4
  8
0
 10
4732.6543361499452658
 20
602.2311160694860064
 30
0.0
 40
1.4985765344588109
 50
180.7402684163834863
 51
191.0635674596516083
  0
LINE
  5
25DB5
  8
0
 10
4731.1558846920870565
 20
602.211754817682845
 30
0.0
 11
4731.1558956258559192
 21
604.0397612982330884
 31
0.0
  0
ARC
  5
25DB6
  8
0
 10
4732.6840179404589435
 20
604.0174302280287293
 30
0.0
 40
1.528285472379175
 50
169.0872382839027068
 51
179.1627731654029105
  0
LINE
  5
25DB7
  8
0
 10
4731.1881146730602268
 20
624.7907869907796794
 30
0.0
 11
4731.1881146759869807
 21
624.7163357507535011
 31
0.0
  0
LINE
  5
25DB8
  8
0
 10
4731.1881146759869807
 20
624.7163357507535011
 30
0.0
 11
4731.1833691108877247
 21
624.6911562990796938
 31
0.0
  0
LINE
  5
25DB9
  8
0
 10
4731.1881146759869807
 20
622.2295067668211459
 30
0.0
 11
4731.1881146759869807
 21
622.3040788748796786
 31
0.0
  0
LINE
  5
25DBA
  8
0
 10
4731.1881146759869807
 20
622.3040788748796786
 30
0.0
 11
4731.1836108340376086
 21
622.3279422967297023
 31
0.0
  0
LINE
  5
25DBB
  8
0
 10
4731.1881146766027086
 20
619.6946869907724249
 30
0.0
 11
4731.1881146759869807
 21
619.620235591179835
 31
0.0
  0
LINE
  5
25DBC
  8
0
 10
4731.1881146759869807
 20
619.620235591179835
 30
0.0
 11
4731.1833691108877247
 21
619.5950562990798289
 31
0.0
  0
LINE
  5
25DBD
  8
0
 10
4731.1881146766008897
 20
617.1334067667205545
 30
0.0
 11
4731.1881146759869807
 21
617.2079788748797
 31
0.0
  0
LINE
  5
25DBE
  8
0
 10
4731.1881146759869807
 20
617.2079788748797
 30
0.0
 11
4731.1836108340376086
 21
617.231842296728928
 31
0.0
  0
LINE
  5
25DBF
  8
0
 10
4731.1881146766008897
 20
614.5985869908420227
 30
0.0
 11
4731.1881146759869807
 21
614.5241355911798564
 31
0.0
  0
LINE
  5
25DC0
  8
0
 10
4731.1881146759869807
 20
614.5241355911798564
 30
0.0
 11
4731.1833691108877247
 21
614.4989562990798504
 31
0.0
  0
LINE
  5
25DC1
  8
0
 10
4731.1881027827703292
 20
612.0373067659301114
 30
0.0
 11
4731.1881146759869807
 21
612.1118788748798352
 31
0.0
  0
LINE
  5
25DC2
  8
0
 10
4731.1881146759869807
 20
612.1118788748798352
 30
0.0
 11
4731.1836108340376086
 21
612.1357422967289494
 31
0.0
  0
LINE
  5
25DC3
  8
0
 10
4731.1881027833851476
 20
609.5024869898896895
 30
0.0
 11
4731.1881146759869807
 21
609.4280355911798779
 31
0.0
  0
LINE
  5
25DC4
  8
0
 10
4731.1881146759869807
 20
609.4280355911798779
 30
0.0
 11
4731.1833691108877247
 21
609.4028562990797582
 31
0.0
  0
LINE
  5
25DC5
  8
0
 10
4731.1881146759869807
 20
606.9412067675798426
 30
0.0
 11
4731.1881146759869807
 21
607.0157788748798566
 31
0.0
  0
LINE
  5
25DC6
  8
0
 10
4731.1881146759869807
 20
607.0157788748798566
 30
0.0
 11
4731.1836108334309756
 21
607.0396422998308026
 31
0.0
  0
LINE
  5
25DC7
  8
0
 10
4731.1881146766008897
 20
604.4063869908463857
 30
0.0
 11
4731.1881146826863187
 21
604.3319356259796677
 31
0.0
  0
LINE
  5
25DC8
  8
0
 10
4731.1881146826863187
 20
604.3319356259796677
 30
0.0
 11
4731.1833691108877247
 21
604.3067562990798933
 31
0.0
  0
LINE
  5
25DC9
  8
0
 10
4731.1831430331112642
 20
601.7723687271871995
 30
0.0
 11
4731.1881149087839731
 21
601.7966766055168364
 31
0.0
  0
LINE
  5
25DCA
  8
0
 10
4731.1881149087839731
 20
601.7966766055168364
 30
0.0
 11
4731.1881148977872726
 21
601.9196777172797965
 31
0.0
  0
LINE
  5
25DCB
  8
0
 10
4731.1881148977872726
 20
601.9196777172797965
 30
0.0
 11
4731.1836108340376086
 21
601.9435422967286513
 31
0.0
  0
ARC
  5
25DCC
  8
0
 10
4732.6004221031698762
 20
601.4785102336497857
 30
0.0
 40
1.447422805074277
 50
168.2862739863302863
 51
179.4780272873441902
  0
LINE
  5
25DCD
  8
0
 10
4731.1530593618872444
 20
601.4916962791796777
 30
0.0
 11
4731.1530593618872444
 21
599.6636962791797032
 31
0.0
  0
ARC
  5
25DCE
  8
0
 10
4732.7369886398064409
 20
599.6896016069657662
 30
0.0
 40
1.584141105917636
 50
180.9369948830079124
 51
193.6039619736496036
  0
LINE
  5
25DCF
  8
0
 10
4731.0187551583867389
 20
601.8452945903796945
 30
0.0
 11
4674.0011920007873414
 21
601.8452945903796945
 31
0.0
  0
ARC
  5
25DD0
  8
0
 10
4731.0130943409440079
 20
600.2740664753433748
 30
0.0
 40
1.5712383123939999
 50
86.0320775262706547
 51
89.7935757757743431
  0
LINE
  5
25DD1
  8
0
 10
4730.9889036944869076
 20
599.3779531702798522
 30
0.0
 11
4674.0310407419246985
 21
599.3779531702798522
 31
0.0
  0
ARC
  5
25DD2
  8
0
 10
4730.5741445704652506
 20
553.5672316471349177
 30
0.0
 40
45.8125990487561694
 50
89.2369514716125565
 51
89.481272129122658
  0
ARC
  5
25DD3
  8
0
 10
4702.5992829852348223
 20
599.2122111855547928
 30
0.0
 40
0.0826573140842531
 50
98.7882941876517862
 51
176.0416938207403064
  0
LINE
  5
25DD4
  8
0
 10
4702.5866542756875788
 20
599.2938980710797523
 30
0.0
 11
4709.7343926346866283
 21
599.2938966148798272
 31
0.0
  0
ARC
  5
25DD5
  8
0
 10
4709.7217766333778854
 20
599.212229481457598
 30
0.0
 40
0.0826358528148742
 50
3.9639699068362289
 51
81.218321251867124
  0
LINE
  5
25DD6
  8
0
 10
4709.8042147980067966
 20
599.2179420275625716
 30
0.0
 11
4709.804224312729275
 21
596.8413766933878151
 31
0.0
  0
ARC
  5
25DD7
  8
0
 10
4709.7217463327269797
 20
596.8470989698608946
 30
0.0
 40
0.0826762458821125
 50
278.7987771596701805
 51
356.0312104063303877
  0
LINE
  5
25DD8
  8
0
 10
4709.7343928835871338
 20
596.7653956872798062
 30
0.0
 11
4702.5866545275857789
 21
596.7656467994797822
 31
0.0
  0
ARC
  5
25DD9
  8
0
 10
4702.5987246811046134
 20
596.8468299776568529
 30
0.0
 40
0.0820755568051146
 50
183.8293813992409014
 51
261.5433263201658178
  0
LINE
  5
25DDA
  8
0
 10
4702.5168323701500412
 20
596.8413485151074838
 30
0.0
 11
4702.5168228462443949
 21
599.217917064045082
 31
0.0
  0
ARC
  5
25DDB
  8
0
 10
4709.9003829852335912
 20
599.2122111855547928
 30
0.0
 40
0.0826573140842531
 50
98.7882941876517862
 51
176.0416938207403064
  0
LINE
  5
25DDC
  8
0
 10
4709.8877542756872572
 20
599.2938980710797523
 30
0.0
 11
4717.0354926346872162
 21
599.2938966148798272
 31
0.0
  0
ARC
  5
25DDD
  8
0
 10
4717.0228766333775638
 20
599.212229481457598
 30
0.0
 40
0.0826358528148742
 50
3.9639699068362289
 51
81.218321251867124
  0
LINE
  5
25DDE
  8
0
 10
4717.1053147980073845
 20
599.2179420275625716
 30
0.0
 11
4717.1053243127280439
 21
596.8413766933877014
 31
0.0
  0
ARC
  5
25DDF
  8
0
 10
4717.0228463327266581
 20
596.8470989698608946
 30
0.0
 40
0.0826762458821125
 50
278.7987771596701805
 51
356.0312104063303877
  0
LINE
  5
25DE0
  8
0
 10
4717.0354928835877217
 20
596.7653956872798062
 30
0.0
 11
4709.8877545275881857
 21
596.7656467994797822
 31
0.0
  0
ARC
  5
25DE1
  8
0
 10
4709.8998246811042918
 20
596.8468299776568529
 30
0.0
 40
0.0820755568051146
 50
183.8293813992409014
 51
261.5433263201658178
  0
LINE
  5
25DE2
  8
0
 10
4709.8179323701506291
 20
596.8413485151074838
 30
0.0
 11
4709.8179228462440733
 21
599.217917064045082
 31
0.0
  0
ARC
  5
25DE3
  8
0
 10
4717.2014829852350886
 20
599.2122111855547928
 30
0.0
 40
0.0826573140842531
 50
98.7882941876517862
 51
176.0416938207403064
  0
LINE
  5
25DE4
  8
0
 10
4717.1888542756860261
 20
599.2938980710797523
 30
0.0
 11
4724.3365926346868946
 21
599.2938966148798272
 31
0.0
  0
ARC
  5
25DE5
  8
0
 10
4724.3239766333772423
 20
599.212229481457598
 30
0.0
 40
0.0826358528148742
 50
3.9639699068362289
 51
81.218321251867124
  0
LINE
  5
25DE6
  8
0
 10
4724.4064147980061534
 20
599.2179420275625716
 30
0.0
 11
4724.4064243127286318
 21
596.8413766933877014
 31
0.0
  0
ARC
  5
25DE7
  8
0
 10
4724.3239463327263365
 20
596.8470989698608946
 30
0.0
 40
0.0826762458821125
 50
278.7987771596701805
 51
356.0312104063303877
  0
LINE
  5
25DE8
  8
0
 10
4724.3365928835874001
 20
596.7653956872798062
 30
0.0
 11
4717.1888545275869546
 21
596.7656467994797822
 31
0.0
  0
ARC
  5
25DE9
  8
0
 10
4717.2009246811048797
 20
596.8468299776568529
 30
0.0
 40
0.0820755568051146
 50
183.8293813992409014
 51
261.5433263201658178
  0
LINE
  5
25DEA
  8
0
 10
4717.1190323701521265
 20
596.8413485151074838
 30
0.0
 11
4717.1190228462446612
 21
599.217917064045082
 31
0.0
  0
ARC
  5
25DEB
  8
0
 10
4720.8520329852335635
 20
596.6641611855545762
 30
0.0
 40
0.0826573140842531
 50
98.7882941876517862
 51
176.0416938207403064
  0
LINE
  5
25DEC
  8
0
 10
4720.8394042756872295
 20
596.745848071079763
 30
0.0
 11
4727.9871426346871885
 21
596.7458466148798379
 31
0.0
  0
ARC
  5
25DED
  8
0
 10
4727.9745266333784457
 20
596.6641794814576087
 30
0.0
 40
0.0826358528148742
 50
3.9639699068362289
 51
81.218321251867124
  0
LINE
  5
25DEE
  8
0
 10
4728.0569647980073569
 20
596.6698920275626961
 30
0.0
 11
4728.0569743127280162
 21
594.2933266933875984
 31
0.0
  0
ARC
  5
25DEF
  8
0
 10
4727.974496332725721
 20
594.299048969860678
 30
0.0
 40
0.0826762458821125
 50
278.7987771596701805
 51
356.0312104063303877
  0
LINE
  5
25DF0
  8
0
 10
4727.9871428835867846
 20
594.217345687279817
 30
0.0
 11
4720.8394045275872486
 21
594.2175967994796792
 31
0.0
  0
ARC
  5
25DF1
  8
0
 10
4720.8514746811033547
 20
594.2987799776568636
 30
0.0
 40
0.0820755568051146
 50
183.8293813992409014
 51
261.5433263201658178
  0
LINE
  5
25DF2
  8
0
 10
4720.7695823701506015
 20
594.2932985151074945
 30
0.0
 11
4720.7695728462431362
 21
596.6698670640449791
 31
0.0
  0
ARC
  5
25DF3
  8
0
 10
4713.5509329852338851
 20
596.6641611855545762
 30
0.0
 40
0.0826573140842531
 50
98.7882941876517862
 51
176.0416938207403064
  0
LINE
  5
25DF4
  8
0
 10
4713.5383042756866416
 20
596.745848071079763
 30
0.0
 11
4720.6860426346884196
 21
596.7458466148798379
 31
0.0
  0
ARC
  5
25DF5
  8
0
 10
4720.6734266333778578
 20
596.6641794814576087
 30
0.0
 40
0.0826358528148742
 50
3.9639699068362289
 51
81.218321251867124
  0
LINE
  5
25DF6
  8
0
 10
4720.755864798006769
 20
596.6698920275626961
 30
0.0
 11
4720.7558743127292473
 21
594.2933266933875984
 31
0.0
  0
ARC
  5
25DF7
  8
0
 10
4720.6733963327269521
 20
594.299048969860678
 30
0.0
 40
0.0826762458821125
 50
278.7987771596701805
 51
356.0312104063303877
  0
LINE
  5
25DF8
  8
0
 10
4720.6860428835871062
 20
594.217345687279817
 30
0.0
 11
4713.5383045275857512
 21
594.2175967994796792
 31
0.0
  0
ARC
  5
25DF9
  8
0
 10
4713.5503746811036763
 20
594.2987799776568636
 30
0.0
 40
0.0820755568051146
 50
183.8293813992409014
 51
261.5433263201658178
  0
LINE
  5
25DFA
  8
0
 10
4713.4684823701509231
 20
594.2932985151074945
 30
0.0
 11
4713.4684728462443672
 21
596.6698670640449791
 31
0.0
  0
ARC
  5
25DFB
  8
0
 10
4706.2498329852351162
 20
596.6641611855545762
 30
0.0
 40
0.0826573140842531
 50
98.7882941876517862
 51
176.0416938207403064
  0
LINE
  5
25DFC
  8
0
 10
4706.2372042756860537
 20
596.745848071079763
 30
0.0
 11
4713.3849426346869222
 21
596.7458466148798379
 31
0.0
  0
ARC
  5
25DFD
  8
0
 10
4713.3723266333781794
 20
596.6641794814576087
 30
0.0
 40
0.0826358528148742
 50
3.9639699068362289
 51
81.218321251867124
  0
LINE
  5
25DFE
  8
0
 10
4713.4547647980070906
 20
596.6698920275626961
 30
0.0
 11
4713.4547743127286594
 21
594.2933266933875984
 31
0.0
  0
ARC
  5
25DFF
  8
0
 10
4713.3722963327263642
 20
594.299048969860678
 30
0.0
 40
0.0826762458821125
 50
278.7987771596701805
 51
356.0312104063303877
  0
LINE
  5
25E00
  8
0
 10
4713.3849428835874278
 20
594.217345687279817
 30
0.0
 11
4706.2372045275869823
 21
594.2175967994796792
 31
0.0
  0
ARC
  5
25E01
  8
0
 10
4706.2492746811049074
 20
594.2987799776568636
 30
0.0
 40
0.0820755568051146
 50
183.8293813992409014
 51
261.5433263201658178
  0
LINE
  5
25E02
  8
0
 10
4706.1673823701512447
 20
594.2932985151074945
 30
0.0
 11
4706.1673728462437793
 21
596.6698670640449791
 31
0.0
  0
ARC
  5
25E03
  8
0
 10
4702.5992829852348223
 20
594.1161111855547006
 30
0.0
 40
0.0826573140842531
 50
98.7882941876517862
 51
176.0416938207403064
  0
LINE
  5
25E04
  8
0
 10
4702.5866542756875788
 20
594.1977980710796601
 30
0.0
 11
4709.7343926346866283
 21
594.1977966148798487
 31
0.0
  0
ARC
  5
25E05
  8
0
 10
4709.7217766333778854
 20
594.1161294814576195
 30
0.0
 40
0.0826358528148742
 50
3.9639699068362289
 51
81.218321251867124
  0
LINE
  5
25E06
  8
0
 10
4709.8042147980067966
 20
594.1218420275624794
 30
0.0
 11
4709.804224312729275
 21
591.7452766933877228
 31
0.0
  0
ARC
  5
25E07
  8
0
 10
4709.7217463327269797
 20
591.7509989698608024
 30
0.0
 40
0.0826762458821125
 50
278.7987771596701805
 51
356.0312104063303877
  0
LINE
  5
25E08
  8
0
 10
4709.7343928835871338
 20
591.6692956872798277
 30
0.0
 11
4702.5866545275857789
 21
591.6695467994798037
 31
0.0
  0
ARC
  5
25E09
  8
0
 10
4702.5987246811046134
 20
591.750729977656988
 30
0.0
 40
0.0820755568051146
 50
183.8293813992409014
 51
261.5433263201658178
  0
LINE
  5
25E0A
  8
0
 10
4702.5168323701500412
 20
591.7452485151073915
 30
0.0
 11
4702.5168228462443949
 21
594.1218170640451035
 31
0.0
  0
ARC
  5
25E0B
  8
0
 10
4709.9003829852335912
 20
594.1161111855547006
 30
0.0
 40
0.0826573140842531
 50
98.7882941876517862
 51
176.0416938207403064
  0
LINE
  5
25E0C
  8
0
 10
4709.8877542756872572
 20
594.1977980710796601
 30
0.0
 11
4717.0354926346872162
 21
594.1977966148798487
 31
0.0
  0
ARC
  5
25E0D
  8
0
 10
4717.0228766333775638
 20
594.1161294814576195
 30
0.0
 40
0.0826358528148742
 50
3.9639699068362289
 51
81.218321251867124
  0
LINE
  5
25E0E
  8
0
 10
4717.1053147980073845
 20
594.1218420275624794
 30
0.0
 11
4717.1053243127280439
 21
591.7452766933877228
 31
0.0
  0
ARC
  5
25E0F
  8
0
 10
4717.0228463327266581
 20
591.7509989698608024
 30
0.0
 40
0.0826762458821125
 50
278.7987771596701805
 51
356.0312104063303877
  0
LINE
  5
25E10
  8
0
 10
4717.0354928835877217
 20
591.6692956872798277
 30
0.0
 11
4709.8877545275881857
 21
591.6695467994798037
 31
0.0
  0
ARC
  5
25E11
  8
0
 10
4709.8998246811042918
 20
591.750729977656988
 30
0.0
 40
0.0820755568051146
 50
183.8293813992409014
 51
261.5433263201658178
  0
LINE
  5
25E12
  8
0
 10
4709.8179323701506291
 20
591.7452485151073915
 30
0.0
 11
4709.8179228462440733
 21
594.1218170640451035
 31
0.0
  0
ARC
  5
25E13
  8
0
 10
4717.2014829852350886
 20
594.1161111855547006
 30
0.0
 40
0.0826573140842531
 50
98.7882941876517862
 51
176.0416938207403064
  0
LINE
  5
25E14
  8
0
 10
4717.1888542756860261
 20
594.1977980710796601
 30
0.0
 11
4724.3365926346868946
 21
594.1977966148798487
 31
0.0
  0
ARC
  5
25E15
  8
0
 10
4724.3239766333772423
 20
594.1161294814576195
 30
0.0
 40
0.0826358528148742
 50
3.9639699068362289
 51
81.218321251867124
  0
LINE
  5
25E16
  8
0
 10
4724.4064147980061534
 20
594.1218420275624794
 30
0.0
 11
4724.4064243127286318
 21
591.7452766933877228
 31
0.0
  0
ARC
  5
25E17
  8
0
 10
4724.3239463327263365
 20
591.7509989698608024
 30
0.0
 40
0.0826762458821125
 50
278.7987771596701805
 51
356.0312104063303877
  0
LINE
  5
25E18
  8
0
 10
4724.3365928835874001
 20
591.6692956872798277
 30
0.0
 11
4717.1888545275869546
 21
591.6695467994798037
 31
0.0
  0
ARC
  5
25E19
  8
0
 10
4717.2009246811048797
 20
591.750729977656988
 30
0.0
 40
0.0820755568051146
 50
183.8293813992409014
 51
261.5433263201658178
  0
LINE
  5
25E1A
  8
0
 10
4717.1190323701521265
 20
591.7452485151073915
 30
0.0
 11
4717.1190228462446612
 21
594.1218170640451035
 31
0.0
  0
ARC
  5
25E1B
  8
0
 10
4706.2498329852351162
 20
591.5680611855547113
 30
0.0
 40
0.0826573140842531
 50
98.7882941876517862
 51
176.0416938207403064
  0
LINE
  5
25E1C
  8
0
 10
4706.2372042756860537
 20
591.6497480710797845
 30
0.0
 11
4713.3849426346869222
 21
591.6497466148797457
 31
0.0
  0
ARC
  5
25E1D
  8
0
 10
4713.3723266333781794
 20
591.5680794814575165
 30
0.0
 40
0.0826358528148742
 50
3.9639699068362289
 51
81.218321251867124
  0
LINE
  5
25E1E
  8
0
 10
4713.4547647980070906
 20
591.5737920275627175
 30
0.0
 11
4713.4547743127286594
 21
589.1972266933877336
 31
0.0
  0
ARC
  5
25E1F
  8
0
 10
4713.3722963327263642
 20
589.2029489698606994
 30
0.0
 40
0.0826762458821125
 50
278.7987771596701805
 51
356.0312104063303877
  0
LINE
  5
25E20
  8
0
 10
4713.3849428835874278
 20
589.1212456872798384
 30
0.0
 11
4706.2372045275869823
 21
589.1214967994797007
 31
0.0
  0
ARC
  5
25E21
  8
0
 10
4706.2492746811049074
 20
589.2026799776568851
 30
0.0
 40
0.0820755568051146
 50
183.8293813992409014
 51
261.5433263201658178
  0
LINE
  5
25E22
  8
0
 10
4706.1673823701512447
 20
589.197198515107516
 30
0.0
 11
4706.1673728462437793
 21
591.5737670640448869
 31
0.0
  0
ARC
  5
25E23
  8
0
 10
4713.5509329852338851
 20
591.5680611855547113
 30
0.0
 40
0.0826573140842531
 50
98.7882941876517862
 51
176.0416938207403064
  0
LINE
  5
25E24
  8
0
 10
4713.5383042756866416
 20
591.6497480710797845
 30
0.0
 11
4720.6860426346884196
 21
591.6497466148797457
 31
0.0
  0
ARC
  5
25E25
  8
0
 10
4720.6734266333778578
 20
591.5680794814575165
 30
0.0
 40
0.0826358528148742
 50
3.9639699068362289
 51
81.218321251867124
  0
LINE
  5
25E26
  8
0
 10
4720.755864798006769
 20
591.5737920275627175
 30
0.0
 11
4720.7558743127292473
 21
589.1972266933877336
 31
0.0
  0
ARC
  5
25E27
  8
0
 10
4720.6733963327269521
 20
589.2029489698606994
 30
0.0
 40
0.0826762458821125
 50
278.7987771596701805
 51
356.0312104063303877
  0
LINE
  5
25E28
  8
0
 10
4720.6860428835871062
 20
589.1212456872798384
 30
0.0
 11
4713.5383045275857512
 21
589.1214967994797007
 31
0.0
  0
ARC
  5
25E29
  8
0
 10
4713.5503746811036763
 20
589.2026799776568851
 30
0.0
 40
0.0820755568051146
 50
183.8293813992409014
 51
261.5433263201658178
  0
LINE
  5
25E2A
  8
0
 10
4713.4684823701509231
 20
589.197198515107516
 30
0.0
 11
4713.4684728462443672
 21
591.5737670640448869
 31
0.0
  0
ARC
  5
25E2B
  8
0
 10
4720.8520329852335635
 20
591.5680611855547113
 30
0.0
 40
0.0826573140842531
 50
98.7882941876517862
 51
176.0416938207403064
  0
LINE
  5
25E2C
  8
0
 10
4720.8394042756872295
 20
591.6497480710797845
 30
0.0
 11
4727.9871426346871885
 21
591.6497466148797457
 31
0.0
  0
ARC
  5
25E2D
  8
0
 10
4727.9745266333784457
 20
591.5680794814575165
 30
0.0
 40
0.0826358528148742
 50
3.9639699068362289
 51
81.218321251867124
  0
LINE
  5
25E2E
  8
0
 10
4728.0569647980073569
 20
591.5737920275627175
 30
0.0
 11
4728.0569743127280162
 21
589.1972266933877336
 31
0.0
  0
ARC
  5
25E2F
  8
0
 10
4727.974496332725721
 20
589.2029489698606994
 30
0.0
 40
0.0826762458821125
 50
278.7987771596701805
 51
356.0312104063303877
  0
LINE
  5
25E30
  8
0
 10
4727.9871428835867846
 20
589.1212456872798384
 30
0.0
 11
4720.8394045275872486
 21
589.1214967994797007
 31
0.0
  0
ARC
  5
25E31
  8
0
 10
4720.8514746811033547
 20
589.2026799776568851
 30
0.0
 40
0.0820755568051146
 50
183.8293813992409014
 51
261.5433263201658178
  0
LINE
  5
25E32
  8
0
 10
4720.7695823701506015
 20
589.197198515107516
 30
0.0
 11
4720.7695728462431362
 21
591.5737670640448869
 31
0.0
  0
ARC
  5
25E33
  8
0
 10
4702.5992829852348223
 20
589.020011185554722
 30
0.0
 40
0.0826573140842531
 50
98.7882941876517862
 51
176.0416938207403064
  0
LINE
  5
25E34
  8
0
 10
4702.5866542756875788
 20
589.1016980710797952
 30
0.0
 11
4709.7343926346866283
 21
589.1016966148797565
 31
0.0
  0
ARC
  5
25E35
  8
0
 10
4709.7217766333778854
 20
589.0200294814576409
 30
0.0
 40
0.0826358528148742
 50
3.9639699068362289
 51
81.218321251867124
  0
LINE
  5
25E36
  8
0
 10
4709.8042147980067966
 20
589.0257420275625009
 30
0.0
 11
4709.804224312729275
 21
586.6491766933877443
 31
0.0
  0
ARC
  5
25E37
  8
0
 10
4709.7217463327269797
 20
586.6548989698608239
 30
0.0
 40
0.0826762458821125
 50
278.7987771596701805
 51
356.0312104063303877
  0
LINE
  5
25E38
  8
0
 10
4709.7343928835871338
 20
586.5731956872798492
 30
0.0
 11
4702.5866545275857789
 21
586.5734467994798251
 31
0.0
  0
ARC
  5
25E39
  8
0
 10
4702.5987246811046134
 20
586.6546299776570095
 30
0.0
 40
0.0820755568051146
 50
183.8293813992409014
 51
261.5433263201658178
  0
LINE
  5
25E3A
  8
0
 10
4702.5168323701500412
 20
586.6491485151075267
 30
0.0
 11
4702.5168228462443949
 21
589.025717064045125
 31
0.0
  0
ARC
  5
25E3B
  8
0
 10
4709.9003829852335912
 20
589.020011185554722
 30
0.0
 40
0.0826573140842531
 50
98.7882941876517862
 51
176.0416938207403064
  0
LINE
  5
25E3C
  8
0
 10
4709.8877542756872572
 20
589.1016980710797952
 30
0.0
 11
4717.0354926346872162
 21
589.1016966148797565
 31
0.0
  0
ARC
  5
25E3D
  8
0
 10
4717.0228766333775638
 20
589.0200294814576409
 30
0.0
 40
0.0826358528148742
 50
3.9639699068362289
 51
81.218321251867124
  0
LINE
  5
25E3E
  8
0
 10
4717.1053147980073845
 20
589.0257420275625009
 30
0.0
 11
4717.1053243127280439
 21
586.6491766933877443
 31
0.0
  0
ARC
  5
25E3F
  8
0
 10
4717.0228463327266581
 20
586.6548989698608239
 30
0.0
 40
0.0826762458821125
 50
278.7987771596701805
 51
356.0312104063303877
  0
LINE
  5
25E40
  8
0
 10
4717.0354928835877217
 20
586.5731956872798492
 30
0.0
 11
4709.8877545275881857
 21
586.5734467994798251
 31
0.0
  0
ARC
  5
25E41
  8
0
 10
4709.8998246811042918
 20
586.6546299776570095
 30
0.0
 40
0.0820755568051146
 50
183.8293813992409014
 51
261.5433263201658178
  0
LINE
  5
25E42
  8
0
 10
4709.8179323701506291
 20
586.6491485151075267
 30
0.0
 11
4709.8179228462440733
 21
589.025717064045125
 31
0.0
  0
ARC
  5
25E43
  8
0
 10
4717.2014829852350886
 20
589.020011185554722
 30
0.0
 40
0.0826573140842531
 50
98.7882941876517862
 51
176.0416938207403064
  0
LINE
  5
25E44
  8
0
 10
4717.1888542756860261
 20
589.1016980710797952
 30
0.0
 11
4724.3365926346868946
 21
589.1016966148797565
 31
0.0
  0
ARC
  5
25E45
  8
0
 10
4724.3239766333772423
 20
589.0200294814576409
 30
0.0
 40
0.0826358528148742
 50
3.9639699068362289
 51
81.218321251867124
  0
LINE
  5
25E46
  8
0
 10
4724.4064147980061534
 20
589.0257420275625009
 30
0.0
 11
4724.4064243127286318
 21
586.6491766933877443
 31
0.0
  0
ARC
  5
25E47
  8
0
 10
4724.3239463327263365
 20
586.6548989698608239
 30
0.0
 40
0.0826762458821125
 50
278.7987771596701805
 51
356.0312104063303877
  0
LINE
  5
25E48
  8
0
 10
4724.3365928835874001
 20
586.5731956872798492
 30
0.0
 11
4717.1888545275869546
 21
586.5734467994798251
 31
0.0
  0
ARC
  5
25E49
  8
0
 10
4717.2009246811048797
 20
586.6546299776570095
 30
0.0
 40
0.0820755568051146
 50
183.8293813992409014
 51
261.5433263201658178
  0
LINE
  5
25E4A
  8
0
 10
4717.1190323701521265
 20
586.6491485151075267
 30
0.0
 11
4717.1190228462446612
 21
589.025717064045125
 31
0.0
  0
ARC
  5
25E4B
  8
0
 10
4706.2498329852351162
 20
586.4719611855547328
 30
0.0
 40
0.0826573140842531
 50
98.7882941876517862
 51
176.0416938207403064
  0
LINE
  5
25E4C
  8
0
 10
4706.2372042756860537
 20
586.5536480710796923
 30
0.0
 11
4713.3849426346869222
 21
586.5536466148796535
 31
0.0
  0
ARC
  5
25E4D
  8
0
 10
4713.3723266333781794
 20
586.4719794814576517
 30
0.0
 40
0.0826358528148742
 50
3.9639699068362289
 51
81.218321251867124
  0
LINE
  5
25E4E
  8
0
 10
4713.4547647980070906
 20
586.4776920275626253
 30
0.0
 11
4713.4547743127286594
 21
584.101126693387755
 31
0.0
  0
ARC
  5
25E4F
  8
0
 10
4713.3722963327263642
 20
584.1068489698608346
 30
0.0
 40
0.0826762458821125
 50
278.7987771596701805
 51
356.0312104063303877
  0
LINE
  5
25E50
  8
0
 10
4713.3849428835874278
 20
584.0251456872797462
 30
0.0
 11
4706.2372045275869823
 21
584.0253967994798359
 31
0.0
  0
ARC
  5
25E51
  8
0
 10
4706.2492746811049074
 20
584.1065799776567928
 30
0.0
 40
0.0820755568051146
 50
183.8293813992409014
 51
261.5433263201658178
  0
LINE
  5
25E52
  8
0
 10
4706.1673823701512447
 20
584.1010985151075374
 30
0.0
 11
4706.1673728462437793
 21
586.477667064045022
 31
0.0
  0
ARC
  5
25E53
  8
0
 10
4713.5509329852338851
 20
586.4719611855547328
 30
0.0
 40
0.0826573140842531
 50
98.7882941876517862
 51
176.0416938207403064
  0
LINE
  5
25E54
  8
0
 10
4713.5383042756866416
 20
586.5536480710796923
 30
0.0
 11
4720.6860426346884196
 21
586.5536466148796535
 31
0.0
  0
ARC
  5
25E55
  8
0
 10
4720.6734266333778578
 20
586.4719794814576517
 30
0.0
 40
0.0826358528148742
 50
3.9639699068362289
 51
81.218321251867124
  0
LINE
  5
25E56
  8
0
 10
4720.755864798006769
 20
586.4776920275626253
 30
0.0
 11
4720.7558743127292473
 21
584.101126693387755
 31
0.0
  0
ARC
  5
25E57
  8
0
 10
4720.6733963327269521
 20
584.1068489698608346
 30
0.0
 40
0.0826762458821125
 50
278.7987771596701805
 51
356.0312104063303877
  0
LINE
  5
25E58
  8
0
 10
4720.6860428835871062
 20
584.0251456872797462
 30
0.0
 11
4713.5383045275857512
 21
584.0253967994798359
 31
0.0
  0
ARC
  5
25E59
  8
0
 10
4713.5503746811036763
 20
584.1065799776567928
 30
0.0
 40
0.0820755568051146
 50
183.8293813992409014
 51
261.5433263201658178
  0
LINE
  5
25E5A
  8
0
 10
4713.4684823701509231
 20
584.1010985151075374
 30
0.0
 11
4713.4684728462443672
 21
586.477667064045022
 31
0.0
  0
ARC
  5
25E5B
  8
0
 10
4720.8520329852335635
 20
586.4719611855547328
 30
0.0
 40
0.0826573140842531
 50
98.7882941876517862
 51
176.0416938207403064
  0
LINE
  5
25E5C
  8
0
 10
4720.8394042756872295
 20
586.5536480710796923
 30
0.0
 11
4727.9871426346871885
 21
586.5536466148796535
 31
0.0
  0
ARC
  5
25E5D
  8
0
 10
4727.9745266333784457
 20
586.4719794814576517
 30
0.0
 40
0.0826358528148742
 50
3.9639699068362289
 51
81.218321251867124
  0
LINE
  5
25E5E
  8
0
 10
4728.0569647980073569
 20
586.4776920275626253
 30
0.0
 11
4728.0569743127280162
 21
584.101126693387755
 31
0.0
  0
ARC
  5
25E5F
  8
0
 10
4727.974496332725721
 20
584.1068489698608346
 30
0.0
 40
0.0826762458821125
 50
278.7987771596701805
 51
356.0312104063303877
  0
LINE
  5
25E60
  8
0
 10
4727.9871428835867846
 20
584.0251456872797462
 30
0.0
 11
4720.8394045275872486
 21
584.0253967994798359
 31
0.0
  0
ARC
  5
25E61
  8
0
 10
4720.8514746811033547
 20
584.1065799776567928
 30
0.0
 40
0.0820755568051146
 50
183.8293813992409014
 51
261.5433263201658178
  0
LINE
  5
25E62
  8
0
 10
4720.7695823701506015
 20
584.1010985151075374
 30
0.0
 11
4720.7695728462431362
 21
586.477667064045022
 31
0.0
  0
ARC
  5
25E63
  8
0
 10
4717.2014829852350886
 20
583.9239111855547435
 30
0.0
 40
0.0826573140842531
 50
98.7882941876517862
 51
176.0416938207403064
  0
LINE
  5
25E64
  8
0
 10
4717.1888542756860261
 20
584.0055980710798167
 30
0.0
 11
4724.3365926346868946
 21
584.0055966148797779
 31
0.0
  0
ARC
  5
25E65
  8
0
 10
4724.3239766333772423
 20
583.9239294814575487
 30
0.0
 40
0.0826358528148742
 50
3.9639699068362289
 51
81.218321251867124
  0
LINE
  5
25E66
  8
0
 10
4724.4064147980061534
 20
583.929642027562636
 30
0.0
 11
4724.4064243127286318
 21
581.5530766933877658
 31
0.0
  0
ARC
  5
25E67
  8
0
 10
4724.3239463327263365
 20
581.5587989698608453
 30
0.0
 40
0.0826762458821125
 50
278.7987771596701805
 51
356.0312104063303877
  0
LINE
  5
25E68
  8
0
 10
4724.3365928835874001
 20
581.4770956872797569
 30
0.0
 11
4717.1888545275869546
 21
581.4773467994797329
 31
0.0
  0
ARC
  5
25E69
  8
0
 10
4717.2009246811048797
 20
581.5585299776570309
 30
0.0
 40
0.0820755568051146
 50
183.8293813992409014
 51
261.5433263201658178
  0
LINE
  5
25E6A
  8
0
 10
4717.1190323701521265
 20
581.5530485151075482
 30
0.0
 11
4717.1190228462446612
 21
583.9296170640450327
 31
0.0
  0
ARC
  5
25E6B
  8
0
 10
4709.9003829852335912
 20
583.9239111855547435
 30
0.0
 40
0.0826573140842531
 50
98.7882941876517862
 51
176.0416938207403064
  0
LINE
  5
25E6C
  8
0
 10
4709.8877542756872572
 20
584.0055980710798167
 30
0.0
 11
4717.0354926346872162
 21
584.0055966148797779
 31
0.0
  0
ARC
  5
25E6D
  8
0
 10
4717.0228766333775638
 20
583.9239294814575487
 30
0.0
 40
0.0826358528148742
 50
3.9639699068362289
 51
81.218321251867124
  0
LINE
  5
25E6E
  8
0
 10
4717.1053147980073845
 20
583.929642027562636
 30
0.0
 11
4717.1053243127280439
 21
581.5530766933877658
 31
0.0
  0
ARC
  5
25E6F
  8
0
 10
4717.0228463327266581
 20
581.5587989698608453
 30
0.0
 40
0.0826762458821125
 50
278.7987771596701805
 51
356.0312104063303877
  0
LINE
  5
25E70
  8
0
 10
4717.0354928835877217
 20
581.4770956872797569
 30
0.0
 11
4709.8877545275881857
 21
581.4773467994797329
 31
0.0
  0
ARC
  5
25E71
  8
0
 10
4709.8998246811042918
 20
581.5585299776570309
 30
0.0
 40
0.0820755568051146
 50
183.8293813992409014
 51
261.5433263201658178
  0
LINE
  5
25E72
  8
0
 10
4709.8179323701506291
 20
581.5530485151075482
 30
0.0
 11
4709.8179228462440733
 21
583.9296170640450327
 31
0.0
  0
ARC
  5
25E73
  8
0
 10
4702.5992829852348223
 20
583.9239111855547435
 30
0.0
 40
0.0826573140842531
 50
98.7882941876517862
 51
176.0416938207403064
  0
LINE
  5
25E74
  8
0
 10
4702.5866542756875788
 20
584.0055980710798167
 30
0.0
 11
4709.7343926346866283
 21
584.0055966148797779
 31
0.0
  0
ARC
  5
25E75
  8
0
 10
4709.7217766333778854
 20
583.9239294814575487
 30
0.0
 40
0.0826358528148742
 50
3.9639699068362289
 51
81.218321251867124
  0
LINE
  5
25E76
  8
0
 10
4709.8042147980067966
 20
583.929642027562636
 30
0.0
 11
4709.804224312729275
 21
581.5530766933877658
 31
0.0
  0
ARC
  5
25E77
  8
0
 10
4709.7217463327269797
 20
581.5587989698608453
 30
0.0
 40
0.0826762458821125
 50
278.7987771596701805
 51
356.0312104063303877
  0
LINE
  5
25E78
  8
0
 10
4709.7343928835871338
 20
581.4770956872797569
 30
0.0
 11
4702.5866545275857789
 21
581.4773467994797329
 31
0.0
  0
ARC
  5
25E79
  8
0
 10
4702.5987246811046134
 20
581.5585299776570309
 30
0.0
 40
0.0820755568051146
 50
183.8293813992409014
 51
261.5433263201658178
  0
LINE
  5
25E7A
  8
0
 10
4702.5168323701500412
 20
581.5530485151075482
 30
0.0
 11
4702.5168228462443949
 21
583.9296170640450327
 31
0.0
  0
ARC
  5
25E7B
  8
0
 10
4706.2498329852351162
 20
581.3758611855547542
 30
0.0
 40
0.0826573140842531
 50
98.7882941876517862
 51
176.0416938207403064
  0
LINE
  5
25E7C
  8
0
 10
4706.2372042756860537
 20
581.4575480710798274
 30
0.0
 11
4713.3849426346869222
 21
581.4575466148797886
 31
0.0
  0
ARC
  5
25E7D
  8
0
 10
4713.3723266333781794
 20
581.3758794814575595
 30
0.0
 40
0.0826358528148742
 50
3.9639699068362289
 51
81.218321251867124
  0
LINE
  5
25E7E
  8
0
 10
4713.4547647980070906
 20
581.3815920275626468
 30
0.0
 11
4713.4547743127286594
 21
579.0050266933876628
 31
0.0
  0
ARC
  5
25E7F
  8
0
 10
4713.3722963327263642
 20
579.0107489698608561
 30
0.0
 40
0.0826762458821125
 50
278.7987771596701805
 51
356.0312104063303877
  0
LINE
  5
25E80
  8
0
 10
4713.3849428835874278
 20
578.9290456872797677
 30
0.0
 11
4706.2372045275869823
 21
578.9292967994797436
 31
0.0
  0
ARC
  5
25E81
  8
0
 10
4706.2492746811049074
 20
579.010479977656928
 30
0.0
 40
0.0820755568051146
 50
183.8293813992409014
 51
261.5433263201658178
  0
LINE
  5
25E82
  8
0
 10
4706.1673823701512447
 20
579.0049985151075589
 30
0.0
 11
4706.1673728462437793
 21
581.3815670640450435
 31
0.0
  0
ARC
  5
25E83
  8
0
 10
4713.5509329852338851
 20
581.3758611855547542
 30
0.0
 40
0.0826573140842531
 50
98.7882941876517862
 51
176.0416938207403064
  0
LINE
  5
25E84
  8
0
 10
4713.5383042756866416
 20
581.4575480710798274
 30
0.0
 11
4720.6860426346884196
 21
581.4575466148797886
 31
0.0
  0
ARC
  5
25E85
  8
0
 10
4720.6734266333778578
 20
581.3758794814575595
 30
0.0
 40
0.0826358528148742
 50
3.9639699068362289
 51
81.218321251867124
  0
LINE
  5
25E86
  8
0
 10
4720.755864798006769
 20
581.3815920275626468
 30
0.0
 11
4720.7558743127292473
 21
579.0050266933876628
 31
0.0
  0
ARC
  5
25E87
  8
0
 10
4720.6733963327269521
 20
579.0107489698608561
 30
0.0
 40
0.0826762458821125
 50
278.7987771596701805
 51
356.0312104063303877
  0
LINE
  5
25E88
  8
0
 10
4720.6860428835871062
 20
578.9290456872797677
 30
0.0
 11
4713.5383045275857512
 21
578.9292967994797436
 31
0.0
  0
ARC
  5
25E89
  8
0
 10
4713.5503746811036763
 20
579.010479977656928
 30
0.0
 40
0.0820755568051146
 50
183.8293813992409014
 51
261.5433263201658178
  0
LINE
  5
25E8A
  8
0
 10
4713.4684823701509231
 20
579.0049985151075589
 30
0.0
 11
4713.4684728462443672
 21
581.3815670640450435
 31
0.0
  0
ARC
  5
25E8B
  8
0
 10
4720.8520329852335635
 20
581.3758611855547542
 30
0.0
 40
0.0826573140842531
 50
98.7882941876517862
 51
176.0416938207403064
  0
LINE
  5
25E8C
  8
0
 10
4720.8394042756872295
 20
581.4575480710798274
 30
0.0
 11
4727.9871426346871885
 21
581.4575466148797886
 31
0.0
  0
ARC
  5
25E8D
  8
0
 10
4727.9745266333784457
 20
581.3758794814575595
 30
0.0
 40
0.0826358528148742
 50
3.9639699068362289
 51
81.218321251867124
  0
LINE
  5
25E8E
  8
0
 10
4728.0569647980073569
 20
581.3815920275626468
 30
0.0
 11
4728.0569743127280162
 21
579.0050266933876628
 31
0.0
  0
ARC
  5
25E8F
  8
0
 10
4727.974496332725721
 20
579.0107489698608561
 30
0.0
 40
0.0826762458821125
 50
278.7987771596701805
 51
356.0312104063303877
  0
LINE
  5
25E90
  8
0
 10
4727.9871428835867846
 20
578.9290456872797677
 30
0.0
 11
4720.8394045275872486
 21
578.9292967994797436
 31
0.0
  0
ARC
  5
25E91
  8
0
 10
4720.8514746811033547
 20
579.010479977656928
 30
0.0
 40
0.0820755568051146
 50
183.8293813992409014
 51
261.5433263201658178
  0
LINE
  5
25E92
  8
0
 10
4720.7695823701506015
 20
579.0049985151075589
 30
0.0
 11
4720.7695728462431362
 21
581.3815670640450435
 31
0.0
  0
ARC
  5
25E93
  8
0
 10
4717.2014829852350886
 20
578.8278111855546513
 30
0.0
 40
0.0826573140842531
 50
98.7882941876517862
 51
176.0416938207403064
  0
LINE
  5
25E94
  8
0
 10
4717.1888542756860261
 20
578.9094980710798382
 30
0.0
 11
4724.3365926346868946
 21
578.9094966148796857
 31
0.0
  0
ARC
  5
25E95
  8
0
 10
4724.3239766333772423
 20
578.8278294814574565
 30
0.0
 40
0.0826358528148742
 50
3.9639699068362289
 51
81.218321251867124
  0
LINE
  5
25E96
  8
0
 10
4724.4064147980061534
 20
578.8335420275625438
 30
0.0
 11
4724.4064243127286318
 21
576.4569766933876735
 31
0.0
  0
ARC
  5
25E97
  8
0
 10
4724.3239463327263365
 20
576.4626989698608668
 30
0.0
 40
0.0826762458821125
 50
278.7987771596701805
 51
356.0312104063303877
  0
LINE
  5
25E98
  8
0
 10
4724.3365928835874001
 20
576.3809956872797784
 30
0.0
 11
4717.1888545275869546
 21
576.3812467994797544
 31
0.0
  0
ARC
  5
25E99
  8
0
 10
4717.2009246811048797
 20
576.4624299776569387
 30
0.0
 40
0.0820755568051146
 50
183.8293813992409014
 51
261.5433263201658178
  0
LINE
  5
25E9A
  8
0
 10
4717.1190323701521265
 20
576.4569485151074559
 30
0.0
 11
4717.1190228462446612
 21
578.8335170640450542
 31
0.0
  0
ARC
  5
25E9B
  8
0
 10
4709.9003829852335912
 20
578.8278111855546513
 30
0.0
 40
0.0826573140842531
 50
98.7882941876517862
 51
176.0416938207403064
  0
LINE
  5
25E9C
  8
0
 10
4709.8877542756872572
 20
578.9094980710798382
 30
0.0
 11
4717.0354926346872162
 21
578.9094966148796857
 31
0.0
  0
ARC
  5
25E9D
  8
0
 10
4717.0228766333775638
 20
578.8278294814574565
 30
0.0
 40
0.0826358528148742
 50
3.9639699068362289
 51
81.218321251867124
  0
LINE
  5
25E9E
  8
0
 10
4717.1053147980073845
 20
578.8335420275625438
 30
0.0
 11
4717.1053243127280439
 21
576.4569766933876735
 31
0.0
  0
ARC
  5
25E9F
  8
0
 10
4717.0228463327266581
 20
576.4626989698608668
 30
0.0
 40
0.0826762458821125
 50
278.7987771596701805
 51
356.0312104063303877
  0
LINE
  5
25EA0
  8
0
 10
4717.0354928835877217
 20
576.3809956872797784
 30
0.0
 11
4709.8877545275881857
 21
576.3812467994797544
 31
0.0
  0
ARC
  5
25EA1
  8
0
 10
4709.8998246811042918
 20
576.4624299776569387
 30
0.0
 40
0.0820755568051146
 50
183.8293813992409014
 51
261.5433263201658178
  0
LINE
  5
25EA2
  8
0
 10
4709.8179323701506291
 20
576.4569485151074559
 30
0.0
 11
4709.8179228462440733
 21
578.8335170640450542
 31
0.0
  0
ARC
  5
25EA3
  8
0
 10
4702.5992829852348223
 20
578.8278111855546513
 30
0.0
 40
0.0826573140842531
 50
98.7882941876517862
 51
176.0416938207403064
  0
LINE
  5
25EA4
  8
0
 10
4702.5866542756875788
 20
578.9094980710798382
 30
0.0
 11
4709.7343926346866283
 21
578.9094966148796857
 31
0.0
  0
ARC
  5
25EA5
  8
0
 10
4709.7217766333778854
 20
578.8278294814574565
 30
0.0
 40
0.0826358528148742
 50
3.9639699068362289
 51
81.218321251867124
  0
LINE
  5
25EA6
  8
0
 10
4709.8042147980067966
 20
578.8335420275625438
 30
0.0
 11
4709.804224312729275
 21
576.4569766933876735
 31
0.0
  0
ARC
  5
25EA7
  8
0
 10
4709.7217463327269797
 20
576.4626989698608668
 30
0.0
 40
0.0826762458821125
 50
278.7987771596701805
 51
356.0312104063303877
  0
LINE
  5
25EA8
  8
0
 10
4709.7343928835871338
 20
576.3809956872797784
 30
0.0
 11
4702.5866545275857789
 21
576.3812467994797544
 31
0.0
  0
ARC
  5
25EA9
  8
0
 10
4702.5987246811046134
 20
576.4624299776569387
 30
0.0
 40
0.0820755568051146
 50
183.8293813992409014
 51
261.5433263201658178
  0
LINE
  5
25EAA
  8
0
 10
4702.5168323701500412
 20
576.4569485151074559
 30
0.0
 11
4702.5168228462443949
 21
578.8335170640450542
 31
0.0
  0
ARC
  5
25EAB
  8
0
 10
4706.2498329852351162
 20
576.279761185554662
 30
0.0
 40
0.0826573140842531
 50
98.7882941876517862
 51
176.0416938207403064
  0
LINE
  5
25EAC
  8
0
 10
4706.2372042756860537
 20
576.3614480710798489
 30
0.0
 11
4713.3849426346869222
 21
576.3614466148798101
 31
0.0
  0
ARC
  5
25EAD
  8
0
 10
4713.3723266333781794
 20
576.2797794814575809
 30
0.0
 40
0.0826358528148742
 50
3.9639699068362289
 51
81.218321251867124
  0
LINE
  5
25EAE
  8
0
 10
4713.4547647980070906
 20
576.2854920275626682
 30
0.0
 11
4713.4547743127286594
 21
573.908926693387798
 31
0.0
  0
ARC
  5
25EAF
  8
0
 10
4713.3722963327263642
 20
573.9146489698607638
 30
0.0
 40
0.0826762458821125
 50
278.7987771596701805
 51
356.0312104063303877
  0
LINE
  5
25EB0
  8
0
 10
4713.3849428835874278
 20
573.8329456872799028
 30
0.0
 11
4706.2372045275869823
 21
573.8331967994796514
 31
0.0
  0
ARC
  5
25EB1
  8
0
 10
4706.2492746811049074
 20
573.9143799776569494
 30
0.0
 40
0.0820755568051146
 50
183.8293813992409014
 51
261.5433263201658178
  0
LINE
  5
25EB2
  8
0
 10
4706.1673823701512447
 20
573.9088985151075804
 30
0.0
 11
4706.1673728462437793
 21
576.2854670640449513
 31
0.0
  0
ARC
  5
25EB3
  8
0
 10
4713.5509329852338851
 20
576.279761185554662
 30
0.0
 40
0.0826573140842531
 50
98.7882941876517862
 51
176.0416938207403064
  0
LINE
  5
25EB4
  8
0
 10
4713.5383042756866416
 20
576.3614480710798489
 30
0.0
 11
4720.6860426346884196
 21
576.3614466148798101
 31
0.0
  0
ARC
  5
25EB5
  8
0
 10
4720.6734266333778578
 20
576.2797794814575809
 30
0.0
 40
0.0826358528148742
 50
3.9639699068362289
 51
81.218321251867124
  0
LINE
  5
25EB6
  8
0
 10
4720.755864798006769
 20
576.2854920275626682
 30
0.0
 11
4720.7558743127292473
 21
573.908926693387798
 31
0.0
  0
ARC
  5
25EB7
  8
0
 10
4720.6733963327269521
 20
573.9146489698607638
 30
0.0
 40
0.0826762458821125
 50
278.7987771596701805
 51
356.0312104063303877
  0
LINE
  5
25EB8
  8
0
 10
4720.6860428835871062
 20
573.8329456872799028
 30
0.0
 11
4713.5383045275857512
 21
573.8331967994796514
 31
0.0
  0
ARC
  5
25EB9
  8
0
 10
4713.5503746811036763
 20
573.9143799776569494
 30
0.0
 40
0.0820755568051146
 50
183.8293813992409014
 51
261.5433263201658178
  0
LINE
  5
25EBA
  8
0
 10
4713.4684823701509231
 20
573.9088985151075804
 30
0.0
 11
4713.4684728462443672
 21
576.2854670640449513
 31
0.0
  0
ARC
  5
25EBB
  8
0
 10
4720.8520329852335635
 20
576.279761185554662
 30
0.0
 40
0.0826573140842531
 50
98.7882941876517862
 51
176.0416938207403064
  0
LINE
  5
25EBC
  8
0
 10
4720.8394042756872295
 20
576.3614480710798489
 30
0.0
 11
4727.9871426346871885
 21
576.3614466148798101
 31
0.0
  0
ARC
  5
25EBD
  8
0
 10
4727.9745266333784457
 20
576.2797794814575809
 30
0.0
 40
0.0826358528148742
 50
3.9639699068362289
 51
81.218321251867124
  0
LINE
  5
25EBE
  8
0
 10
4728.0569647980073569
 20
576.2854920275626682
 30
0.0
 11
4728.0569743127280162
 21
573.908926693387798
 31
0.0
  0
ARC
  5
25EBF
  8
0
 10
4727.974496332725721
 20
573.9146489698607638
 30
0.0
 40
0.0826762458821125
 50
278.7987771596701805
 51
356.0312104063303877
  0
LINE
  5
25EC0
  8
0
 10
4727.9871428835867846
 20
573.8329456872799028
 30
0.0
 11
4720.8394045275872486
 21
573.8331967994796514
 31
0.0
  0
ARC
  5
25EC1
  8
0
 10
4720.8514746811033547
 20
573.9143799776569494
 30
0.0
 40
0.0820755568051146
 50
183.8293813992409014
 51
261.5433263201658178
  0
LINE
  5
25EC2
  8
0
 10
4720.7695823701506015
 20
573.9088985151075804
 30
0.0
 11
4720.7695728462431362
 21
576.2854670640449513
 31
0.0
  0
ARC
  5
25EC3
  8
0
 10
4717.2014829852350886
 20
573.7317111855546727
 30
0.0
 40
0.0826573140842531
 50
98.7882941876517862
 51
176.0416938207403064
  0
LINE
  5
25EC4
  8
0
 10
4717.1888542756860261
 20
573.8133980710797459
 30
0.0
 11
4724.3365926346868946
 21
573.8133966148798208
 31
0.0
  0
ARC
  5
25EC5
  8
0
 10
4724.3239766333772423
 20
573.7317294814575916
 30
0.0
 40
0.0826358528148742
 50
3.9639699068362289
 51
81.218321251867124
  0
LINE
  5
25EC6
  8
0
 10
4724.4064147980061534
 20
573.7374420275625653
 30
0.0
 11
4724.4064243127286318
 21
571.360876693387695
 31
0.0
  0
ARC
  5
25EC7
  8
0
 10
4724.3239463327263365
 20
571.3665989698607746
 30
0.0
 40
0.0826762458821125
 50
278.7987771596701805
 51
356.0312104063303877
  0
LINE
  5
25EC8
  8
0
 10
4724.3365928835874001
 20
571.2848956872797999
 30
0.0
 11
4717.1888545275869546
 21
571.2851467994797758
 31
0.0
  0
ARC
  5
25EC9
  8
0
 10
4717.2009246811048797
 20
571.3663299776568465
 30
0.0
 40
0.0820755568051146
 50
183.8293813992409014
 51
261.5433263201658178
  0
LINE
  5
25ECA
  8
0
 10
4717.1190323701521265
 20
571.3608485151073637
 30
0.0
 11
4717.1190228462446612
 21
573.7374170640450757
 31
0.0
  0
ARC
  5
25ECB
  8
0
 10
4709.9003829852335912
 20
573.7317111855546727
 30
0.0
 40
0.0826573140842531
 50
98.7882941876517862
 51
176.0416938207403064
  0
LINE
  5
25ECC
  8
0
 10
4709.8877542756872572
 20
573.8133980710797459
 30
0.0
 11
4717.0354926346872162
 21
573.8133966148798208
 31
0.0
  0
ARC
  5
25ECD
  8
0
 10
4717.0228766333775638
 20
573.7317294814575916
 30
0.0
 40
0.0826358528148742
 50
3.9639699068362289
 51
81.218321251867124
  0
LINE
  5
25ECE
  8
0
 10
4717.1053147980073845
 20
573.7374420275625653
 30
0.0
 11
4717.1053243127280439
 21
571.360876693387695
 31
0.0
  0
ARC
  5
25ECF
  8
0
 10
4717.0228463327266581
 20
571.3665989698607746
 30
0.0
 40
0.0826762458821125
 50
278.7987771596701805
 51
356.0312104063303877
  0
LINE
  5
25ED0
  8
0
 10
4717.0354928835877217
 20
571.2848956872797999
 30
0.0
 11
4709.8877545275881857
 21
571.2851467994797758
 31
0.0
  0
ARC
  5
25ED1
  8
0
 10
4709.8998246811042918
 20
571.3663299776568465
 30
0.0
 40
0.0820755568051146
 50
183.8293813992409014
 51
261.5433263201658178
  0
LINE
  5
25ED2
  8
0
 10
4709.8179323701506291
 20
571.3608485151073637
 30
0.0
 11
4709.8179228462440733
 21
573.7374170640450757
 31
0.0
  0
ARC
  5
25ED3
  8
0
 10
4702.5992829852348223
 20
573.7317111855546727
 30
0.0
 40
0.0826573140842531
 50
98.7882941876517862
 51
176.0416938207403064
  0
LINE
  5
25ED4
  8
0
 10
4702.5866542756875788
 20
573.8133980710797459
 30
0.0
 11
4709.7343926346866283
 21
573.8133966148798208
 31
0.0
  0
ARC
  5
25ED5
  8
0
 10
4709.7217766333778854
 20
573.7317294814575916
 30
0.0
 40
0.0826358528148742
 50
3.9639699068362289
 51
81.218321251867124
  0
LINE
  5
25ED6
  8
0
 10
4709.8042147980067966
 20
573.7374420275625653
 30
0.0
 11
4709.804224312729275
 21
571.360876693387695
 31
0.0
  0
ARC
  5
25ED7
  8
0
 10
4709.7217463327269797
 20
571.3665989698607746
 30
0.0
 40
0.0826762458821125
 50
278.7987771596701805
 51
356.0312104063303877
  0
LINE
  5
25ED8
  8
0
 10
4709.7343928835871338
 20
571.2848956872797999
 30
0.0
 11
4702.5866545275857789
 21
571.2851467994797758
 31
0.0
  0
ARC
  5
25ED9
  8
0
 10
4702.5987246811046134
 20
571.3663299776568465
 30
0.0
 40
0.0820755568051146
 50
183.8293813992409014
 51
261.5433263201658178
  0
LINE
  5
25EDA
  8
0
 10
4702.5168323701500412
 20
571.3608485151073637
 30
0.0
 11
4702.5168228462443949
 21
573.7374170640450757
 31
0.0
  0
ARC
  5
25EDB
  8
0
 10
4724.5023911165717436
 20
594.1162875287692486
 30
0.0
 40
0.0824538872278029
 50
98.6752550162744484
 51
176.1547205045220892
  0
LINE
  5
25EDC
  8
0
 10
4724.489954275686614
 20
594.1977980710796601
 30
0.0
 11
4731.1880085477077955
 21
594.1975463943341538
 31
0.0
  0
LINE
  5
25EDD
  8
0
 10
4731.188008567972247
 20
591.6695468083019023
 30
0.0
 11
4724.489954527586633
 21
591.6695467994799174
 31
0.0
  0
ARC
  5
25EDE
  8
0
 10
4724.5015986179751053
 20
591.7503370054876086
 30
0.0
 40
0.0816250098177938
 50
183.5741281445181983
 51
261.7985800050288958
  0
LINE
  5
25EDF
  8
0
 10
4724.4201323704601236
 20
591.7452485142022169
 30
0.0
 11
4724.4201228510182773
 21
594.1218170858577423
 31
0.0
  0
ARC
  5
25EE0
  8
0
 10
4732.6379245252537658
 20
592.0372311764339202
 30
0.0
 40
1.48214524480013
 50
180.6836061534050089
 51
191.079612491997608
  0
LINE
  5
25EE1
  8
0
 10
4731.1558847731221249
 20
592.0195478570060459
 30
0.0
 11
4731.1558952904197213
 21
593.8475385489798555
 31
0.0
  0
ARC
  5
25EE2
  8
0
 10
4732.6662416558147015
 20
593.8270031324312868
 30
0.0
 40
1.5104859637853101
 50
169.0263617270144891
 51
179.2210262292830123
  0
LINE
  5
25EE3
  8
0
 10
4731.188039200986168
 20
594.1393402029798381
 30
0.0
 11
4731.1833751233962175
 21
594.1145352068602961
 31
0.0
  0
LINE
  5
25EE4
  8
0
 10
4731.188039200986168
 20
591.7278728592798416
 30
0.0
 11
4731.1834048273876761
 21
591.7524032016796127
 31
0.0
  0
ARC
  5
25EE5
  8
0
 10
4724.5023911165717436
 20
599.2123875287692272
 30
0.0
 40
0.0824538872278029
 50
98.6752550162744484
 51
176.1547205045220892
  0
LINE
  5
25EE6
  8
0
 10
4724.489954275686614
 20
599.2938980710797523
 30
0.0
 11
4730.4670474125978217
 21
599.2824787417276866
 31
0.0
  0
LINE
  5
25EE7
  8
0
 10
4731.188008567968609
 20
596.7656468083019945
 30
0.0
 11
4724.489954527586633
 21
596.7656467994798959
 31
0.0
  0
ARC
  5
25EE8
  8
0
 10
4724.5015986179751053
 20
596.8464370054874735
 30
0.0
 40
0.0816250098177938
 50
183.5741281445181983
 51
261.7985800050288958
  0
LINE
  5
25EE9
  8
0
 10
4724.4201323704601236
 20
596.8413485142020818
 30
0.0
 11
4724.4201228510182773
 21
599.2179170858578345
 31
0.0
  0
ARC
  5
25EEA
  8
0
 10
4732.6379245252537658
 20
597.1333311764338987
 30
0.0
 40
1.48214524480013
 50
180.6836061534050089
 51
191.079612491997608
  0
LINE
  5
25EEB
  8
0
 10
4731.1558847731221249
 20
597.1156478570061381
 30
0.0
 11
4731.1558952904197213
 21
598.943638548979834
 31
0.0
  0
ARC
  5
25EEC
  8
0
 10
4732.666241655815611
 20
598.9231031324312653
 30
0.0
 40
1.510485963787308
 50
169.0932626300727009
 51
179.2210262292830123
  0
LINE
  5
25EED
  8
0
 10
4731.188039200986168
 20
599.2354402029798166
 30
0.0
 11
4731.1830404000829731
 21
599.2089035554386101
 31
0.0
  0
LINE
  5
25EEE
  8
0
 10
4731.188039200986168
 20
596.8239728592798201
 30
0.0
 11
4731.1834048273876761
 21
596.8485032016794776
 31
0.0
  0
ARC
  5
25EEF
  8
0
 10
4724.5023911165717436
 20
589.0201875287692701
 30
0.0
 40
0.0824538872278029
 50
98.6752550162744484
 51
176.1547205045220892
  0
LINE
  5
25EF0
  8
0
 10
4724.489954275686614
 20
589.1016980710797952
 30
0.0
 11
4731.1880085477114335
 21
589.1014463943340616
 31
0.0
  0
LINE
  5
25EF1
  8
0
 10
4731.1880085679658805
 20
586.5734468083019237
 30
0.0
 11
4724.489954527586633
 21
586.5734467994798251
 31
0.0
  0
ARC
  5
25EF2
  8
0
 10
4724.5015986179751053
 20
586.6542370054876301
 30
0.0
 40
0.0816250098177938
 50
183.5741281445181983
 51
261.7985800050288958
  0
LINE
  5
25EF3
  8
0
 10
4724.4201323704601236
 20
586.6491485142021247
 30
0.0
 11
4724.4201228510182773
 21
589.0257170858577638
 31
0.0
  0
ARC
  5
25EF4
  8
0
 10
4732.6379245252537658
 20
586.9411311764339416
 30
0.0
 40
1.48214524480013
 50
180.6836061534050089
 51
191.079612491997608
  0
LINE
  5
25EF5
  8
0
 10
4731.1558847731221249
 20
586.923447857006181
 30
0.0
 11
4731.1558952904197213
 21
588.7514385489797633
 31
0.0
  0
ARC
  5
25EF6
  8
0
 10
4732.6662416558147015
 20
588.7309031324313082
 30
0.0
 40
1.5104859637853101
 50
169.0263617270144891
 51
179.2210262292830123
  0
LINE
  5
25EF7
  8
0
 10
4731.188039200986168
 20
589.0432402029797458
 30
0.0
 11
4731.1833751233962175
 21
589.0184352068603175
 31
0.0
  0
LINE
  5
25EF8
  8
0
 10
4731.188039200986168
 20
586.6317728592797494
 30
0.0
 11
4731.1834048273876761
 21
586.6563032016796342
 31
0.0
  0
ARC
  5
25EF9
  8
0
 10
4724.5023911165717436
 20
583.9240875287692916
 30
0.0
 40
0.0824538872278029
 50
98.6752550162744484
 51
176.1547205045220892
  0
LINE
  5
25EFA
  8
0
 10
4724.489954275686614
 20
584.0055980710798167
 30
0.0
 11
4731.1880085477114335
 21
584.0053463943339693
 31
0.0
  0
LINE
  5
25EFB
  8
0
 10
4731.1880085679749754
 20
581.4773468083019452
 30
0.0
 11
4724.489954527586633
 21
581.4773467994798466
 31
0.0
  0
ARC
  5
25EFC
  8
0
 10
4724.5015986179751053
 20
581.5581370054875379
 30
0.0
 40
0.0816250098177938
 50
183.5741281445181983
 51
261.7985800050288958
  0
LINE
  5
25EFD
  8
0
 10
4724.4201323704601236
 20
581.5530485142021462
 30
0.0
 11
4724.4201228510182773
 21
583.9296170858576716
 31
0.0
  0
ARC
  5
25EFE
  8
0
 10
4732.6379245252537658
 20
581.8450311764339631
 30
0.0
 40
1.48214524480013
 50
180.6836061534050089
 51
191.079612491997608
  0
LINE
  5
25EFF
  8
0
 10
4731.1558847731221249
 20
581.8273478570062025
 30
0.0
 11
4731.1558952904197213
 21
583.655338548979671
 31
0.0
  0
ARC
  5
25F00
  8
0
 10
4732.6662416558147015
 20
583.6348031324313297
 30
0.0
 40
1.5104859637853101
 50
169.0263617270144891
 51
179.2210262292830123
  0
LINE
  5
25F01
  8
0
 10
4731.188039200986168
 20
583.947140202979881
 30
0.0
 11
4731.1833751233962175
 21
583.922335206860339
 31
0.0
  0
LINE
  5
25F02
  8
0
 10
4731.188039200986168
 20
581.5356728592797708
 30
0.0
 11
4731.1834048273876761
 21
581.5602032016796556
 31
0.0
  0
ARC
  5
25F03
  8
0
 10
4724.5023911165717436
 20
578.8279875287691993
 30
0.0
 40
0.0824538872278029
 50
98.6752550162744484
 51
176.1547205045220892
  0
LINE
  5
25F04
  8
0
 10
4724.489954275686614
 20
578.9094980710798382
 30
0.0
 11
4731.1880085477278044
 21
578.9092463943339908
 31
0.0
  0
LINE
  5
25F05
  8
0
 10
4731.1880085679003969
 20
576.3812468083019667
 30
0.0
 11
4724.489954527586633
 21
576.3812467994798681
 31
0.0
  0
ARC
  5
25F06
  8
0
 10
4724.5015986179751053
 20
576.4620370054874456
 30
0.0
 40
0.0816250098177938
 50
183.5741281445181983
 51
261.7985800050288958
  0
LINE
  5
25F07
  8
0
 10
4724.4201323704601236
 20
576.456948514202054
 30
0.0
 11
4724.4201228510182773
 21
578.833517085857693
 31
0.0
  0
ARC
  5
25F08
  8
0
 10
4732.6379245252537658
 20
576.7489311764338709
 30
0.0
 40
1.48214524480013
 50
180.6836061534050089
 51
191.079612491997608
  0
LINE
  5
25F09
  8
0
 10
4731.1558847731221249
 20
576.731247857006224
 30
0.0
 11
4731.1558952904197213
 21
578.5592385489798062
 31
0.0
  0
ARC
  5
25F0A
  8
0
 10
4732.6662416558147015
 20
578.5387031324313512
 30
0.0
 40
1.5104859637853101
 50
169.0263617270144891
 51
179.2210262292830123
  0
LINE
  5
25F0B
  8
0
 10
4731.188039200986168
 20
578.8510402029797888
 30
0.0
 11
4731.1833751233962175
 21
578.8262352068603604
 31
0.0
  0
LINE
  5
25F0C
  8
0
 10
4731.188039200986168
 20
576.4395728592797923
 30
0.0
 11
4731.1834048273876761
 21
576.4641032016795634
 31
0.0
  0
ARC
  5
25F0D
  8
0
 10
4724.5023911165717436
 20
573.7318875287692208
 30
0.0
 40
0.0824538872278029
 50
98.6752550162744484
 51
176.1547205045220892
  0
LINE
  5
25F0E
  8
0
 10
4724.489954275686614
 20
573.8133980710797459
 30
0.0
 11
4731.1880085476377644
 21
573.8131463943341259
 31
0.0
  0
LINE
  5
25F0F
  8
0
 10
4731.1980501855869079
 20
571.2851468083150621
 30
0.0
 11
4724.489954527586633
 21
571.2851467994797758
 31
0.0
  0
ARC
  5
25F10
  8
0
 10
4724.5015986179751053
 20
571.3659370054875808
 30
0.0
 40
0.0816250098177938
 50
183.5741281445181983
 51
261.7985800050288958
  0
LINE
  5
25F11
  8
0
 10
4724.4201323704601236
 20
571.3608485142021891
 30
0.0
 11
4724.4201228510182773
 21
573.7374170858578282
 31
0.0
  0
ARC
  5
25F12
  8
0
 10
4732.6379245252537658
 20
571.6528311764338923
 30
0.0
 40
1.48214524480013
 50
180.6836061534050089
 51
191.079612491997608
  0
LINE
  5
25F13
  8
0
 10
4731.1558847731221249
 20
571.6351478570061317
 30
0.0
 11
4731.1558952904197213
 21
573.4631385489798276
 31
0.0
  0
ARC
  5
25F14
  8
0
 10
4732.6662416558147015
 20
573.4426031324312589
 30
0.0
 40
1.5104859637853101
 50
169.0263617270144891
 51
179.2210262292830123
  0
LINE
  5
25F15
  8
0
 10
4731.188039200986168
 20
573.7549402029798102
 30
0.0
 11
4731.1833751233962175
 21
573.7301352068603819
 31
0.0
  0
LINE
  5
25F16
  8
0
 10
4731.1980501855869079
 20
571.2878356777798672
 30
0.0
 11
4731.1834048273876761
 21
571.3680032016796986
 31
0.0
  0
ARC
  5
25F17
  8
0
 10
4732.6926309735117684
 20
596.3640130140918245
 30
0.0
 40
1.552264963746703
 50
165.7694696824613061
 51
178.8341249082600086
  0
LINE
  5
25F18
  8
0
 10
4731.1406873607656962
 20
596.3955968791798341
 30
0.0
 11
4731.1406873606911176
 21
594.5675968791944115
 31
0.0
  0
ARC
  5
25F19
  8
0
 10
4732.6926338405728529
 20
594.5991809206522021
 30
0.0
 40
1.5522678338785421
 50
181.1658794470882867
 51
194.2305101639971099
  0
ARC
  5
25F1A
  8
0
 10
4728.1466886452626568
 20
596.6708529315218357
 30
0.0
 40
0.0755817696212508
 50
90.8347771827843644
 51
184.2985242068725995
  0
LINE
  5
25F1B
  8
0
 10
4728.14558748728723
 20
596.7464266792798071
 30
0.0
 11
4731.1879980376888852
 21
596.7455968791992973
 31
0.0
  0
LINE
  5
25F1C
  8
0
 10
4731.187997988468851
 20
594.2175968792467984
 30
0.0
 11
4728.1522630529334492
 21
594.2141012290289837
 31
0.0
  0
ARC
  5
25F1D
  8
0
 10
4728.1508701228622158
 20
594.2938216013525334
 30
0.0
 40
0.0797325405187388
 50
176.9293652561642034
 51
271.0010100502126988
  0
LINE
  5
25F1E
  8
0
 10
4728.07125205788725
 20
594.2980926371798205
 30
0.0
 11
4728.0713194822874357
 21
596.6651878479799507
 31
0.0
  0
ARC
  5
25F1F
  8
0
 10
4732.6926309735172254
 20
591.267913014091846
 30
0.0
 40
1.552264963746703
 50
165.7694696824613061
 51
178.8341249082600086
  0
LINE
  5
25F20
  8
0
 10
4731.1406873607711532
 20
591.2994968791798556
 30
0.0
 11
4731.1406873606947556
 21
589.4714968791944329
 31
0.0
  0
ARC
  5
25F21
  8
0
 10
4732.6926338405783099
 20
589.5030809206522235
 30
0.0
 40
1.5522678338785421
 50
181.1658794470882867
 51
194.2305101639971099
  0
ARC
  5
25F22
  8
0
 10
4728.1466886452662948
 20
591.5747529315217434
 30
0.0
 40
0.0755817696212508
 50
90.8347771827843644
 51
184.2985242068725995
  0
LINE
  5
25F23
  8
0
 10
4728.1455874872917775
 20
591.6503266792798286
 30
0.0
 11
4731.1879980376934327
 21
591.6494968791993188
 31
0.0
  0
LINE
  5
25F24
  8
0
 10
4731.1879979884733984
 20
589.1214968792468198
 30
0.0
 11
4728.1522630529379967
 21
589.1180012290290051
 31
0.0
  0
ARC
  5
25F25
  8
0
 10
4728.1508701228676728
 20
589.1977216013525549
 30
0.0
 40
0.0797325405187388
 50
176.9293652561642034
 51
271.0010100502126988
  0
LINE
  5
25F26
  8
0
 10
4728.071252057890888
 20
589.2019926371798419
 30
0.0
 11
4728.0713194822919831
 21
591.5690878479797448
 31
0.0
  0
ARC
  5
25F27
  8
0
 10
4732.6926309735172254
 20
586.1718130140917538
 30
0.0
 40
1.552264963746703
 50
165.7694696824613061
 51
178.8341249082600086
  0
LINE
  5
25F28
  8
0
 10
4731.1406873607711532
 20
586.203396879179877
 30
0.0
 11
4731.1406873606947556
 21
584.3753968791944544
 31
0.0
  0
ARC
  5
25F29
  8
0
 10
4732.6926338405783099
 20
584.4069809206521313
 30
0.0
 40
1.5522678338785421
 50
181.1658794470882867
 51
194.2305101639971099
  0
ARC
  5
25F2A
  8
0
 10
4728.1466886452662948
 20
586.4786529315216512
 30
0.0
 40
0.0755817696212508
 50
90.8347771827843644
 51
184.2985242068725995
  0
LINE
  5
25F2B
  8
0
 10
4728.1455874872917775
 20
586.55422667927985
 30
0.0
 11
4731.1879980376934327
 21
586.5533968791993402
 31
0.0
  0
LINE
  5
25F2C
  8
0
 10
4731.1879979884733984
 20
584.0253968792468413
 30
0.0
 11
4728.1522630529379967
 21
584.0219012290289129
 31
0.0
  0
ARC
  5
25F2D
  8
0
 10
4728.1508701228676728
 20
584.1016216013524627
 30
0.0
 40
0.0797325405187388
 50
176.9293652561642034
 51
271.0010100502126988
  0
LINE
  5
25F2E
  8
0
 10
4728.071252057890888
 20
584.1058926371798634
 30
0.0
 11
4728.0713194822919831
 21
586.4729878479797662
 31
0.0
  0
ARC
  5
25F2F
  8
0
 10
4732.6926309735172254
 20
581.0757130140917752
 30
0.0
 40
1.552264963746703
 50
165.7694696824613061
 51
178.8341249082600086
  0
LINE
  5
25F30
  8
0
 10
4731.1406873607711532
 20
581.1072968791798985
 30
0.0
 11
4731.1406873606947556
 21
579.2792968791942485
 31
0.0
  0
ARC
  5
25F31
  8
0
 10
4732.6926338405783099
 20
579.3108809206521528
 30
0.0
 40
1.5522678338785421
 50
181.1658794470882867
 51
194.2305101639971099
  0
ARC
  5
25F32
  8
0
 10
4728.1466886452662948
 20
581.3825529315216727
 30
0.0
 40
0.0755817696212508
 50
90.8347771827843644
 51
184.2985242068725995
  0
LINE
  5
25F33
  8
0
 10
4728.1455874872917775
 20
581.4581266792797578
 30
0.0
 11
4731.1879980376934327
 21
581.457296879199248
 31
0.0
  0
LINE
  5
25F34
  8
0
 10
4731.1879979884733984
 20
578.9292968792468628
 30
0.0
 11
4728.1522630529379967
 21
578.925801229029048
 31
0.0
  0
ARC
  5
25F35
  8
0
 10
4728.1508701228676728
 20
579.0055216013524841
 30
0.0
 40
0.0797325405187388
 50
176.9293652561642034
 51
271.0010100502126988
  0
LINE
  5
25F36
  8
0
 10
4728.071252057890888
 20
579.0097926371798849
 30
0.0
 11
4728.0713194822919831
 21
581.3768878479797877
 31
0.0
  0
ARC
  5
25F37
  8
0
 10
4732.6926309734162714
 20
575.9796130140917967
 30
0.0
 40
1.552264963746703
 50
165.7694696824613061
 51
178.8341249082600086
  0
LINE
  5
25F38
  8
0
 10
4731.1406873606711088
 20
576.0111968791798063
 30
0.0
 11
4731.1406873605947112
 21
574.18319687919427
 31
0.0
  0
ARC
  5
25F39
  8
0
 10
4732.6926338404782655
 20
574.2147809206520606
 30
0.0
 40
1.5522678338785421
 50
181.1658794470882867
 51
194.2305101639971099
  0
ARC
  5
25F3A
  8
0
 10
4728.1466886451662504
 20
576.2864529315216942
 30
0.0
 40
0.0755817696212508
 50
90.8347771827843644
 51
184.2985242068725995
  0
LINE
  5
25F3B
  8
0
 10
4728.1455874871908236
 20
576.3620266792797793
 30
0.0
 11
4731.1879980375933883
 21
576.3611968791993831
 31
0.0
  0
LINE
  5
25F3C
  8
0
 10
4731.187997988373354
 20
573.8331968792467705
 30
0.0
 11
4728.1522630528370428
 21
573.8297012290289558
 31
0.0
  0
ARC
  5
25F3D
  8
0
 10
4728.1508701227667189
 20
573.9094216013525056
 30
0.0
 40
0.0797325405187388
 50
176.9293652561642034
 51
271.0010100502126988
  0
LINE
  5
25F3E
  8
0
 10
4728.071252057791753
 20
573.9136926371797927
 30
0.0
 11
4728.0713194821919387
 21
576.2807878479799228
 31
0.0
  0
LINE
  5
25F3F
  8
0
 10
4731.188039200986168
 20
573.7549402029798102
 30
0.0
 11
4731.187997988373354
 21
573.8331968792467705
 31
0.0
  0
LINE
  5
25F40
  8
0
 10
4731.188039200986168
 20
576.4395728592797923
 30
0.0
 11
4731.1879980375933883
 21
576.3611968791993831
 31
0.0
  0
LINE
  5
25F41
  8
0
 10
4731.1879979884952263
 20
578.9292968792468628
 30
0.0
 11
4731.188039200986168
 21
578.8510402029797888
 31
0.0
  0
LINE
  5
25F42
  8
0
 10
4731.188039200986168
 20
581.5356728592797708
 30
0.0
 11
4731.1879980376934327
 21
581.457296879199248
 31
0.0
  0
LINE
  5
25F43
  8
0
 10
4731.1879979884733984
 20
584.0253968792468413
 30
0.0
 11
4731.188039200986168
 21
583.947140202979881
 31
0.0
  0
LINE
  5
25F44
  8
0
 10
4731.188039200986168
 20
586.6317728592797494
 30
0.0
 11
4731.1879980376816093
 21
586.5533968791993402
 31
0.0
  0
LINE
  5
25F45
  8
0
 10
4731.1879979884733984
 20
589.1214968792465925
 30
0.0
 11
4731.188039200986168
 21
589.0432402029797458
 31
0.0
  0
LINE
  5
25F46
  8
0
 10
4731.1879980376897947
 20
591.6494968792040936
 30
0.0
 11
4731.188039200986168
 21
591.7278728592798416
 31
0.0
  0
LINE
  5
25F47
  8
0
 10
4731.187997988468851
 20
594.2175968792466847
 30
0.0
 11
4731.188039200986168
 21
594.1393402029798381
 31
0.0
  0
LINE
  5
25F48
  8
0
 10
4731.188039200986168
 20
596.8239728592798201
 30
0.0
 11
4731.1879980376861567
 21
596.7455968791872465
 31
0.0
  0
ARC
  5
25F49
  8
0
 10
4730.8924726704217392
 20
599.3102725051006701
 30
0.0
 40
0.3048925178335519
 50
345.7922624657280153
 51
1.2637496254914109
  0
LINE
  5
25F4A
  8
0
 10
4730.7602812825070941
 20
599.3638043337122099
 30
0.0
 11
4674.259663153906331
 21
599.3638043337122099
 31
0.0
  0
ARC
  5
25F4B
  8
0
 10
4732.7585676226035503
 20
616.7431114907727761
 30
0.0
 40
1.618225219196606
 50
166.0433771215193133
 51
178.6939023676081035
  0
LINE
  5
25F4C
  8
0
 10
4731.1407628358128932
 20
616.7799968791965739
 30
0.0
 11
4731.1407628080451104
 21
614.95199687917966
 31
0.0
  0
ARC
  5
25F4D
  8
0
 10
4732.7585588154361176
 20
614.9888812166212801
 30
0.0
 40
1.6182164181199781
 50
181.3060675156283139
 51
193.9566620051033112
  0
ARC
  5
25F4E
  8
0
 10
4730.9342482481970364
 20
570.6494043262215428
 30
0.0
 40
0.0622799297156135
 50
173.1977761761750116
 51
267.1881793452207035
  0
ARC
  5
25F4F
  8
0
 10
4731.0191618812677916
 20
570.7122030221354407
 30
0.0
 40
0.1250036442470351
 50
170.7935793664780135
 51
269.9917642786932106
  0
ARC
  5
25F50
  8
0
 10
4732.4574020461759574
 20
570.4748347450771462
 30
0.0
 40
1.595404217641563
 50
159.8966152267549887
 51
173.4515163292954867
  0
ARC
  5
25F51
  8
0
 10
4732.4816532760141854
 20
570.4751597975041477
 30
0.0
 40
1.6065806992969269
 50
160.0547695640836139
 51
170.7934697040707874
  0
ARC
  5
25F52
  8
0
 10
4731.1853216407853324
 20
570.9407351971954085
 30
0.0
 40
0.2406897594336453
 50
114.2045558551195938
 51
159.9636597905428061
  0
ARC
  5
25F53
  8
0
 10
4731.1970024957190617
 20
570.9413614298865696
 30
0.0
 40
0.2399528833841081
 50
114.1778317577520028
 51
160.0586286530833888
  0
ARC
  5
25F54
  8
0
 10
4731.004976758614248
 20
571.3460827729312541
 30
0.0
 40
0.2029704285257853
 50
293.7245533514964109
 51
332.2072198200924049
  0
ARC
  5
25F55
  8
0
 10
4731.018365126657045
 20
571.3410425197516815
 30
0.0
 40
0.197833514560077
 50
293.9663059948020987
 51
333.0697711040775744
  0
LINE
  5
25F56
  8
0
 10
4731.184532465205848
 20
571.2514427016798209
 30
0.0
 11
4673.8354119712057582
 21
571.2514427016798209
 31
0.0
  0
LINE
  5
25F57
  8
0
 10
4731.1980501855869079
 20
571.2878356777798672
 30
0.0
 11
4731.1980501855869079
 21
571.2651347511798576
 31
0.0
  0
ARC
  5
25F58
  8
0
 10
4731.1679275528867947
 20
571.2651606137351337
 30
0.0
 40
0.030122643800803
 50
332.9091988378204974
 51
359.9508071867920762
  0
ARC
  5
25F59
  8
0
 10
4730.4115963989388547
 20
584.8207471735140643
 30
0.0
 40
14.4618378764934992
 50
86.9009795169141483
 51
89.780310299137895
  0
ARC
  5
25F5A
  8
0
 10
4674.3510972223657518
 20
569.2021404565361991
 30
0.0
 40
0.6323766085258528
 50
181.8227499170826889
 51
269.2181125183035988
  0
ARC
  5
25F5B
  8
0
 10
4673.5491149793151635
 20
570.4621255185797963
 30
0.0
 40
0.125154397011138
 50
1.3885425263785329
 51
87.9444214544952558
  0
LINE
  5
25F5C
  8
0
 10
4673.674232625427976
 20
570.4651582933092868
 30
0.0
 11
4673.7190405903393184
 21
569.182026060648468
 31
0.0
  0
ARC
  5
25F5D
  8
0
 10
4672.5474708568717688
 20
628.8353683158983358
 30
0.0
 40
0.0624999999534858
 50
359.9999999829794888
 51
87.0000001002877354
  0
CIRCLE
  5
25F5E
  8
0
 10
4673.2599708568250207
 20
628.4092753791798032
 30
0.0
 40
0.09375
  0
CIRCLE
  5
25F5F
  8
0
 10
4674.0099708568250207
 20
628.4092753791798032
 30
0.0
 40
0.09375
  0
CIRCLE
  5
25F60
  8
0
 10
4674.7599708568250207
 20
628.4092753791798032
 30
0.0
 40
0.09375
  0
CIRCLE
  5
25F61
  8
0
 10
4675.5099708568250207
 20
628.4092753791798032
 30
0.0
 40
0.09375
  0
CIRCLE
  5
25F62
  8
0
 10
4676.2599708568250207
 20
628.4092753791798032
 30
0.0
 40
0.09375
  0
CIRCLE
  5
25F63
  8
0
 10
4677.0099708568259302
 20
628.4092753791798032
 30
0.0
 40
0.09375
  0
CIRCLE
  5
25F64
  8
0
 10
4677.7599708568259302
 20
628.4092753791798032
 30
0.0
 40
0.09375
  0
CIRCLE
  5
25F65
  8
0
 10
4678.5099708568259302
 20
628.4092753791798032
 30
0.0
 40
0.09375
  0
CIRCLE
  5
25F66
  8
0
 10
4679.2599708568259302
 20
628.4092753791798032
 30
0.0
 40
0.09375
  0
CIRCLE
  5
25F67
  8
0
 10
4680.0099708568259302
 20
628.4092753791798032
 30
0.0
 40
0.09375
  0
CIRCLE
  5
25F68
  8
0
 10
4680.7599708568259302
 20
628.4092753791798032
 30
0.0
 40
0.09375
  0
CIRCLE
  5
25F69
  8
0
 10
4681.5099708568259302
 20
628.4092753791798032
 30
0.0
 40
0.09375
  0
CIRCLE
  5
25F6A
  8
0
 10
4682.2599708568259302
 20
628.4092753791798032
 30
0.0
 40
0.09375
  0
CIRCLE
  5
25F6B
  8
0
 10
4683.0099708568259302
 20
628.4092753791798032
 30
0.0
 40
0.09375
  0
CIRCLE
  5
25F6C
  8
0
 10
4683.7599708568259302
 20
628.4092753791798032
 30
0.0
 40
0.09375
  0
CIRCLE
  5
25F6D
  8
0
 10
4684.5099708568259302
 20
628.4092753791798032
 30
0.0
 40
0.09375
  0
CIRCLE
  5
25F6E
  8
0
 10
4685.2599708568259302
 20
628.4092753791798032
 30
0.0
 40
0.09375
  0
CIRCLE
  5
25F6F
  8
0
 10
4686.0099708568259302
 20
628.4092753791798032
 30
0.0
 40
0.09375
  0
CIRCLE
  5
25F70
  8
0
 10
4686.7599708568250207
 20
628.4092753791798032
 30
0.0
 40
0.09375
  0
CIRCLE
  5
25F71
  8
0
 10
4687.5099708568250207
 20
628.4092753791798032
 30
0.0
 40
0.09375
  0
CIRCLE
  5
25F72
  8
0
 10
4688.2599708568250207
 20
628.4092753791798032
 30
0.0
 40
0.09375
  0
CIRCLE
  5
25F73
  8
0
 10
4689.0099708568250207
 20
628.4092753791798032
 30
0.0
 40
0.09375
  0
CIRCLE
  5
25F74
  8
0
 10
4689.7599708568250207
 20
628.4092753791798032
 30
0.0
 40
0.09375
  0
CIRCLE
  5
25F75
  8
0
 10
4690.5099708568250207
 20
628.4092753791798032
 30
0.0
 40
0.09375
  0
CIRCLE
  5
25F76
  8
0
 10
4691.2599708568250207
 20
628.4092753791798032
 30
0.0
 40
0.09375
  0
CIRCLE
  5
25F77
  8
0
 10
4692.0099708568250207
 20
628.4092753791798032
 30
0.0
 40
0.09375
  0
CIRCLE
  5
25F78
  8
0
 10
4692.7599708568250207
 20
628.4092753791798032
 30
0.0
 40
0.09375
  0
CIRCLE
  5
25F79
  8
0
 10
4693.5099708568250207
 20
628.4092753791798032
 30
0.0
 40
0.09375
  0
CIRCLE
  5
25F7A
  8
0
 10
4701.7599708567258858
 20
628.4092753791798032
 30
0.0
 40
0.09375
  0
CIRCLE
  5
25F7B
  8
0
 10
4701.0099708567258858
 20
628.4092753791798032
 30
0.0
 40
0.09375
  0
CIRCLE
  5
25F7C
  8
0
 10
4700.2599708567258858
 20
628.4092753791798032
 30
0.0
 40
0.09375
  0
CIRCLE
  5
25F7D
  8
0
 10
4699.5099708567258858
 20
628.4092753791798032
 30
0.0
 40
0.09375
  0
CIRCLE
  5
25F7E
  8
0
 10
4698.7599708567258858
 20
628.4092753791798032
 30
0.0
 40
0.09375
  0
CIRCLE
  5
25F7F
  8
0
 10
4698.0099708567258858
 20
628.4092753791798032
 30
0.0
 40
0.09375
  0
CIRCLE
  5
25F80
  8
0
 10
4697.2599708567258858
 20
628.4092753791798032
 30
0.0
 40
0.09375
  0
CIRCLE
  5
25F81
  8
0
 10
4696.5099708567258858
 20
628.4092753791798032
 30
0.0
 40
0.09375
  0
CIRCLE
  5
25F82
  8
0
 10
4695.7599708567258858
 20
628.4092753791798032
 30
0.0
 40
0.09375
  0
CIRCLE
  5
25F83
  8
0
 10
4695.0099708567258858
 20
628.4092753791798032
 30
0.0
 40
0.09375
  0
CIRCLE
  5
25F84
  8
0
 10
4694.2599708567258858
 20
628.4092753791798032
 30
0.0
 40
0.09375
  0
ARC
  5
25F85
  8
0
 10
4673.0500512088447067
 20
615.6182519491677567
 30
0.0
 40
13.2924619577110192
 50
90.9490273167233454
 51
91.5913717002701446
  0
ARC
  5
25F86
  8
0
 10
4672.6880644204065902
 20
628.8407164451857625
 30
0.0
 40
0.0652645652224314
 50
96.2980609704425206
 51
106.8398016719291945
  0
ARC
  5
25F87
  8
0
 10
4672.6701470108673675
 20
628.899859797025556
 30
0.0
 40
0.0034667890539801
 50
106.5845051380293995
 51
156.1948510659316867
  0
LINE
  5
25F88
  8
0
 10
4672.6669751644421922
 20
628.901259088488132
 30
0.0
 11
4672.6099708567926427
 21
628.8057394916479552
 31
0.0
  0
ARC
  5
25F89
  8
0
 10
4672.672714142681798
 20
627.7028767574470294
 30
0.0
 40
0.0631070482025065
 50
186.1548244795978917
 51
266.806417493453182
  0
LINE
  5
25F8A
  8
0
 10
4672.669198469665389
 20
627.6398677137618733
 30
0.0
 11
4673.4295893012422312
 21
627.6000068681792072
 31
0.0
  0
ARC
  5
25F8B
  8
0
 10
4673.4160111596602292
 20
627.3422017690453458
 30
0.0
 40
0.2581624199379199
 50
359.9994696005675223
 51
86.9851176132203108
  0
LINE
  5
25F8C
  8
0
 10
4673.6741735795867498
 20
627.3421993791797604
 30
0.0
 11
4673.6741708568260947
 21
570.7121993791797649
 31
0.0
  0
ARC
  5
25F8D
  8
0
 10
4673.5490306148340096
 20
570.7122560316073532
 30
0.0
 40
0.1251402548152468
 50
272.0944627186971729
 51
359.9740615430495723
  0
ARC
  5
25F8E
  8
0
 10
4672.263032573117016
 20
626.9355330535919393
 30
0.0
 40
1.6165649126030699
 50
1.299682892622533
 51
13.9631559315515705
  0
LINE
  5
25F8F
  8
0
 10
4673.8791815999411483
 20
626.9721996563206403
 30
0.0
 11
4673.8791816006259978
 21
625.1441968791798445
 31
0.0
  0
ARC
  5
25F90
  8
0
 10
4672.2613877940311795
 20
625.1810807984049916
 30
0.0
 40
1.618214208364283
 50
346.0433338061095014
 51
358.6939455120976845
  0
ARC
  5
25F91
  8
0
 10
4684.1679691060071491
 20
627.2408172460626474
 30
0.0
 40
0.082590736034968
 50
3.942111706233248
 51
81.2913706712691635
  0
LINE
  5
25F92
  8
0
 10
4684.1804741442256272
 20
627.3224558012798298
 30
0.0
 11
4677.0393642123253812
 21
627.3249383528797125
 31
0.0
  0
ARC
  5
25F93
  8
0
 10
4677.0486321633752596
 20
627.2394919840975263
 30
0.0
 40
0.0859475238429649
 50
96.1903935601906568
 51
175.3450164775254052
  0
LINE
  5
25F94
  8
0
 10
4676.9629681411252022
 20
627.246467093179831
 30
0.0
 11
4676.9629772862253958
 21
624.8698984979688476
 31
0.0
  0
ARC
  5
25F95
  8
0
 10
4677.0452115973475884
 20
624.8754283634231115
 30
0.0
 40
0.0824200299533133
 50
183.8470763153692076
 51
261.3864160044975051
  0
LINE
  5
25F96
  8
0
 10
4677.0328675693262994
 20
624.7939379571796508
 30
0.0
 11
4684.1739774941261203
 21
624.7914554054798373
 31
0.0
  0
ARC
  5
25F97
  8
0
 10
4684.1647154205993502
 20
624.8768960591863788
 30
0.0
 40
0.0859412084614658
 50
276.1869088070799876
 51
355.3485027668336897
  0
LINE
  5
25F98
  8
0
 10
4684.2503735725258593
 20
624.8699266746798457
 30
0.0
 11
4684.2503644339258244
 21
627.2464952400797529
 31
0.0
  0
ARC
  5
25F99
  8
0
 10
4676.8691059396069249
 20
627.2459687784109974
 30
0.0
 40
0.0796300539901669
 50
356.9903457378686085
 51
90.9176753425472413
  0
LINE
  5
25F9A
  8
0
 10
4676.8678306028632505
 20
627.3255886189953117
 30
0.0
 11
4673.8318297604264444
 21
627.3256067668203286
 31
0.0
  0
LINE
  5
25F9B
  8
0
 10
4673.831829759809807
 20
624.7907869907800205
 30
0.0
 11
4676.867682359178616
 21
624.7906530133384422
 31
0.0
  0
ARC
  5
25F9C
  8
0
 10
4676.8689218182844343
 20
624.8705228637478513
 30
0.0
 40
0.0798794670943839
 50
269.1109276478118773
 51
2.9922440426830921
  0
LINE
  5
25F9D
  8
0
 10
4676.9486923785261752
 20
624.8746926337797731
 30
0.0
 11
4676.9486261600250145
 21
627.2417878642798996
 31
0.0
  0
LINE
  5
25F9E
  8
0
 10
4672.6099708568253845
 20
628.8353683158796912
 30
0.0
 11
4672.6099708556039332
 21
627.6961107054630702
 31
0.0
  0
ARC
  5
25F9F
  8
0
 10
4679.4886000314745615
 20
557.1480279242401821
 30
0.0
 40
1.29566681802296
 50
199.9400361569529139
 51
262.7029947938511896
  0
ARC
  5
25FA0
  8
0
 10
4701.9622186554588552
 20
567.9060850341246578
 30
0.0
 40
26.2055482306979499
 50
182.6631481929044014
 51
205.3018855942688958
  0
LINE
  5
25FA1
  8
0
 10
4672.5099708568250207
 20
628.8999193791797779
 30
0.0
 11
4672.5099708568250207
 21
571.1375549275797994
 31
0.0
  0
ARC
  5
25FA2
  8
0
 10
4674.6850747637627137
 20
601.8916491329893006
 30
0.0
 40
0.7885450019640446
 50
183.6435038812498988
 51
265.5337334520377794
  0
ARC
  5
25FA3
  8
0
 10
4674.2443906960097593
 20
596.060838988410751
 30
0.0
 40
3.3030006539860381
 50
89.7350740765655246
 51
97.2517978587669631
  0
LINE
  5
25FA4
  8
0
 10
4672.5507418571260132
 20
628.8977826615797539
 30
0.0
 11
4672.5099708568250207
 21
628.8999193791797779
 31
0.0
  0
ARC
  5
25FA5
  8
0
 10
4676.6086892137818722
 20
651.5275489297722515
 30
0.0
 40
23.8808080705674399
 50
263.9089540979667845
 51
270.8323847087735885
  0
ARC
  5
25FA6
  8
0
 10
4673.0459247133658209
 20
622.8941928847165173
 30
0.0
 40
4.9944754141116707
 50
78.1126399385697852
 51
86.9725203746570372
  0
ARC
  5
25FA7
  8
0
 10
-4156.2558808227086047
 20
-167529.1012857723981142
 30
0.0
 40
168388.6342796013050247
 50
86.9942807629816315
 51
86.9944453648086551
  0
ARC
  5
25FA8
  8
0
 10
4672.8299757665281504
 20
627.9695210187276189
 30
0.0
 40
0.0625483017807696
 50
180.1467563129814948
 51
266.9232501539567011
  0
LINE
  5
25FA9
  8
0
 10
4672.7674276699253824
 20
627.9693608088798555
 30
0.0
 11
4672.7674276699253824
 21
628.8394358621798119
 31
0.0
  0
ARC
  5
25FAA
  8
0
 10
4672.6965827450840152
 20
628.8357722726217389
 30
0.0
 40
0.0709395888361981
 50
2.9602883554346788
 51
83.3205326536761959
  0
LINE
  5
25FAB
  8
0
 10
4672.5538457239254058
 20
549.8371993791796513
 30
0.0
 11
4672.5538406071245845
 21
570.3872159925359711
 31
0.0
  0
ARC
  5
25FAC
  8
0
 10
4691.469069106007737
 20
627.2408172460626474
 30
0.0
 40
0.082590736034968
 50
3.942111706233248
 51
81.2913706712691635
  0
LINE
  5
25FAD
  8
0
 10
4691.4815741442253056
 20
627.3224558012798298
 30
0.0
 11
4684.3404642123259691
 21
627.3249383528797125
 31
0.0
  0
ARC
  5
25FAE
  8
0
 10
4684.349732163374938
 20
627.2394919840975263
 30
0.0
 40
0.0859475238429649
 50
96.1903935601906568
 51
175.3450164775254052
  0
LINE
  5
25FAF
  8
0
 10
4684.2640681411257901
 20
627.246467093179831
 30
0.0
 11
4684.2640772862250742
 21
624.8698984979688476
 31
0.0
  0
ARC
  5
25FB0
  8
0
 10
4684.3463115973472668
 20
624.8754283634231115
 30
0.0
 40
0.0824200299533133
 50
183.8470763153692076
 51
261.3864160044975051
  0
LINE
  5
25FB1
  8
0
 10
4684.3339675693250683
 20
624.7939379571796508
 30
0.0
 11
4691.4750774941257987
 21
624.7914554054798373
 31
0.0
  0
ARC
  5
25FB2
  8
0
 10
4691.4658154205981191
 20
624.8768960591863788
 30
0.0
 40
0.0859412084614658
 50
276.1869088070799876
 51
355.3485027668336897
  0
LINE
  5
25FB3
  8
0
 10
4691.5514735725246283
 20
624.8699266746798457
 30
0.0
 11
4691.5514644339245933
 21
627.2464952400797529
 31
0.0
  0
ARC
  5
25FB4
  8
0
 10
4698.7701691060074154
 20
627.2408172460626474
 30
0.0
 40
0.082590736034968
 50
3.942111706233248
 51
81.2913706712691635
  0
LINE
  5
25FB5
  8
0
 10
4698.7826741442258935
 20
627.3224558012798298
 30
0.0
 11
4691.641564212324738
 21
627.3249383528797125
 31
0.0
  0
ARC
  5
25FB6
  8
0
 10
4691.6508321633746164
 20
627.2394919840975263
 30
0.0
 40
0.0859475238429649
 50
96.1903935601906568
 51
175.3450164775254052
  0
LINE
  5
25FB7
  8
0
 10
4691.565168141124559
 20
627.246467093179831
 30
0.0
 11
4691.5651772862247526
 21
624.8698984979688476
 31
0.0
  0
ARC
  5
25FB8
  8
0
 10
4691.6474115973469452
 20
624.8754283634231115
 30
0.0
 40
0.0824200299533133
 50
183.8470763153692076
 51
261.3864160044975051
  0
LINE
  5
25FB9
  8
0
 10
4691.6350675693247467
 20
624.7939379571796508
 30
0.0
 11
4698.7761774941245676
 21
624.7914554054798373
 31
0.0
  0
ARC
  5
25FBA
  8
0
 10
4698.7669154205977975
 20
624.8768960591863788
 30
0.0
 40
0.0859412084614658
 50
276.1869088070799876
 51
355.3485027668336897
  0
LINE
  5
25FBB
  8
0
 10
4698.8525735725252162
 20
624.8699266746798457
 30
0.0
 11
4698.8525644339260907
 21
627.2464952400797529
 31
0.0
  0
ARC
  5
25FBC
  8
0
 10
4702.4207191060067998
 20
624.6927672460625445
 30
0.0
 40
0.082590736034968
 50
3.942111706233248
 51
81.2913706712691635
  0
LINE
  5
25FBD
  8
0
 10
4702.433224144225278
 20
624.7744058012798405
 30
0.0
 11
4695.2921142123259415
 21
624.7768883528798369
 31
0.0
  0
ARC
  5
25FBE
  8
0
 10
4695.3013821633749103
 20
624.691441984097537
 30
0.0
 40
0.0859475238429649
 50
96.1903935601906568
 51
175.3450164775254052
  0
LINE
  5
25FBF
  8
0
 10
4695.2157181411257625
 20
624.6984170931798417
 30
0.0
 11
4695.2157272862250466
 21
622.3218484979688583
 31
0.0
  0
ARC
  5
25FC0
  8
0
 10
4695.2979615973472391
 20
622.3273783634231222
 30
0.0
 40
0.0824200299533133
 50
183.8470763153692076
 51
261.3864160044975051
  0
LINE
  5
25FC1
  8
0
 10
4695.2856175693241312
 20
622.2458879571797752
 30
0.0
 11
4702.426727494125771
 21
622.243405405479848
 31
0.0
  0
ARC
  5
25FC2
  8
0
 10
4702.4174654205990009
 20
622.3288460591865032
 30
0.0
 40
0.0859412084614658
 50
276.1869088070799876
 51
355.3485027668336897
  0
LINE
  5
25FC3
  8
0
 10
4702.5031235725246006
 20
622.3218766746798565
 30
0.0
 11
4702.5031144339263847
 21
624.6984452400797636
 31
0.0
  0
ARC
  5
25FC4
  8
0
 10
4695.1196191060071214
 20
624.6927672460625445
 30
0.0
 40
0.082590736034968
 50
3.942111706233248
 51
81.2913706712691635
  0
LINE
  5
25FC5
  8
0
 10
4695.1321241442246901
 20
624.7744058012798405
 30
0.0
 11
4687.9910142123253536
 21
624.7768883528798369
 31
0.0
  0
ARC
  5
25FC6
  8
0
 10
4688.0002821633752319
 20
624.691441984097537
 30
0.0
 40
0.0859475238429649
 50
96.1903935601906568
 51
175.3450164775254052
  0
LINE
  5
25FC7
  8
0
 10
4687.9146181411260841
 20
624.6984170931798417
 30
0.0
 11
4687.9146272862253682
 21
622.3218484979688583
 31
0.0
  0
ARC
  5
25FC8
  8
0
 10
4687.9968615973466513
 20
622.3273783634231222
 30
0.0
 40
0.0824200299533133
 50
183.8470763153692076
 51
261.3864160044975051
  0
LINE
  5
25FC9
  8
0
 10
4687.9845175693253623
 20
622.2458879571797752
 30
0.0
 11
4695.1256274941260926
 21
622.243405405479848
 31
0.0
  0
ARC
  5
25FCA
  8
0
 10
4695.1163654205993225
 20
622.3288460591865032
 30
0.0
 40
0.0859412084614658
 50
276.1869088070799876
 51
355.3485027668336897
  0
LINE
  5
25FCB
  8
0
 10
4695.2020235725258317
 20
622.3218766746798565
 30
0.0
 11
4695.2020144339257968
 21
624.6984452400797636
 31
0.0
  0
ARC
  5
25FCC
  8
0
 10
4687.818519106007443
 20
624.6927672460625445
 30
0.0
 40
0.082590736034968
 50
3.942111706233248
 51
81.2913706712691635
  0
LINE
  5
25FCD
  8
0
 10
4687.8310241442259212
 20
624.7744058012798405
 30
0.0
 11
4680.6899142123247657
 21
624.7768883528798369
 31
0.0
  0
ARC
  5
25FCE
  8
0
 10
4680.699182163374644
 20
624.691441984097537
 30
0.0
 40
0.0859475238429649
 50
96.1903935601906568
 51
175.3450164775254052
  0
LINE
  5
25FCF
  8
0
 10
4680.6135181411245867
 20
624.6984170931798417
 30
0.0
 11
4680.6135272862247803
 21
622.3218484979688583
 31
0.0
  0
ARC
  5
25FD0
  8
0
 10
4680.6957615973469728
 20
622.3273783634231222
 30
0.0
 40
0.0824200299533133
 50
183.8470763153692076
 51
261.3864160044975051
  0
LINE
  5
25FD1
  8
0
 10
4680.6834175693247744
 20
622.2458879571797752
 30
0.0
 11
4687.8245274941245953
 21
622.243405405479848
 31
0.0
  0
ARC
  5
25FD2
  8
0
 10
4687.8152654205978251
 20
622.3288460591865032
 30
0.0
 40
0.0859412084614658
 50
276.1869088070799876
 51
355.3485027668336897
  0
LINE
  5
25FD3
  8
0
 10
4687.9009235725252438
 20
622.3218766746798565
 30
0.0
 11
4687.9009144339242994
 21
624.6984452400797636
 31
0.0
  0
ARC
  5
25FD4
  8
0
 10
4698.7701691060074154
 20
622.1447172460625552
 30
0.0
 40
0.082590736034968
 50
3.942111706233248
 51
81.2913706712691635
  0
LINE
  5
25FD5
  8
0
 10
4698.7826741442258935
 20
622.2263558012798512
 30
0.0
 11
4691.641564212324738
 21
622.228838352879734
 31
0.0
  0
ARC
  5
25FD6
  8
0
 10
4691.6508321633746164
 20
622.1433919840975477
 30
0.0
 40
0.0859475238429649
 50
96.1903935601906568
 51
175.3450164775254052
  0
LINE
  5
25FD7
  8
0
 10
4691.565168141124559
 20
622.1503670931798524
 30
0.0
 11
4691.5651772862247526
 21
619.7737984979687553
 31
0.0
  0
ARC
  5
25FD8
  8
0
 10
4691.6474115973469452
 20
619.7793283634231329
 30
0.0
 40
0.0824200299533133
 50
183.8470763153692076
 51
261.3864160044975051
  0
LINE
  5
25FD9
  8
0
 10
4691.6350675693247467
 20
619.6978379571796722
 30
0.0
 11
4698.7761774941245676
 21
619.6953554054798587
 31
0.0
  0
ARC
  5
25FDA
  8
0
 10
4698.7669154205977975
 20
619.780796059186514
 30
0.0
 40
0.0859412084614658
 50
276.1869088070799876
 51
355.3485027668336897
  0
LINE
  5
25FDB
  8
0
 10
4698.8525735725252162
 20
619.7738266746797535
 30
0.0
 11
4698.8525644339260907
 21
622.1503952400796607
 31
0.0
  0
ARC
  5
25FDC
  8
0
 10
4691.469069106007737
 20
622.1447172460625552
 30
0.0
 40
0.082590736034968
 50
3.942111706233248
 51
81.2913706712691635
  0
LINE
  5
25FDD
  8
0
 10
4691.4815741442253056
 20
622.2263558012798512
 30
0.0
 11
4684.3404642123259691
 21
622.228838352879734
 31
0.0
  0
ARC
  5
25FDE
  8
0
 10
4684.349732163374938
 20
622.1433919840975477
 30
0.0
 40
0.0859475238429649
 50
96.1903935601906568
 51
175.3450164775254052
  0
LINE
  5
25FDF
  8
0
 10
4684.2640681411257901
 20
622.1503670931798524
 30
0.0
 11
4684.2640772862250742
 21
619.7737984979687553
 31
0.0
  0
ARC
  5
25FE0
  8
0
 10
4684.3463115973472668
 20
619.7793283634231329
 30
0.0
 40
0.0824200299533133
 50
183.8470763153692076
 51
261.3864160044975051
  0
LINE
  5
25FE1
  8
0
 10
4684.3339675693250683
 20
619.6978379571796722
 30
0.0
 11
4691.4750774941257987
 21
619.6953554054798587
 31
0.0
  0
ARC
  5
25FE2
  8
0
 10
4691.4658154205981191
 20
619.780796059186514
 30
0.0
 40
0.0859412084614658
 50
276.1869088070799876
 51
355.3485027668336897
  0
LINE
  5
25FE3
  8
0
 10
4691.5514735725246283
 20
619.7738266746797535
 30
0.0
 11
4691.5514644339245933
 21
622.1503952400796607
 31
0.0
  0
ARC
  5
25FE4
  8
0
 10
4684.1679691060071491
 20
622.1447172460625552
 30
0.0
 40
0.082590736034968
 50
3.942111706233248
 51
81.2913706712691635
  0
LINE
  5
25FE5
  8
0
 10
4684.1804741442256272
 20
622.2263558012798512
 30
0.0
 11
4677.0393642123253812
 21
622.228838352879734
 31
0.0
  0
ARC
  5
25FE6
  8
0
 10
4677.0486321633752596
 20
622.1433919840975477
 30
0.0
 40
0.0859475238429649
 50
96.1903935601906568
 51
175.3450164775254052
  0
LINE
  5
25FE7
  8
0
 10
4676.9629681411252022
 20
622.1503670931798524
 30
0.0
 11
4676.9629772862253958
 21
619.7737984979687553
 31
0.0
  0
ARC
  5
25FE8
  8
0
 10
4677.0452115973475884
 20
619.7793283634231329
 30
0.0
 40
0.0824200299533133
 50
183.8470763153692076
 51
261.3864160044975051
  0
LINE
  5
25FE9
  8
0
 10
4677.0328675693262994
 20
619.6978379571796722
 30
0.0
 11
4684.1739774941252108
 21
619.6953554054798587
 31
0.0
  0
ARC
  5
25FEA
  8
0
 10
4684.1647154205993502
 20
619.780796059186514
 30
0.0
 40
0.0859412084614658
 50
276.1869088070799876
 51
355.3485027668336897
  0
LINE
  5
25FEB
  8
0
 10
4684.2503735725258593
 20
619.7738266746797535
 30
0.0
 11
4684.2503644339258244
 21
622.1503952400796607
 31
0.0
  0
ARC
  5
25FEC
  8
0
 10
4687.818519106007443
 20
619.5966672460625659
 30
0.0
 40
0.082590736034968
 50
3.942111706233248
 51
81.2913706712691635
  0
LINE
  5
25FED
  8
0
 10
4687.8310241442259212
 20
619.6783058012797483
 30
0.0
 11
4680.6899142123247657
 21
619.6807883528797447
 31
0.0
  0
ARC
  5
25FEE
  8
0
 10
4680.699182163374644
 20
619.5953419840974448
 30
0.0
 40
0.0859475238429649
 50
96.1903935601906568
 51
175.3450164775254052
  0
LINE
  5
25FEF
  8
0
 10
4680.6135181411245867
 20
619.6023170931797495
 30
0.0
 11
4680.6135272862247803
 21
617.2257484979687661
 31
0.0
  0
ARC
  5
25FF0
  8
0
 10
4680.6957615973469728
 20
617.2312783634231437
 30
0.0
 40
0.0824200299533133
 50
183.8470763153692076
 51
261.3864160044975051
  0
LINE
  5
25FF1
  8
0
 10
4680.6834175693247744
 20
617.1497879571797966
 30
0.0
 11
4687.8245274941245953
 21
617.1473054054797558
 31
0.0
  0
ARC
  5
25FF2
  8
0
 10
4687.8152654205978251
 20
617.2327460591865247
 30
0.0
 40
0.0859412084614658
 50
276.1869088070799876
 51
355.3485027668336897
  0
LINE
  5
25FF3
  8
0
 10
4687.9009235725252438
 20
617.2257766746797643
 30
0.0
 11
4687.9009144339242994
 21
619.6023452400797851
 31
0.0
  0
ARC
  5
25FF4
  8
0
 10
4695.1196191060071214
 20
619.5966672460625659
 30
0.0
 40
0.082590736034968
 50
3.942111706233248
 51
81.2913706712691635
  0
LINE
  5
25FF5
  8
0
 10
4695.1321241442246901
 20
619.6783058012797483
 30
0.0
 11
4687.9910142123253536
 21
619.6807883528797447
 31
0.0
  0
ARC
  5
25FF6
  8
0
 10
4688.0002821633752319
 20
619.5953419840974448
 30
0.0
 40
0.0859475238429649
 50
96.1903935601906568
 51
175.3450164775254052
  0
LINE
  5
25FF7
  8
0
 10
4687.9146181411260841
 20
619.6023170931797495
 30
0.0
 11
4687.9146272862253682
 21
617.2257484979687661
 31
0.0
  0
ARC
  5
25FF8
  8
0
 10
4687.9968615973466513
 20
617.2312783634231437
 30
0.0
 40
0.0824200299533133
 50
183.8470763153692076
 51
261.3864160044975051
  0
LINE
  5
25FF9
  8
0
 10
4687.9845175693253623
 20
617.1497879571797966
 30
0.0
 11
4695.1256274941260926
 21
617.1473054054797558
 31
0.0
  0
ARC
  5
25FFA
  8
0
 10
4695.1163654205993225
 20
617.2327460591865247
 30
0.0
 40
0.0859412084614658
 50
276.1869088070799876
 51
355.3485027668336897
  0
LINE
  5
25FFB
  8
0
 10
4695.2020235725258317
 20
617.2257766746797643
 30
0.0
 11
4695.2020144339257968
 21
619.6023452400797851
 31
0.0
  0
ARC
  5
25FFC
  8
0
 10
4702.4207191060067998
 20
619.5966672460625659
 30
0.0
 40
0.082590736034968
 50
3.942111706233248
 51
81.2913706712691635
  0
LINE
  5
25FFD
  8
0
 10
4702.433224144225278
 20
619.6783058012797483
 30
0.0
 11
4695.2921142123259415
 21
619.6807883528797447
 31
0.0
  0
ARC
  5
25FFE
  8
0
 10
4695.3013821633749103
 20
619.5953419840974448
 30
0.0
 40
0.0859475238429649
 50
96.1903935601906568
 51
175.3450164775254052
  0
LINE
  5
25FFF
  8
0
 10
4695.2157181411257625
 20
619.6023170931797495
 30
0.0
 11
4695.2157272862250466
 21
617.2257484979687661
 31
0.0
  0
ARC
  5
26000
  8
0
 10
4695.2979615973472391
 20
617.2312783634231437
 30
0.0
 40
0.0824200299533133
 50
183.8470763153692076
 51
261.3864160044975051
  0
LINE
  5
26001
  8
0
 10
4695.2856175693241312
 20
617.1497879571797966
 30
0.0
 11
4702.426727494125771
 21
617.1473054054797558
 31
0.0
  0
ARC
  5
26002
  8
0
 10
4702.4174654205990009
 20
617.2327460591865247
 30
0.0
 40
0.0859412084614658
 50
276.1869088070799876
 51
355.3485027668336897
  0
LINE
  5
26003
  8
0
 10
4702.5031235725246006
 20
617.2257766746797643
 30
0.0
 11
4702.5031144339263847
 21
619.6023452400797851
 31
0.0
  0
ARC
  5
26004
  8
0
 10
4698.7701691060074154
 20
617.048617246062463
 30
0.0
 40
0.082590736034968
 50
3.942111706233248
 51
81.2913706712691635
  0
LINE
  5
26005
  8
0
 10
4698.7826741442258935
 20
617.1302558012796453
 30
0.0
 11
4691.641564212324738
 21
617.1327383528797554
 31
0.0
  0
ARC
  5
26006
  8
0
 10
4691.6508321633746164
 20
617.0472919840975692
 30
0.0
 40
0.0859475238429649
 50
96.1903935601906568
 51
175.3450164775254052
  0
LINE
  5
26007
  8
0
 10
4691.565168141124559
 20
617.0542670931798739
 30
0.0
 11
4691.5651772862247526
 21
614.6776984979687768
 31
0.0
  0
ARC
  5
26008
  8
0
 10
4691.6474115973469452
 20
614.6832283634231544
 30
0.0
 40
0.0824200299533133
 50
183.8470763153692076
 51
261.3864160044975051
  0
LINE
  5
26009
  8
0
 10
4691.6350675693247467
 20
614.6017379571798074
 30
0.0
 11
4698.7761774941245676
 21
614.5992554054797665
 31
0.0
  0
ARC
  5
2600A
  8
0
 10
4698.7669154205977975
 20
614.6846960591864217
 30
0.0
 40
0.0859412084614658
 50
276.1869088070799876
 51
355.3485027668336897
  0
LINE
  5
2600B
  8
0
 10
4698.8525735725252162
 20
614.677726674679775
 30
0.0
 11
4698.8525644339260907
 21
617.0542952400797958
 31
0.0
  0
ARC
  5
2600C
  8
0
 10
4691.469069106007737
 20
617.048617246062463
 30
0.0
 40
0.082590736034968
 50
3.942111706233248
 51
81.2913706712691635
  0
LINE
  5
2600D
  8
0
 10
4691.4815741442253056
 20
617.1302558012796453
 30
0.0
 11
4684.3404642123259691
 21
617.1327383528797554
 31
0.0
  0
ARC
  5
2600E
  8
0
 10
4684.349732163374938
 20
617.0472919840975692
 30
0.0
 40
0.0859475238429649
 50
96.1903935601906568
 51
175.3450164775254052
  0
LINE
  5
2600F
  8
0
 10
4684.2640681411257901
 20
617.0542670931798739
 30
0.0
 11
4684.2640772862250742
 21
614.6776984979687768
 31
0.0
  0
ARC
  5
26010
  8
0
 10
4684.3463115973472668
 20
614.6832283634231544
 30
0.0
 40
0.0824200299533133
 50
183.8470763153692076
 51
261.3864160044975051
  0
LINE
  5
26011
  8
0
 10
4684.3339675693250683
 20
614.6017379571798074
 30
0.0
 11
4691.4750774941257987
 21
614.5992554054797665
 31
0.0
  0
ARC
  5
26012
  8
0
 10
4691.4658154205981191
 20
614.6846960591864217
 30
0.0
 40
0.0859412084614658
 50
276.1869088070799876
 51
355.3485027668336897
  0
LINE
  5
26013
  8
0
 10
4691.5514735725246283
 20
614.677726674679775
 30
0.0
 11
4691.5514644339245933
 21
617.0542952400797958
 31
0.0
  0
ARC
  5
26014
  8
0
 10
4684.1679691060071491
 20
617.048617246062463
 30
0.0
 40
0.082590736034968
 50
3.942111706233248
 51
81.2913706712691635
  0
LINE
  5
26015
  8
0
 10
4684.1804741442256272
 20
617.1302558012796453
 30
0.0
 11
4677.0393642123253812
 21
617.1327383528797554
 31
0.0
  0
ARC
  5
26016
  8
0
 10
4677.0486321633752596
 20
617.0472919840975692
 30
0.0
 40
0.0859475238429649
 50
96.1903935601906568
 51
175.3450164775254052
  0
LINE
  5
26017
  8
0
 10
4676.9629681411252022
 20
617.0542670931798739
 30
0.0
 11
4676.9629772862253958
 21
614.6776984979687768
 31
0.0
  0
ARC
  5
26018
  8
0
 10
4677.0452115973475884
 20
614.6832283634231544
 30
0.0
 40
0.0824200299533133
 50
183.8470763153692076
 51
261.3864160044975051
  0
LINE
  5
26019
  8
0
 10
4677.0328675693262994
 20
614.6017379571798074
 30
0.0
 11
4684.1739774941252108
 21
614.5992554054797665
 31
0.0
  0
ARC
  5
2601A
  8
0
 10
4684.1647154205993502
 20
614.6846960591864217
 30
0.0
 40
0.0859412084614658
 50
276.1869088070799876
 51
355.3485027668336897
  0
LINE
  5
2601B
  8
0
 10
4684.2503735725258593
 20
614.677726674679775
 30
0.0
 11
4684.2503644339258244
 21
617.0542952400797958
 31
0.0
  0
ARC
  5
2601C
  8
0
 10
4687.818519106007443
 20
614.5005672460625874
 30
0.0
 40
0.082590736034968
 50
3.942111706233248
 51
81.2913706712691635
  0
LINE
  5
2601D
  8
0
 10
4687.8310241442259212
 20
614.5822058012797697
 30
0.0
 11
4680.6899142123247657
 21
614.5846883528796525
 31
0.0
  0
ARC
  5
2601E
  8
0
 10
4680.699182163374644
 20
614.4992419840974662
 30
0.0
 40
0.0859475238429649
 50
96.1903935601906568
 51
175.3450164775254052
  0
LINE
  5
2601F
  8
0
 10
4680.6135181411245867
 20
614.5062170931796572
 30
0.0
 11
4680.6135272862247803
 21
612.1296484979689012
 31
0.0
  0
ARC
  5
26020
  8
0
 10
4680.6957615973469728
 20
612.1351783634230515
 30
0.0
 40
0.0824200299533133
 50
183.8470763153692076
 51
261.3864160044975051
  0
LINE
  5
26021
  8
0
 10
4680.6834175693247744
 20
612.0536879571797044
 30
0.0
 11
4687.8245274941245953
 21
612.0512054054798909
 31
0.0
  0
ARC
  5
26022
  8
0
 10
4687.8152654205978251
 20
612.1366460591865462
 30
0.0
 40
0.0859412084614658
 50
276.1869088070799876
 51
355.3485027668336897
  0
LINE
  5
26023
  8
0
 10
4687.9009235725252438
 20
612.1296766746798994
 30
0.0
 11
4687.9009144339242994
 21
614.5062452400796928
 31
0.0
  0
ARC
  5
26024
  8
0
 10
4695.1196191060071214
 20
614.5005672460625874
 30
0.0
 40
0.082590736034968
 50
3.942111706233248
 51
81.2913706712691635
  0
LINE
  5
26025
  8
0
 10
4695.1321241442246901
 20
614.5822058012797697
 30
0.0
 11
4687.9910142123253536
 21
614.5846883528796525
 31
0.0
  0
ARC
  5
26026
  8
0
 10
4688.0002821633752319
 20
614.4992419840974662
 30
0.0
 40
0.0859475238429649
 50
96.1903935601906568
 51
175.3450164775254052
  0
LINE
  5
26027
  8
0
 10
4687.9146181411260841
 20
614.5062170931796572
 30
0.0
 11
4687.9146272862253682
 21
612.1296484979689012
 31
0.0
  0
ARC
  5
26028
  8
0
 10
4687.9968615973466513
 20
612.1351783634230515
 30
0.0
 40
0.0824200299533133
 50
183.8470763153692076
 51
261.3864160044975051
  0
LINE
  5
26029
  8
0
 10
4687.9845175693253623
 20
612.0536879571797044
 30
0.0
 11
4695.1256274941260926
 21
612.0512054054798909
 31
0.0
  0
ARC
  5
2602A
  8
0
 10
4695.1163654205993225
 20
612.1366460591865462
 30
0.0
 40
0.0859412084614658
 50
276.1869088070799876
 51
355.3485027668336897
  0
LINE
  5
2602B
  8
0
 10
4695.2020235725258317
 20
612.1296766746798994
 30
0.0
 11
4695.2020144339257968
 21
614.5062452400796928
 31
0.0
  0
ARC
  5
2602C
  8
0
 10
4702.4207191060067998
 20
614.5005672460625874
 30
0.0
 40
0.082590736034968
 50
3.942111706233248
 51
81.2913706712691635
  0
LINE
  5
2602D
  8
0
 10
4702.433224144225278
 20
614.5822058012797697
 30
0.0
 11
4695.2921142123259415
 21
614.5846883528796525
 31
0.0
  0
ARC
  5
2602E
  8
0
 10
4695.3013821633749103
 20
614.4992419840974662
 30
0.0
 40
0.0859475238429649
 50
96.1903935601906568
 51
175.3450164775254052
  0
LINE
  5
2602F
  8
0
 10
4695.2157181411257625
 20
614.5062170931796572
 30
0.0
 11
4695.2157272862250466
 21
612.1296484979689012
 31
0.0
  0
ARC
  5
26030
  8
0
 10
4695.2979615973472391
 20
612.1351783634230515
 30
0.0
 40
0.0824200299533133
 50
183.8470763153692076
 51
261.3864160044975051
  0
LINE
  5
26031
  8
0
 10
4695.2856175693241312
 20
612.0536879571797044
 30
0.0
 11
4702.426727494125771
 21
612.0512054054798909
 31
0.0
  0
ARC
  5
26032
  8
0
 10
4702.4174654205990009
 20
612.1366460591865462
 30
0.0
 40
0.0859412084614658
 50
276.1869088070799876
 51
355.3485027668336897
  0
LINE
  5
26033
  8
0
 10
4702.5031235725246006
 20
612.1296766746798994
 30
0.0
 11
4702.5031144339263847
 21
614.5062452400796928
 31
0.0
  0
ARC
  5
26034
  8
0
 10
4698.7701691060074154
 20
611.9525172460625981
 30
0.0
 40
0.082590736034968
 50
3.942111706233248
 51
81.2913706712691635
  0
LINE
  5
26035
  8
0
 10
4698.7826741442258935
 20
612.0341558012796668
 30
0.0
 11
4691.641564212324738
 21
612.0366383528796632
 31
0.0
  0
ARC
  5
26036
  8
0
 10
4691.6508321633746164
 20
611.951191984097477
 30
0.0
 40
0.0859475238429649
 50
96.1903935601906568
 51
175.3450164775254052
  0
LINE
  5
26037
  8
0
 10
4691.565168141124559
 20
611.9581670931798953
 30
0.0
 11
4691.5651772862247526
 21
609.5815984979687983
 31
0.0
  0
ARC
  5
26038
  8
0
 10
4691.6474115973469452
 20
609.5871283634230622
 30
0.0
 40
0.0824200299533133
 50
183.8470763153692076
 51
261.3864160044975051
  0
LINE
  5
26039
  8
0
 10
4691.6350675693247467
 20
609.5056379571798288
 30
0.0
 11
4698.7761774941245676
 21
609.503155405479788
 31
0.0
  0
ARC
  5
2603A
  8
0
 10
4698.7669154205977975
 20
609.5885960591864432
 30
0.0
 40
0.0859412084614658
 50
276.1869088070799876
 51
355.3485027668336897
  0
LINE
  5
2603B
  8
0
 10
4698.8525735725252162
 20
609.5816266746797965
 30
0.0
 11
4698.8525644339260907
 21
611.9581952400798173
 31
0.0
  0
ARC
  5
2603C
  8
0
 10
4691.469069106007737
 20
611.9525172460625981
 30
0.0
 40
0.082590736034968
 50
3.942111706233248
 51
81.2913706712691635
  0
LINE
  5
2603D
  8
0
 10
4691.4815741442253056
 20
612.0341558012796668
 30
0.0
 11
4684.3404642123259691
 21
612.0366383528796632
 31
0.0
  0
ARC
  5
2603E
  8
0
 10
4684.349732163374938
 20
611.951191984097477
 30
0.0
 40
0.0859475238429649
 50
96.1903935601906568
 51
175.3450164775254052
  0
LINE
  5
2603F
  8
0
 10
4684.2640681411257901
 20
611.9581670931798953
 30
0.0
 11
4684.2640772862250742
 21
609.5815984979687983
 31
0.0
  0
ARC
  5
26040
  8
0
 10
4684.3463115973472668
 20
609.5871283634230622
 30
0.0
 40
0.0824200299533133
 50
183.8470763153692076
 51
261.3864160044975051
  0
LINE
  5
26041
  8
0
 10
4684.3339675693250683
 20
609.5056379571798288
 30
0.0
 11
4691.4750774941257987
 21
609.503155405479788
 31
0.0
  0
ARC
  5
26042
  8
0
 10
4691.4658154205981191
 20
609.5885960591864432
 30
0.0
 40
0.0859412084614658
 50
276.1869088070799876
 51
355.3485027668336897
  0
LINE
  5
26043
  8
0
 10
4691.5514735725246283
 20
609.5816266746797965
 30
0.0
 11
4691.5514644339245933
 21
611.9581952400798173
 31
0.0
  0
ARC
  5
26044
  8
0
 10
4684.1679691060071491
 20
611.9525172460625981
 30
0.0
 40
0.082590736034968
 50
3.942111706233248
 51
81.2913706712691635
  0
LINE
  5
26045
  8
0
 10
4684.1804741442256272
 20
612.0341558012796668
 30
0.0
 11
4677.0393642123253812
 21
612.0366383528796632
 31
0.0
  0
ARC
  5
26046
  8
0
 10
4677.0486321633752596
 20
611.951191984097477
 30
0.0
 40
0.0859475238429649
 50
96.1903935601906568
 51
175.3450164775254052
  0
LINE
  5
26047
  8
0
 10
4676.9629681411252022
 20
611.9581670931798953
 30
0.0
 11
4676.9629772862253958
 21
609.5815984979687983
 31
0.0
  0
ARC
  5
26048
  8
0
 10
4677.0452115973475884
 20
609.5871283634230622
 30
0.0
 40
0.0824200299533133
 50
183.8470763153692076
 51
261.3864160044975051
  0
LINE
  5
26049
  8
0
 10
4677.0328675693262994
 20
609.5056379571798288
 30
0.0
 11
4684.1739774941252108
 21
609.503155405479788
 31
0.0
  0
ARC
  5
2604A
  8
0
 10
4684.1647154205993502
 20
609.5885960591864432
 30
0.0
 40
0.0859412084614658
 50
276.1869088070799876
 51
355.3485027668336897
  0
LINE
  5
2604B
  8
0
 10
4684.2503735725258593
 20
609.5816266746797965
 30
0.0
 11
4684.2503644339258244
 21
611.9581952400798173
 31
0.0
  0
ARC
  5
2604C
  8
0
 10
4687.8181950137322929
 20
609.4044014016076289
 30
0.0
 40
0.082590736034968
 50
3.942111706233248
 51
81.2913706712691635
  0
LINE
  5
2604D
  8
0
 10
4687.830700051948952
 20
609.4860399568248113
 30
0.0
 11
4680.689590120048706
 21
609.488522508424694
 31
0.0
  0
ARC
  5
2604E
  8
0
 10
4680.6988580710985843
 20
609.4030761396425078
 30
0.0
 40
0.0859475238429649
 50
96.1903935601906568
 51
175.3450164775254052
  0
LINE
  5
2604F
  8
0
 10
4680.613194048850346
 20
609.4100512487249262
 30
0.0
 11
4680.6132031939478111
 21
607.0334826535139428
 31
0.0
  0
ARC
  5
26050
  8
0
 10
4680.6954375050709132
 20
607.0390125189682067
 30
0.0
 40
0.0824200299533133
 50
183.8470763153692076
 51
261.3864160044975051
  0
LINE
  5
26051
  8
0
 10
4680.6830934770487147
 20
606.957522112724746
 30
0.0
 11
4687.8242034018503546
 21
606.9550395610248188
 31
0.0
  0
ARC
  5
26052
  8
0
 10
4687.8149413283217655
 20
607.0404802147313603
 30
0.0
 40
0.0859412084614658
 50
276.1869088070799876
 51
355.3485027668336897
  0
LINE
  5
26053
  8
0
 10
4687.9005994802491841
 20
607.0335108302248273
 30
0.0
 11
4687.9005903416491492
 21
609.4100793956248481
 31
0.0
  0
ARC
  5
26054
  8
0
 10
4695.1196191060071214
 20
609.4044672460626089
 30
0.0
 40
0.082590736034968
 50
3.942111706233248
 51
81.2913706712691635
  0
LINE
  5
26055
  8
0
 10
4695.1321241442246901
 20
609.4861058012797912
 30
0.0
 11
4687.9910142123253536
 21
609.4885883528797876
 31
0.0
  0
ARC
  5
26056
  8
0
 10
4688.0002821633752319
 20
609.403141984097374
 30
0.0
 40
0.0859475238429649
 50
96.1903935601906568
 51
175.3450164775254052
  0
LINE
  5
26057
  8
0
 10
4687.9146181411260841
 20
609.4101170931796787
 30
0.0
 11
4687.9146272862253682
 21
607.0335484979689227
 31
0.0
  0
ARC
  5
26058
  8
0
 10
4687.9968615973466513
 20
607.0390783634230729
 30
0.0
 40
0.0824200299533133
 50
183.8470763153692076
 51
261.3864160044975051
  0
LINE
  5
26059
  8
0
 10
4687.9845175693253623
 20
606.9575879571797259
 30
0.0
 11
4695.1256274941260926
 21
606.9551054054799124
 31
0.0
  0
ARC
  5
2605A
  8
0
 10
4695.1163654205993225
 20
607.0405460591864539
 30
0.0
 40
0.0859412084614658
 50
276.1869088070799876
 51
355.3485027668336897
  0
LINE
  5
2605B
  8
0
 10
4695.2020235725258317
 20
607.0335766746798072
 30
0.0
 11
4695.2020144339257968
 21
609.410145240079828
 31
0.0
  0
ARC
  5
2605C
  8
0
 10
4702.4207191060067998
 20
609.4044672460626089
 30
0.0
 40
0.082590736034968
 50
3.942111706233248
 51
81.2913706712691635
  0
LINE
  5
2605D
  8
0
 10
4702.433224144225278
 20
609.4861058012797912
 30
0.0
 11
4695.2921142123259415
 21
609.4885883528797876
 31
0.0
  0
ARC
  5
2605E
  8
0
 10
4695.3013821633749103
 20
609.403141984097374
 30
0.0
 40
0.0859475238429649
 50
96.1903935601906568
 51
175.3450164775254052
  0
LINE
  5
2605F
  8
0
 10
4695.2157181411257625
 20
609.4101170931796787
 30
0.0
 11
4695.2157272862250466
 21
607.0335484979689227
 31
0.0
  0
ARC
  5
26060
  8
0
 10
4695.2979615973472391
 20
607.0390783634230729
 30
0.0
 40
0.0824200299533133
 50
183.8470763153692076
 51
261.3864160044975051
  0
LINE
  5
26061
  8
0
 10
4695.2856175693241312
 20
606.9575879571797259
 30
0.0
 11
4702.426727494125771
 21
606.9551054054799124
 31
0.0
  0
ARC
  5
26062
  8
0
 10
4702.4174654205990009
 20
607.0405460591864539
 30
0.0
 40
0.0859412084614658
 50
276.1869088070799876
 51
355.3485027668336897
  0
LINE
  5
26063
  8
0
 10
4702.5031235725246006
 20
607.0335766746798072
 30
0.0
 11
4702.5031144339263847
 21
609.410145240079828
 31
0.0
  0
ARC
  5
26064
  8
0
 10
4698.7701691060074154
 20
606.8564172460626196
 30
0.0
 40
0.082590736034968
 50
3.942111706233248
 51
81.2913706712691635
  0
LINE
  5
26065
  8
0
 10
4698.7826741442258935
 20
606.9380558012798019
 30
0.0
 11
4691.641564212324738
 21
606.9405383528796847
 31
0.0
  0
ARC
  5
26066
  8
0
 10
4691.6508321633746164
 20
606.8550919840974984
 30
0.0
 40
0.0859475238429649
 50
96.1903935601906568
 51
175.3450164775254052
  0
LINE
  5
26067
  8
0
 10
4691.565168141124559
 20
606.8620670931798031
 30
0.0
 11
4691.5651772862247526
 21
604.4854984979689334
 31
0.0
  0
ARC
  5
26068
  8
0
 10
4691.6474115973469452
 20
604.4910283634231973
 30
0.0
 40
0.0824200299533133
 50
183.8470763153692076
 51
261.3864160044975051
  0
LINE
  5
26069
  8
0
 10
4691.6350675693247467
 20
604.4095379571797366
 30
0.0
 11
4698.7761774941245676
 21
604.4070554054798095
 31
0.0
  0
ARC
  5
2606A
  8
0
 10
4698.7669154205977975
 20
604.492496059186351
 30
0.0
 40
0.0859412084614658
 50
276.1869088070799876
 51
355.3485027668336897
  0
LINE
  5
2606B
  8
0
 10
4698.8525735725252162
 20
604.4855266746798179
 30
0.0
 11
4698.8525644339260907
 21
606.8620952400798387
 31
0.0
  0
ARC
  5
2606C
  8
0
 10
4691.469069106007737
 20
606.8564172460626196
 30
0.0
 40
0.082590736034968
 50
3.942111706233248
 51
81.2913706712691635
  0
LINE
  5
2606D
  8
0
 10
4691.4815741442253056
 20
606.9380558012798019
 30
0.0
 11
4684.3404642123259691
 21
606.9405383528796847
 31
0.0
  0
ARC
  5
2606E
  8
0
 10
4684.349732163374938
 20
606.8550919840974984
 30
0.0
 40
0.0859475238429649
 50
96.1903935601906568
 51
175.3450164775254052
  0
LINE
  5
2606F
  8
0
 10
4684.2640681411257901
 20
606.8620670931798031
 30
0.0
 11
4684.2640772862250742
 21
604.4854984979689334
 31
0.0
  0
ARC
  5
26070
  8
0
 10
4684.3463115973472668
 20
604.4910283634231973
 30
0.0
 40
0.0824200299533133
 50
183.8470763153692076
 51
261.3864160044975051
  0
LINE
  5
26071
  8
0
 10
4684.3339675693250683
 20
604.4095379571797366
 30
0.0
 11
4691.4750774941257987
 21
604.4070554054798095
 31
0.0
  0
ARC
  5
26072
  8
0
 10
4691.4658154205981191
 20
604.492496059186351
 30
0.0
 40
0.0859412084614658
 50
276.1869088070799876
 51
355.3485027668336897
  0
LINE
  5
26073
  8
0
 10
4691.5514735725246283
 20
604.4855266746798179
 30
0.0
 11
4691.5514644339245933
 21
606.8620952400798387
 31
0.0
  0
ARC
  5
26074
  8
0
 10
4684.1679691060071491
 20
606.8564172460626196
 30
0.0
 40
0.082590736034968
 50
3.942111706233248
 51
81.2913706712691635
  0
LINE
  5
26075
  8
0
 10
4684.1804741442256272
 20
606.9380558012798019
 30
0.0
 11
4677.0393642123253812
 21
606.9405383528796847
 31
0.0
  0
ARC
  5
26076
  8
0
 10
4677.0486321633752596
 20
606.8550919840974984
 30
0.0
 40
0.0859475238429649
 50
96.1903935601906568
 51
175.3450164775254052
  0
LINE
  5
26077
  8
0
 10
4676.9629681411252022
 20
606.8620670931798031
 30
0.0
 11
4676.9629772862253958
 21
604.4854984979689334
 31
0.0
  0
ARC
  5
26078
  8
0
 10
4677.0452115973475884
 20
604.4910283634231973
 30
0.0
 40
0.0824200299533133
 50
183.8470763153692076
 51
261.3864160044975051
  0
LINE
  5
26079
  8
0
 10
4677.0328675693262994
 20
604.4095379571797366
 30
0.0
 11
4684.1739774941252108
 21
604.4070554054798095
 31
0.0
  0
ARC
  5
2607A
  8
0
 10
4684.1647154205993502
 20
604.492496059186351
 30
0.0
 40
0.0859412084614658
 50
276.1869088070799876
 51
355.3485027668336897
  0
LINE
  5
2607B
  8
0
 10
4684.2503735725258593
 20
604.4855266746798179
 30
0.0
 11
4684.2503644339258244
 21
606.8620952400798387
 31
0.0
  0
ARC
  5
2607C
  8
0
 10
4687.818519106007443
 20
604.3083672460626303
 30
0.0
 40
0.082590736034968
 50
3.942111706233248
 51
81.2913706712691635
  0
LINE
  5
2607D
  8
0
 10
4687.8310241442259212
 20
604.390005801279699
 30
0.0
 11
4680.6899142123247657
 21
604.3924883528798091
 31
0.0
  0
ARC
  5
2607E
  8
0
 10
4680.699182163374644
 20
604.3070419840975092
 30
0.0
 40
0.0859475238429649
 50
96.1903935601906568
 51
175.3450164775254052
  0
LINE
  5
2607F
  8
0
 10
4680.6135181411245867
 20
604.3140170931798139
 30
0.0
 11
4680.6135272862247803
 21
601.9374484979689441
 31
0.0
  0
ARC
  5
26080
  8
0
 10
4680.6957615973469728
 20
601.9429783634229807
 30
0.0
 40
0.0824200299533133
 50
183.8470763153692076
 51
261.3864160044975051
  0
LINE
  5
26081
  8
0
 10
4680.6834175693247744
 20
601.8614879571797474
 30
0.0
 11
4687.8245274941245953
 21
601.8590054054798202
 31
0.0
  0
ARC
  5
26082
  8
0
 10
4687.8152654205978251
 20
601.9444460591864754
 30
0.0
 40
0.0859412084614658
 50
276.1869088070799876
 51
355.3485027668336897
  0
LINE
  5
26083
  8
0
 10
4687.9009235725252438
 20
601.9374766746798286
 30
0.0
 11
4687.9009144339242994
 21
604.3140452400798495
 31
0.0
  0
ARC
  5
26084
  8
0
 10
4695.1196191060071214
 20
604.3083672460626303
 30
0.0
 40
0.082590736034968
 50
3.942111706233248
 51
81.2913706712691635
  0
LINE
  5
26085
  8
0
 10
4695.1321241442246901
 20
604.390005801279699
 30
0.0
 11
4687.9910142123253536
 21
604.3924883528798091
 31
0.0
  0
ARC
  5
26086
  8
0
 10
4688.0002821633752319
 20
604.3070419840975092
 30
0.0
 40
0.0859475238429649
 50
96.1903935601906568
 51
175.3450164775254052
  0
LINE
  5
26087
  8
0
 10
4687.9146181411260841
 20
604.3140170931798139
 30
0.0
 11
4687.9146272862253682
 21
601.9374484979689441
 31
0.0
  0
ARC
  5
26088
  8
0
 10
4687.9968615973466513
 20
601.9429783634229807
 30
0.0
 40
0.0824200299533133
 50
183.8470763153692076
 51
261.3864160044975051
  0
LINE
  5
26089
  8
0
 10
4687.9845175693253623
 20
601.8614879571797474
 30
0.0
 11
4695.1256274941260926
 21
601.8590054054798202
 31
0.0
  0
ARC
  5
2608A
  8
0
 10
4695.1163654205993225
 20
601.9444460591864754
 30
0.0
 40
0.0859412084614658
 50
276.1869088070799876
 51
355.3485027668336897
  0
LINE
  5
2608B
  8
0
 10
4695.2020235725258317
 20
601.9374766746798286
 30
0.0
 11
4695.2020144339257968
 21
604.3140452400798495
 31
0.0
  0
ARC
  5
2608C
  8
0
 10
4702.4207191060067998
 20
604.3083672460626303
 30
0.0
 40
0.082590736034968
 50
3.942111706233248
 51
81.2913706712691635
  0
LINE
  5
2608D
  8
0
 10
4702.433224144225278
 20
604.390005801279699
 30
0.0
 11
4695.2921142123259415
 21
604.3924883528798091
 31
0.0
  0
ARC
  5
2608E
  8
0
 10
4695.3013821633749103
 20
604.3070419840975092
 30
0.0
 40
0.0859475238429649
 50
96.1903935601906568
 51
175.3450164775254052
  0
LINE
  5
2608F
  8
0
 10
4695.2157181411257625
 20
604.3140170931798139
 30
0.0
 11
4695.2157272862250466
 21
601.9374484979689441
 31
0.0
  0
ARC
  5
26090
  8
0
 10
4695.2979615973472391
 20
601.9429783634229807
 30
0.0
 40
0.0824200299533133
 50
183.8470763153692076
 51
261.3864160044975051
  0
LINE
  5
26091
  8
0
 10
4695.2856175693241312
 20
601.8614879571797474
 30
0.0
 11
4702.426727494125771
 21
601.8590054054798202
 31
0.0
  0
ARC
  5
26092
  8
0
 10
4702.4174654205990009
 20
601.9444460591864754
 30
0.0
 40
0.0859412084614658
 50
276.1869088070799876
 51
355.3485027668336897
  0
LINE
  5
26093
  8
0
 10
4702.5031235725246006
 20
601.9374766746798286
 30
0.0
 11
4702.5031144339263847
 21
604.3140452400798495
 31
0.0
  0
ARC
  5
26094
  8
0
 10
4672.263032573117016
 20
621.8394330535927566
 30
0.0
 40
1.6165649126030699
 50
1.299682892622533
 51
13.9631559315515705
  0
LINE
  5
26095
  8
0
 10
4673.8791815999411483
 20
621.8760996563213439
 30
0.0
 11
4673.8791816006259978
 21
620.0480968791805481
 31
0.0
  0
ARC
  5
26096
  8
0
 10
4672.2613877940311795
 20
620.0849807984058089
 30
0.0
 40
1.618214208364283
 50
346.0433338061095014
 51
358.6939455120976845
  0
ARC
  5
26097
  8
0
 10
4676.8691059396069249
 20
622.1498687784118147
 30
0.0
 40
0.0796300539901669
 50
356.9903457378686085
 51
90.9176753425472413
  0
LINE
  5
26098
  8
0
 10
4676.8678306028632505
 20
622.2294886189960152
 30
0.0
 11
4673.8318297604264444
 21
622.2295067668211459
 31
0.0
  0
LINE
  5
26099
  8
0
 10
4673.831829759809807
 20
619.694686990780724
 30
0.0
 11
4676.867682359178616
 21
619.6945530133391458
 31
0.0
  0
ARC
  5
2609A
  8
0
 10
4676.8689218182844343
 20
619.7744228637485548
 30
0.0
 40
0.0798794670943839
 50
269.1109276478118773
 51
2.9922440426830921
  0
LINE
  5
2609B
  8
0
 10
4676.9486923785261752
 20
619.7785926337807041
 30
0.0
 11
4676.9486261600250145
 21
622.1456878642806032
 31
0.0
  0
ARC
  5
2609C
  8
0
 10
4676.8691059396069249
 20
617.0537687784119498
 30
0.0
 40
0.0796300539901669
 50
356.9903457378686085
 51
90.9176753425472413
  0
LINE
  5
2609D
  8
0
 10
4676.8678306028632505
 20
617.1333886189961504
 30
0.0
 11
4673.8318297604264444
 21
617.1334067668212811
 31
0.0
  0
LINE
  5
2609E
  8
0
 10
4673.831829759809807
 20
614.5985869907809729
 30
0.0
 11
4676.867682359178616
 21
614.5984530133395083
 31
0.0
  0
ARC
  5
2609F
  8
0
 10
4676.8689218182844343
 20
614.6783228637488037
 30
0.0
 40
0.0798794670943839
 50
269.1109276478118773
 51
2.9922440426830921
  0
LINE
  5
260A0
  8
0
 10
4676.9486923785261752
 20
614.6824926337806119
 30
0.0
 11
4676.9486261600250145
 21
617.049587864280852
 31
0.0
  0
ARC
  5
260A1
  8
0
 10
4672.263044466332758
 20
611.647233052701722
 30
0.0
 40
1.6165649126030699
 50
1.299682892622533
 51
13.9631559315515705
  0
LINE
  5
260A2
  8
0
 10
4673.8791934931568903
 20
611.6838996554303094
 30
0.0
 11
4673.8791934938417398
 21
609.8558968782896272
 31
0.0
  0
ARC
  5
260A3
  8
0
 10
4672.261399687247831
 20
609.8927807975146607
 30
0.0
 40
1.618214208364283
 50
346.0433338061095014
 51
358.6939455120976845
  0
ARC
  5
260A4
  8
0
 10
4676.8691178328235765
 20
611.9576687775206665
 30
0.0
 40
0.0796300539901669
 50
356.9903457378686085
 51
90.9176753425472413
  0
LINE
  5
260A5
  8
0
 10
4676.8678424960789926
 20
612.0372886181049807
 30
0.0
 11
4673.8318416536421864
 21
612.0373067659301114
 31
0.0
  0
LINE
  5
260A6
  8
0
 10
4673.8318416530282775
 20
609.5024869898898032
 30
0.0
 11
4676.8676942523952675
 21
609.5023530124482249
 31
0.0
  0
ARC
  5
260A7
  8
0
 10
4676.8689337115010858
 20
609.5822228628575203
 30
0.0
 40
0.0798794670943839
 50
269.1109276478118773
 51
2.9922440426830921
  0
LINE
  5
260A8
  8
0
 10
4676.9487042717428267
 20
609.5863926328895559
 30
0.0
 11
4676.9486380532416661
 21
611.9534878633895687
 31
0.0
  0
ARC
  5
260A9
  8
0
 10
4672.2630322478407834
 20
606.5511330111294228
 30
0.0
 40
1.616565238696688
 50
1.299683531892341
 51
13.9631546363549397
  0
LINE
  5
260AA
  8
0
 10
4673.8791816002649284
 20
606.5877996392863452
 30
0.0
 11
4673.8791816009506874
 21
604.7597968621455493
 31
0.0
  0
ARC
  5
260AB
  8
0
 10
4672.2613881584420596
 20
604.7966807529168136
 30
0.0
 40
1.6182138437253071
 50
346.0433322594868741
 51
358.6939462254762248
  0
ARC
  5
260AC
  8
0
 10
4676.869105909298014
 20
606.8615687511505712
 30
0.0
 40
0.0796300831407492
 50
356.9903662663987234
 51
90.9176531959950154
  0
LINE
  5
260AD
  8
0
 10
4676.8678306028632505
 20
606.9411886213747493
 30
0.0
 11
4673.8318297604264444
 21
606.9412067675798426
 31
0.0
  0
LINE
  5
260AE
  8
0
 10
4673.831829759809807
 20
604.4063869908463857
 30
0.0
 11
4676.8676799121476506
 21
604.4062529746363452
 31
0.0
  0
ARC
  5
260AF
  8
0
 10
4676.8689223232222503
 20
604.4861214381497803
 30
0.0
 40
0.0798781262253188
 50
269.1087950493950984
 51
2.9933279778973221
  0
LINE
  5
260B0
  8
0
 10
4676.9486914655262808
 20
604.4902926472798299
 30
0.0
 11
4676.9486261603251478
 21
606.857387863980307
 31
0.0
  0
ARC
  5
260B1
  8
0
 10
4680.5174191060068551
 20
624.6927672460625445
 30
0.0
 40
0.082590736034968
 50
3.942111706233248
 51
81.2913706712691635
  0
LINE
  5
260B2
  8
0
 10
4680.5299241442253333
 20
624.7744058012798405
 30
0.0
 11
4673.8318297628002256
 21
624.7767343419523058
 31
0.0
  0
LINE
  5
260B3
  8
0
 10
4673.8318297604264444
 20
622.245731687738953
 30
0.0
 11
4680.5234274941249168
 21
622.243405405479848
 31
0.0
  0
ARC
  5
260B4
  8
0
 10
4680.5141654205990562
 20
622.3288460591865032
 30
0.0
 40
0.0859412084614658
 50
276.1869088070799876
 51
355.3485027668336897
  0
LINE
  5
260B5
  8
0
 10
4680.5998235725246559
 20
622.3218766746798565
 30
0.0
 11
4680.599814433924621
 21
624.6984452400797636
 31
0.0
  0
ARC
  5
260B6
  8
0
 10
4672.3656082864672499
 20
622.6155160694860342
 30
0.0
 40
1.4985765344588109
 50
348.9364325403482781
 51
359.2597315836163716
  0
LINE
  5
260B7
  8
0
 10
4673.8640597443263687
 20
622.5961548176829865
 30
0.0
 11
4673.8640488105565964
 21
624.4241612982331162
 31
0.0
  0
ARC
  5
260B8
  8
0
 10
4672.3359264959535722
 20
624.4018302280286434
 30
0.0
 40
1.5282854723785919
 50
0.8372268345937923
 51
10.9127617161005208
  0
ARC
  5
260B9
  8
0
 10
4680.5174191060068551
 20
619.5966672460625659
 30
0.0
 40
0.082590736034968
 50
3.942111706233248
 51
81.2913706712691635
  0
LINE
  5
260BA
  8
0
 10
4680.5299241442253333
 20
619.6783058012797483
 30
0.0
 11
4673.8318297599253128
 21
619.6806343419533505
 31
0.0
  0
LINE
  5
260BB
  8
0
 10
4673.8318297599453217
 20
617.1496316877392019
 30
0.0
 11
4680.5234274941249168
 21
617.1473054054797558
 31
0.0
  0
ARC
  5
260BC
  8
0
 10
4680.5141654205990562
 20
617.2327460591865247
 30
0.0
 40
0.0859412084614658
 50
276.1869088070799876
 51
355.3485027668336897
  0
LINE
  5
260BD
  8
0
 10
4680.5998235725246559
 20
617.2257766746797643
 30
0.0
 11
4680.599814433924621
 21
619.6023452400797851
 31
0.0
  0
ARC
  5
260BE
  8
0
 10
4672.3656082864672499
 20
617.5194160694860557
 30
0.0
 40
1.4985765344588109
 50
348.9364325403482781
 51
359.2597315836163716
  0
LINE
  5
260BF
  8
0
 10
4673.8640597443263687
 20
617.5000548176828943
 30
0.0
 11
4673.8640488105565964
 21
619.3280612982331377
 31
0.0
  0
ARC
  5
260C0
  8
0
 10
4672.3359264959535722
 20
619.3057302280286649
 30
0.0
 40
1.5282854723785919
 50
0.8372268345937923
 51
10.9127617161005208
  0
ARC
  5
260C1
  8
0
 10
4680.5174191060068551
 20
614.5005672460625874
 30
0.0
 40
0.082590736034968
 50
3.942111706233248
 51
81.2913706712691635
  0
LINE
  5
260C2
  8
0
 10
4680.5299241442253333
 20
614.5822058012797697
 30
0.0
 11
4673.8318297599271318
 21
614.5845343419533719
 31
0.0
  0
LINE
  5
260C3
  8
0
 10
4673.8318390659933357
 20
612.053531684504037
 30
0.0
 11
4680.5234274941249168
 21
612.0512054054798909
 31
0.0
  0
ARC
  5
260C4
  8
0
 10
4680.5141654205990562
 20
612.1366460591865462
 30
0.0
 40
0.0859412084614658
 50
276.1869088070799876
 51
355.3485027668336897
  0
LINE
  5
260C5
  8
0
 10
4680.5998235725246559
 20
612.1296766746798994
 30
0.0
 11
4680.599814433924621
 21
614.5062452400796928
 31
0.0
  0
ARC
  5
260C6
  8
0
 10
4672.3656082864672499
 20
612.4233160694858498
 30
0.0
 40
1.4985765344588109
 50
348.9364325403482781
 51
359.2597315836163716
  0
LINE
  5
260C7
  8
0
 10
4673.8640597443263687
 20
612.4039548176830294
 30
0.0
 11
4673.8640488105565964
 21
614.2319612982331591
 31
0.0
  0
ARC
  5
260C8
  8
0
 10
4672.3359264959535722
 20
614.2096302280288
 30
0.0
 40
1.5282854723787631
 50
0.8372268345937923
 51
10.9127617161005208
  0
ARC
  5
260C9
  8
0
 10
4680.5174191060068551
 20
609.4044672460626089
 30
0.0
 40
0.082590736034968
 50
3.942111706233248
 51
81.2913706712691635
  0
LINE
  5
260CA
  8
0
 10
4680.5299241442253333
 20
609.4861058012797912
 30
0.0
 11
4673.8318394083071325
 21
609.4884343385990633
 31
0.0
  0
LINE
  5
260CB
  8
0
 10
4673.8318297604264444
 20
606.9574316877390174
 30
0.0
 11
4680.5234274941249168
 21
606.9551054054799124
 31
0.0
  0
ARC
  5
260CC
  8
0
 10
4680.5141654205990562
 20
607.0405460591864539
 30
0.0
 40
0.0859412084614658
 50
276.1869088070799876
 51
355.3485027668336897
  0
LINE
  5
260CD
  8
0
 10
4680.5998235725246559
 20
607.0335766746798072
 30
0.0
 11
4680.599814433924621
 21
609.410145240079828
 31
0.0
  0
ARC
  5
260CE
  8
0
 10
4672.3656082864672499
 20
607.3272160694859849
 30
0.0
 40
1.4985765344588109
 50
348.9364325403482781
 51
359.2597315836163716
  0
LINE
  5
260CF
  8
0
 10
4673.8640597443263687
 20
607.3078548176830509
 30
0.0
 11
4673.8640488105565964
 21
609.1358612982331806
 31
0.0
  0
ARC
  5
260D0
  8
0
 10
4672.3359264959535722
 20
609.1135302280287078
 30
0.0
 40
1.528285472378903
 50
0.8372268346003053
 51
10.9127617161005208
  0
ARC
  5
260D1
  8
0
 10
4680.5174191060068551
 20
604.3083672460626303
 30
0.0
 40
0.082590736034968
 50
3.942111706233248
 51
81.2913706712691635
  0
LINE
  5
260D2
  8
0
 10
4680.5299241442253333
 20
604.390005801279699
 30
0.0
 11
4673.8318297586620247
 21
604.3923343419537559
 31
0.0
  0
LINE
  5
260D3
  8
0
 10
4673.8318295334092909
 20
601.8613316878179376
 30
0.0
 11
4680.5234274941249168
 21
601.8590054054798202
 31
0.0
  0
ARC
  5
260D4
  8
0
 10
4680.5141654205990562
 20
601.9444460591864754
 30
0.0
 40
0.0859412084614658
 50
276.1869088070799876
 51
355.3485027668336897
  0
LINE
  5
260D5
  8
0
 10
4680.5998235725246559
 20
601.9374766746798286
 30
0.0
 11
4680.599814433924621
 21
604.3140452400798495
 31
0.0
  0
ARC
  5
260D6
  8
0
 10
4672.3656082864672499
 20
602.2311160694860064
 30
0.0
 40
1.4985765344588109
 50
348.9364325403482781
 51
359.2597315836163716
  0
LINE
  5
260D7
  8
0
 10
4673.8640597443263687
 20
602.211754817682845
 30
0.0
 11
4673.8640488105565964
 21
604.0397612982330884
 31
0.0
  0
ARC
  5
260D8
  8
0
 10
4672.3359264959535722
 20
604.0174302280287293
 30
0.0
 40
1.5282854723786921
 50
0.8372268345937923
 51
10.9127617161005208
  0
LINE
  5
260D9
  8
0
 10
4673.8318297633531984
 20
624.7907869907796794
 30
0.0
 11
4673.8318297604264444
 21
624.7163357507535011
 31
0.0
  0
LINE
  5
260DA
  8
0
 10
4673.8318297604264444
 20
624.7163357507535011
 30
0.0
 11
4673.8365753255257005
 21
624.6911562990796938
 31
0.0
  0
LINE
  5
260DB
  8
0
 10
4673.8318297604264444
 20
622.2295067668211459
 30
0.0
 11
4673.8318297604264444
 21
622.3040788748796786
 31
0.0
  0
LINE
  5
260DC
  8
0
 10
4673.8318297604264444
 20
622.3040788748796786
 30
0.0
 11
4673.8363336023758166
 21
622.3279422967297023
 31
0.0
  0
LINE
  5
260DD
  8
0
 10
4673.8318297598088975
 20
619.6946869907724249
 30
0.0
 11
4673.8318297604264444
 21
619.620235591179835
 31
0.0
  0
LINE
  5
260DE
  8
0
 10
4673.8318297604264444
 20
619.620235591179835
 30
0.0
 11
4673.8365753255257005
 21
619.5950562990798289
 31
0.0
  0
LINE
  5
260DF
  8
0
 10
4673.8318297598107165
 20
617.1334067667205545
 30
0.0
 11
4673.8318297604264444
 21
617.2079788748797
 31
0.0
  0
LINE
  5
260E0
  8
0
 10
4673.8318297604264444
 20
617.2079788748797
 30
0.0
 11
4673.8363336023758166
 21
617.231842296728928
 31
0.0
  0
LINE
  5
260E1
  8
0
 10
4673.831829759809807
 20
614.5985869908420227
 30
0.0
 11
4673.8318297604264444
 21
614.5241355911798564
 31
0.0
  0
LINE
  5
260E2
  8
0
 10
4673.8318297604264444
 20
614.5241355911798564
 30
0.0
 11
4673.8365753255257005
 21
614.4989562990798504
 31
0.0
  0
LINE
  5
260E3
  8
0
 10
4673.8318297604264444
 20
612.1118788748798352
 30
0.0
 11
4673.8363336023758166
 21
612.1357422967289494
 31
0.0
  0
LINE
  5
260E4
  8
0
 10
4673.8318416530282775
 20
609.5024869898896895
 30
0.0
 11
4673.8318297604264444
 21
609.4280355911798779
 31
0.0
  0
LINE
  5
260E5
  8
0
 10
4673.8318297604264444
 20
609.4280355911798779
 30
0.0
 11
4673.8365753255257005
 21
609.4028562990797582
 31
0.0
  0
LINE
  5
260E6
  8
0
 10
4673.8318297604264444
 20
606.9412067675798426
 30
0.0
 11
4673.8318297604264444
 21
607.0157788748798566
 31
0.0
  0
LINE
  5
260E7
  8
0
 10
4673.8318297604264444
 20
607.0157788748798566
 30
0.0
 11
4673.836333602983359
 21
607.0396422998308026
 31
0.0
  0
LINE
  5
260E8
  8
0
 10
4673.831829759809807
 20
604.4063869908463857
 30
0.0
 11
4673.8318297537261969
 21
604.3319356259796677
 31
0.0
  0
LINE
  5
260E9
  8
0
 10
4673.8318297537261969
 20
604.3319356259796677
 30
0.0
 11
4673.8365753255257005
 21
604.3067562990798933
 31
0.0
  0
LINE
  5
260EA
  8
0
 10
4673.8368014033012514
 20
601.7723687271871995
 30
0.0
 11
4673.8318295276276331
 21
601.7966766055168364
 31
0.0
  0
LINE
  5
260EB
  8
0
 10
4673.8318295276276331
 20
601.7966766055168364
 30
0.0
 11
4673.8318295386261525
 21
601.9196777172797965
 31
0.0
  0
LINE
  5
260EC
  8
0
 10
4673.8318295386261525
 20
601.9196777172797965
 30
0.0
 11
4673.8363336023758166
 21
601.9435422967286513
 31
0.0
  0
ARC
  5
260ED
  8
0
 10
4672.4195223332426394
 20
601.4785102336497857
 30
0.0
 40
1.447422805074277
 50
0.5219727126558151
 51
11.7137260136696799
  0
LINE
  5
260EE
  8
0
 10
4673.8668850745252712
 20
601.4916962791796777
 30
0.0
 11
4673.8668850745252712
 21
599.6636962791797032
 31
0.0
  0
ARC
  5
260EF
  8
0
 10
4672.2829557966060747
 20
599.6896016069657662
 30
0.0
 40
1.584141105917636
 50
346.3960380263504248
 51
359.0630051169919739
  0
ARC
  5
260F0
  8
0
 10
4674.0068496146814141
 20
600.2740755656736837
 30
0.0
 40
1.5712292105843659
 50
90.2063085999914875
 51
93.9679279216225041
  0
ARC
  5
260F1
  8
0
 10
4674.4457998659481746
 20
553.5672316471349177
 30
0.0
 40
45.8125990487561694
 50
90.518727870877342
 51
90.7630485284395547
  0
ARC
  5
260F2
  8
0
 10
4702.4206614511786029
 20
599.2122111855547928
 30
0.0
 40
0.0826573140842531
 50
3.9583061792597301
 51
81.2117058123482281
  0
LINE
  5
260F3
  8
0
 10
4702.4332901607249369
 20
599.2938980710797523
 30
0.0
 11
4695.2855518017258873
 21
599.2938966148798272
 31
0.0
  0
ARC
  5
260F4
  8
0
 10
4695.2981678030337207
 20
599.212229481457598
 30
0.0
 40
0.0826358528148742
 50
98.7816787481328902
 51
176.036030093163788
  0
LINE
  5
260F5
  8
0
 10
4695.2157296384048095
 20
599.2179420275625716
 30
0.0
 11
4695.2157201236841502
 21
596.8413766933878151
 31
0.0
  0
ARC
  5
260F6
  8
0
 10
4695.2981981036864454
 20
596.8470989698608946
 30
0.0
 40
0.0826762458821125
 50
183.9687895936694986
 51
261.2012228403298195
  0
LINE
  5
260F7
  8
0
 10
4695.2855515528253818
 20
596.7653956872798062
 30
0.0
 11
4702.4332899088249178
 21
596.7656467994797822
 31
0.0
  0
ARC
  5
260F8
  8
0
 10
4702.4212197553088117
 20
596.8468299776568529
 30
0.0
 40
0.0820755568051146
 50
278.4566736798342959
 51
356.1706186007590986
  0
LINE
  5
260F9
  8
0
 10
4702.5031120662615649
 20
596.8413485151074838
 30
0.0
 11
4702.5031215901681207
 21
599.217917064045082
 31
0.0
  0
ARC
  5
260FA
  8
0
 10
4695.119561451178015
 20
599.2122111855547928
 30
0.0
 40
0.0826573140842531
 50
3.9583061792597301
 51
81.2117058123482281
  0
LINE
  5
260FB
  8
0
 10
4695.132190160726168
 20
599.2938980710797523
 30
0.0
 11
4687.9844518017252994
 21
599.2938966148798272
 31
0.0
  0
ARC
  5
260FC
  8
0
 10
4687.9970678030349518
 20
599.212229481457598
 30
0.0
 40
0.0826358528148742
 50
98.7816787481328902
 51
176.036030093163788
  0
LINE
  5
260FD
  8
0
 10
4687.9146296384060406
 20
599.2179420275625716
 30
0.0
 11
4687.9146201236835623
 21
596.8413766933877014
 31
0.0
  0
ARC
  5
260FE
  8
0
 10
4687.997098103686767
 20
596.8470989698608946
 30
0.0
 40
0.0826762458821125
 50
183.9687895936694986
 51
261.2012228403298195
  0
LINE
  5
260FF
  8
0
 10
4687.9844515528247939
 20
596.7653956872798062
 30
0.0
 11
4695.1321899088261489
 21
596.7656467994797822
 31
0.0
  0
ARC
  5
26100
  8
0
 10
4695.1201197553082238
 20
596.8468299776568529
 30
0.0
 40
0.0820755568051146
 50
278.4566736798342959
 51
356.1706186007590986
  0
LINE
  5
26101
  8
0
 10
4695.202012066260977
 20
596.8413485151074838
 30
0.0
 11
4695.2020215901684423
 21
599.217917064045082
 31
0.0
  0
ARC
  5
26102
  8
0
 10
4687.8184614511783366
 20
599.2122111855547928
 30
0.0
 40
0.0826573140842531
 50
3.9583061792597301
 51
81.2117058123482281
  0
LINE
  5
26103
  8
0
 10
4687.8310901607255801
 20
599.2938980710797523
 30
0.0
 11
4680.6833518017247115
 21
599.2938966148798272
 31
0.0
  0
ARC
  5
26104
  8
0
 10
4680.6959678030352734
 20
599.212229481457598
 30
0.0
 40
0.0826358528148742
 50
98.7816787481328902
 51
176.036030093163788
  0
LINE
  5
26105
  8
0
 10
4680.6135296384063622
 20
599.2179420275625716
 30
0.0
 11
4680.6135201236838839
 21
596.8413766933877014
 31
0.0
  0
ARC
  5
26106
  8
0
 10
4680.6959981036852696
 20
596.8470989698608946
 30
0.0
 40
0.0826762458821125
 50
183.9687895936694986
 51
261.2012228403298195
  0
LINE
  5
26107
  8
0
 10
4680.683351552826025
 20
596.7653956872798062
 30
0.0
 11
4687.831089908825561
 21
596.7656467994797822
 31
0.0
  0
ARC
  5
26108
  8
0
 10
4687.8190197553076359
 20
596.8468299776568529
 30
0.0
 40
0.0820755568051146
 50
278.4566736798342959
 51
356.1706186007590986
  0
LINE
  5
26109
  8
0
 10
4687.9009120662612986
 20
596.8413485151074838
 30
0.0
 11
4687.9009215901687639
 21
599.217917064045082
 31
0.0
  0
ARC
  5
2610A
  8
0
 10
4684.1679114511780426
 20
596.6641611855545762
 30
0.0
 40
0.0826573140842531
 50
3.9583061792597301
 51
81.2117058123482281
  0
LINE
  5
2610B
  8
0
 10
4684.1805401607261956
 20
596.745848071079763
 30
0.0
 11
4677.0328018017253271
 21
596.7458466148798379
 31
0.0
  0
ARC
  5
2610C
  8
0
 10
4677.0454178030349794
 20
596.6641794814576087
 30
0.0
 40
0.0826358528148742
 50
98.7816787481328902
 51
176.036030093163788
  0
LINE
  5
2610D
  8
0
 10
4676.9629796384060683
 20
596.6698920275626961
 30
0.0
 11
4676.9629701236835899
 21
594.2933266933875984
 31
0.0
  0
ARC
  5
2610E
  8
0
 10
4677.0454481036867946
 20
594.299048969860678
 30
0.0
 40
0.0826762458821125
 50
183.9687895936694986
 51
261.2012228403298195
  0
LINE
  5
2610F
  8
0
 10
4677.0328015528248216
 20
594.217345687279817
 30
0.0
 11
4684.1805399088261765
 21
594.2175967994796792
 31
0.0
  0
ARC
  5
26110
  8
0
 10
4684.1684697553082515
 20
594.2987799776568636
 30
0.0
 40
0.0820755568051146
 50
278.4566736798342959
 51
356.1706186007590986
  0
LINE
  5
26111
  8
0
 10
4684.2503620662610047
 20
594.2932985151074945
 30
0.0
 11
4684.2503715901675605
 21
596.6698670640449791
 31
0.0
  0
ARC
  5
26112
  8
0
 10
4691.469011451177721
 20
596.6641611855545762
 30
0.0
 40
0.0826573140842531
 50
3.9583061792597301
 51
81.2117058123482281
  0
LINE
  5
26113
  8
0
 10
4691.481640160725874
 20
596.745848071079763
 30
0.0
 11
4684.333901801725915
 21
596.7458466148798379
 31
0.0
  0
ARC
  5
26114
  8
0
 10
4684.3465178030337484
 20
596.6641794814576087
 30
0.0
 40
0.0826358528148742
 50
98.7816787481328902
 51
176.036030093163788
  0
LINE
  5
26115
  8
0
 10
4684.2640796384048372
 20
596.6698920275626961
 30
0.0
 11
4684.2640701236841778
 21
594.2933266933875984
 31
0.0
  0
ARC
  5
26116
  8
0
 10
4684.3465481036855635
 20
594.299048969860678
 30
0.0
 40
0.0826762458821125
 50
183.9687895936694986
 51
261.2012228403298195
  0
LINE
  5
26117
  8
0
 10
4684.3339015528254095
 20
594.217345687279817
 30
0.0
 11
4691.4816399088249455
 21
594.2175967994796792
 31
0.0
  0
ARC
  5
26118
  8
0
 10
4691.4695697553088394
 20
594.2987799776568636
 30
0.0
 40
0.0820755568051146
 50
278.4566736798342959
 51
356.1706186007590986
  0
LINE
  5
26119
  8
0
 10
4691.5514620662615926
 20
594.2932985151074945
 30
0.0
 11
4691.5514715901681484
 21
596.6698670640449791
 31
0.0
  0
ARC
  5
2611A
  8
0
 10
4698.7701114511783089
 20
596.6641611855545762
 30
0.0
 40
0.0826573140842531
 50
3.9583061792597301
 51
81.2117058123482281
  0
LINE
  5
2611B
  8
0
 10
4698.7827401607255524
 20
596.745848071079763
 30
0.0
 11
4691.6350018017246839
 21
596.7458466148798379
 31
0.0
  0
ARC
  5
2611C
  8
0
 10
4691.6476178030352457
 20
596.6641794814576087
 30
0.0
 40
0.0826358528148742
 50
98.7816787481328902
 51
176.036030093163788
  0
LINE
  5
2611D
  8
0
 10
4691.5651796384054251
 20
596.6698920275626961
 30
0.0
 11
4691.5651701236829467
 21
594.2933266933875984
 31
0.0
  0
ARC
  5
2611E
  8
0
 10
4691.6476481036852419
 20
594.299048969860678
 30
0.0
 40
0.0826762458821125
 50
183.9687895936694986
 51
261.2012228403298195
  0
LINE
  5
2611F
  8
0
 10
4691.6350015528259974
 20
594.217345687279817
 30
0.0
 11
4698.7827399088273523
 21
594.2175967994796792
 31
0.0
  0
ARC
  5
26120
  8
0
 10
4698.7706697553076083
 20
594.2987799776568636
 30
0.0
 40
0.0820755568051146
 50
278.4566736798342959
 51
356.1706186007590986
  0
LINE
  5
26121
  8
0
 10
4698.852562066261271
 20
594.2932985151074945
 30
0.0
 11
4698.8525715901678268
 21
596.6698670640449791
 31
0.0
  0
ARC
  5
26122
  8
0
 10
4702.4206614511786029
 20
594.1161111855547006
 30
0.0
 40
0.0826573140842531
 50
3.9583061792597301
 51
81.2117058123482281
  0
LINE
  5
26123
  8
0
 10
4702.4332901607249369
 20
594.1977980710796601
 30
0.0
 11
4695.2855518017258873
 21
594.1977966148798487
 31
0.0
  0
ARC
  5
26124
  8
0
 10
4695.2981678030337207
 20
594.1161294814576195
 30
0.0
 40
0.0826358528148742
 50
98.7816787481328902
 51
176.036030093163788
  0
LINE
  5
26125
  8
0
 10
4695.2157296384048095
 20
594.1218420275624794
 30
0.0
 11
4695.2157201236841502
 21
591.7452766933877228
 31
0.0
  0
ARC
  5
26126
  8
0
 10
4695.2981981036864454
 20
591.7509989698608024
 30
0.0
 40
0.0826762458821125
 50
183.9687895936694986
 51
261.2012228403298195
  0
LINE
  5
26127
  8
0
 10
4695.2855515528253818
 20
591.6692956872798277
 30
0.0
 11
4702.4332899088249178
 21
591.6695467994798037
 31
0.0
  0
ARC
  5
26128
  8
0
 10
4702.4212197553088117
 20
591.750729977656988
 30
0.0
 40
0.0820755568051146
 50
278.4566736798342959
 51
356.1706186007590986
  0
LINE
  5
26129
  8
0
 10
4702.5031120662615649
 20
591.7452485151073915
 30
0.0
 11
4702.5031215901681207
 21
594.1218170640451035
 31
0.0
  0
ARC
  5
2612A
  8
0
 10
4695.119561451178015
 20
594.1161111855547006
 30
0.0
 40
0.0826573140842531
 50
3.9583061792597301
 51
81.2117058123482281
  0
LINE
  5
2612B
  8
0
 10
4695.132190160726168
 20
594.1977980710796601
 30
0.0
 11
4687.9844518017252994
 21
594.1977966148798487
 31
0.0
  0
ARC
  5
2612C
  8
0
 10
4687.9970678030349518
 20
594.1161294814576195
 30
0.0
 40
0.0826358528148742
 50
98.7816787481328902
 51
176.036030093163788
  0
LINE
  5
2612D
  8
0
 10
4687.9146296384060406
 20
594.1218420275624794
 30
0.0
 11
4687.9146201236835623
 21
591.7452766933877228
 31
0.0
  0
ARC
  5
2612E
  8
0
 10
4687.997098103686767
 20
591.7509989698608024
 30
0.0
 40
0.0826762458821125
 50
183.9687895936694986
 51
261.2012228403298195
  0
LINE
  5
2612F
  8
0
 10
4687.9844515528247939
 20
591.6692956872798277
 30
0.0
 11
4695.1321899088261489
 21
591.6695467994798037
 31
0.0
  0
ARC
  5
26130
  8
0
 10
4695.1201197553082238
 20
591.750729977656988
 30
0.0
 40
0.0820755568051146
 50
278.4566736798342959
 51
356.1706186007590986
  0
LINE
  5
26131
  8
0
 10
4695.202012066260977
 20
591.7452485151073915
 30
0.0
 11
4695.2020215901684423
 21
594.1218170640451035
 31
0.0
  0
ARC
  5
26132
  8
0
 10
4687.8184614511783366
 20
594.1161111855547006
 30
0.0
 40
0.0826573140842531
 50
3.9583061792597301
 51
81.2117058123482281
  0
LINE
  5
26133
  8
0
 10
4687.8310901607255801
 20
594.1977980710796601
 30
0.0
 11
4680.6833518017247115
 21
594.1977966148798487
 31
0.0
  0
ARC
  5
26134
  8
0
 10
4680.6959678030352734
 20
594.1161294814576195
 30
0.0
 40
0.0826358528148742
 50
98.7816787481328902
 51
176.036030093163788
  0
LINE
  5
26135
  8
0
 10
4680.6135296384063622
 20
594.1218420275624794
 30
0.0
 11
4680.6135201236838839
 21
591.7452766933877228
 31
0.0
  0
ARC
  5
26136
  8
0
 10
4680.6959981036852696
 20
591.7509989698608024
 30
0.0
 40
0.0826762458821125
 50
183.9687895936694986
 51
261.2012228403298195
  0
LINE
  5
26137
  8
0
 10
4680.683351552826025
 20
591.6692956872798277
 30
0.0
 11
4687.831089908825561
 21
591.6695467994798037
 31
0.0
  0
ARC
  5
26138
  8
0
 10
4687.8190197553076359
 20
591.750729977656988
 30
0.0
 40
0.0820755568051146
 50
278.4566736798342959
 51
356.1706186007590986
  0
LINE
  5
26139
  8
0
 10
4687.9009120662612986
 20
591.7452485151073915
 30
0.0
 11
4687.9009215901687639
 21
594.1218170640451035
 31
0.0
  0
ARC
  5
2613A
  8
0
 10
4698.7701114511783089
 20
591.5680611855547113
 30
0.0
 40
0.0826573140842531
 50
3.9583061792597301
 51
81.2117058123482281
  0
LINE
  5
2613B
  8
0
 10
4698.7827401607255524
 20
591.6497480710797845
 30
0.0
 11
4691.6350018017246839
 21
591.6497466148797457
 31
0.0
  0
ARC
  5
2613C
  8
0
 10
4691.6476178030352457
 20
591.5680794814575165
 30
0.0
 40
0.0826358528148742
 50
98.7816787481328902
 51
176.036030093163788
  0
LINE
  5
2613D
  8
0
 10
4691.5651796384054251
 20
591.5737920275627175
 30
0.0
 11
4691.5651701236829467
 21
589.1972266933877336
 31
0.0
  0
ARC
  5
2613E
  8
0
 10
4691.6476481036852419
 20
589.2029489698606994
 30
0.0
 40
0.0826762458821125
 50
183.9687895936694986
 51
261.2012228403298195
  0
LINE
  5
2613F
  8
0
 10
4691.6350015528259974
 20
589.1212456872798384
 30
0.0
 11
4698.7827399088273523
 21
589.1214967994797007
 31
0.0
  0
ARC
  5
26140
  8
0
 10
4698.7706697553076083
 20
589.2026799776568851
 30
0.0
 40
0.0820755568051146
 50
278.4566736798342959
 51
356.1706186007590986
  0
LINE
  5
26141
  8
0
 10
4698.852562066261271
 20
589.197198515107516
 30
0.0
 11
4698.8525715901678268
 21
591.5737670640448869
 31
0.0
  0
ARC
  5
26142
  8
0
 10
4691.469011451177721
 20
591.5680611855547113
 30
0.0
 40
0.0826573140842531
 50
3.9583061792597301
 51
81.2117058123482281
  0
LINE
  5
26143
  8
0
 10
4691.481640160725874
 20
591.6497480710797845
 30
0.0
 11
4684.333901801725915
 21
591.6497466148797457
 31
0.0
  0
ARC
  5
26144
  8
0
 10
4684.3465178030337484
 20
591.5680794814575165
 30
0.0
 40
0.0826358528148742
 50
98.7816787481328902
 51
176.036030093163788
  0
LINE
  5
26145
  8
0
 10
4684.2640796384048372
 20
591.5737920275627175
 30
0.0
 11
4684.2640701236841778
 21
589.1972266933877336
 31
0.0
  0
ARC
  5
26146
  8
0
 10
4684.3465481036855635
 20
589.2029489698606994
 30
0.0
 40
0.0826762458821125
 50
183.9687895936694986
 51
261.2012228403298195
  0
LINE
  5
26147
  8
0
 10
4684.3339015528254095
 20
589.1212456872798384
 30
0.0
 11
4691.4816399088249455
 21
589.1214967994797007
 31
0.0
  0
ARC
  5
26148
  8
0
 10
4691.4695697553088394
 20
589.2026799776568851
 30
0.0
 40
0.0820755568051146
 50
278.4566736798342959
 51
356.1706186007590986
  0
LINE
  5
26149
  8
0
 10
4691.5514620662615926
 20
589.197198515107516
 30
0.0
 11
4691.5514715901681484
 21
591.5737670640448869
 31
0.0
  0
ARC
  5
2614A
  8
0
 10
4684.1679114511780426
 20
591.5680611855547113
 30
0.0
 40
0.0826573140842531
 50
3.9583061792597301
 51
81.2117058123482281
  0
LINE
  5
2614B
  8
0
 10
4684.1805401607261956
 20
591.6497480710797845
 30
0.0
 11
4677.0328018017253271
 21
591.6497466148797457
 31
0.0
  0
ARC
  5
2614C
  8
0
 10
4677.0454178030349794
 20
591.5680794814575165
 30
0.0
 40
0.0826358528148742
 50
98.7816787481328902
 51
176.036030093163788
  0
LINE
  5
2614D
  8
0
 10
4676.9629796384060683
 20
591.5737920275627175
 30
0.0
 11
4676.9629701236835899
 21
589.1972266933877336
 31
0.0
  0
ARC
  5
2614E
  8
0
 10
4677.0454481036867946
 20
589.2029489698606994
 30
0.0
 40
0.0826762458821125
 50
183.9687895936694986
 51
261.2012228403298195
  0
LINE
  5
2614F
  8
0
 10
4677.0328015528248216
 20
589.1212456872798384
 30
0.0
 11
4684.1805399088261765
 21
589.1214967994797007
 31
0.0
  0
ARC
  5
26150
  8
0
 10
4684.1684697553082515
 20
589.2026799776568851
 30
0.0
 40
0.0820755568051146
 50
278.4566736798342959
 51
356.1706186007590986
  0
LINE
  5
26151
  8
0
 10
4684.2503620662610047
 20
589.197198515107516
 30
0.0
 11
4684.2503715901675605
 21
591.5737670640448869
 31
0.0
  0
ARC
  5
26152
  8
0
 10
4702.4206614511786029
 20
589.020011185554722
 30
0.0
 40
0.0826573140842531
 50
3.9583061792597301
 51
81.2117058123482281
  0
LINE
  5
26153
  8
0
 10
4702.4332901607249369
 20
589.1016980710797952
 30
0.0
 11
4695.2855518017258873
 21
589.1016966148797565
 31
0.0
  0
ARC
  5
26154
  8
0
 10
4695.2981678030337207
 20
589.0200294814576409
 30
0.0
 40
0.0826358528148742
 50
98.7816787481328902
 51
176.036030093163788
  0
LINE
  5
26155
  8
0
 10
4695.2157296384048095
 20
589.0257420275625009
 30
0.0
 11
4695.2157201236841502
 21
586.6491766933877443
 31
0.0
  0
ARC
  5
26156
  8
0
 10
4695.2981981036864454
 20
586.6548989698608239
 30
0.0
 40
0.0826762458821125
 50
183.9687895936694986
 51
261.2012228403298195
  0
LINE
  5
26157
  8
0
 10
4695.2855515528253818
 20
586.5731956872798492
 30
0.0
 11
4702.4332899088249178
 21
586.5734467994798251
 31
0.0
  0
ARC
  5
26158
  8
0
 10
4702.4212197553088117
 20
586.6546299776570095
 30
0.0
 40
0.0820755568051146
 50
278.4566736798342959
 51
356.1706186007590986
  0
LINE
  5
26159
  8
0
 10
4702.5031120662615649
 20
586.6491485151075267
 30
0.0
 11
4702.5031215901681207
 21
589.025717064045125
 31
0.0
  0
ARC
  5
2615A
  8
0
 10
4695.119561451178015
 20
589.020011185554722
 30
0.0
 40
0.0826573140842531
 50
3.9583061792597301
 51
81.2117058123482281
  0
LINE
  5
2615B
  8
0
 10
4695.132190160726168
 20
589.1016980710797952
 30
0.0
 11
4687.9844518017252994
 21
589.1016966148797565
 31
0.0
  0
ARC
  5
2615C
  8
0
 10
4687.9970678030349518
 20
589.0200294814576409
 30
0.0
 40
0.0826358528148742
 50
98.7816787481328902
 51
176.036030093163788
  0
LINE
  5
2615D
  8
0
 10
4687.9146296384060406
 20
589.0257420275625009
 30
0.0
 11
4687.9146201236835623
 21
586.6491766933877443
 31
0.0
  0
ARC
  5
2615E
  8
0
 10
4687.997098103686767
 20
586.6548989698608239
 30
0.0
 40
0.0826762458821125
 50
183.9687895936694986
 51
261.2012228403298195
  0
LINE
  5
2615F
  8
0
 10
4687.9844515528247939
 20
586.5731956872798492
 30
0.0
 11
4695.1321899088261489
 21
586.5734467994798251
 31
0.0
  0
ARC
  5
26160
  8
0
 10
4695.1201197553082238
 20
586.6546299776570095
 30
0.0
 40
0.0820755568051146
 50
278.4566736798342959
 51
356.1706186007590986
  0
LINE
  5
26161
  8
0
 10
4695.202012066260977
 20
586.6491485151075267
 30
0.0
 11
4695.2020215901684423
 21
589.025717064045125
 31
0.0
  0
ARC
  5
26162
  8
0
 10
4687.8184614511783366
 20
589.020011185554722
 30
0.0
 40
0.0826573140842531
 50
3.9583061792597301
 51
81.2117058123482281
  0
LINE
  5
26163
  8
0
 10
4687.8310901607255801
 20
589.1016980710797952
 30
0.0
 11
4680.6833518017247115
 21
589.1016966148797565
 31
0.0
  0
ARC
  5
26164
  8
0
 10
4680.6959678030352734
 20
589.0200294814576409
 30
0.0
 40
0.0826358528148742
 50
98.7816787481328902
 51
176.036030093163788
  0
LINE
  5
26165
  8
0
 10
4680.6135296384063622
 20
589.0257420275625009
 30
0.0
 11
4680.6135201236838839
 21
586.6491766933877443
 31
0.0
  0
ARC
  5
26166
  8
0
 10
4680.6959981036852696
 20
586.6548989698608239
 30
0.0
 40
0.0826762458821125
 50
183.9687895936694986
 51
261.2012228403298195
  0
LINE
  5
26167
  8
0
 10
4680.683351552826025
 20
586.5731956872798492
 30
0.0
 11
4687.831089908825561
 21
586.5734467994798251
 31
0.0
  0
ARC
  5
26168
  8
0
 10
4687.8190197553076359
 20
586.6546299776570095
 30
0.0
 40
0.0820755568051146
 50
278.4566736798342959
 51
356.1706186007590986
  0
LINE
  5
26169
  8
0
 10
4687.9009120662612986
 20
586.6491485151075267
 30
0.0
 11
4687.9009215901687639
 21
589.025717064045125
 31
0.0
  0
ARC
  5
2616A
  8
0
 10
4698.7701114511783089
 20
586.4719611855547328
 30
0.0
 40
0.0826573140842531
 50
3.9583061792597301
 51
81.2117058123482281
  0
LINE
  5
2616B
  8
0
 10
4698.7827401607255524
 20
586.5536480710796923
 30
0.0
 11
4691.6350018017246839
 21
586.5536466148796535
 31
0.0
  0
ARC
  5
2616C
  8
0
 10
4691.6476178030352457
 20
586.4719794814576517
 30
0.0
 40
0.0826358528148742
 50
98.7816787481328902
 51
176.036030093163788
  0
LINE
  5
2616D
  8
0
 10
4691.5651796384054251
 20
586.4776920275626253
 30
0.0
 11
4691.5651701236829467
 21
584.101126693387755
 31
0.0
  0
ARC
  5
2616E
  8
0
 10
4691.6476481036852419
 20
584.1068489698608346
 30
0.0
 40
0.0826762458821125
 50
183.9687895936694986
 51
261.2012228403298195
  0
LINE
  5
2616F
  8
0
 10
4691.6350015528259974
 20
584.0251456872797462
 30
0.0
 11
4698.7827399088273523
 21
584.0253967994798359
 31
0.0
  0
ARC
  5
26170
  8
0
 10
4698.7706697553076083
 20
584.1065799776567928
 30
0.0
 40
0.0820755568051146
 50
278.4566736798342959
 51
356.1706186007590986
  0
LINE
  5
26171
  8
0
 10
4698.852562066261271
 20
584.1010985151075374
 30
0.0
 11
4698.8525715901678268
 21
586.477667064045022
 31
0.0
  0
ARC
  5
26172
  8
0
 10
4691.469011451177721
 20
586.4719611855547328
 30
0.0
 40
0.0826573140842531
 50
3.9583061792597301
 51
81.2117058123482281
  0
LINE
  5
26173
  8
0
 10
4691.481640160725874
 20
586.5536480710796923
 30
0.0
 11
4684.333901801725915
 21
586.5536466148796535
 31
0.0
  0
ARC
  5
26174
  8
0
 10
4684.3465178030337484
 20
586.4719794814576517
 30
0.0
 40
0.0826358528148742
 50
98.7816787481328902
 51
176.036030093163788
  0
LINE
  5
26175
  8
0
 10
4684.2640796384048372
 20
586.4776920275626253
 30
0.0
 11
4684.2640701236841778
 21
584.101126693387755
 31
0.0
  0
ARC
  5
26176
  8
0
 10
4684.3465481036855635
 20
584.1068489698608346
 30
0.0
 40
0.0826762458821125
 50
183.9687895936694986
 51
261.2012228403298195
  0
LINE
  5
26177
  8
0
 10
4684.3339015528254095
 20
584.0251456872797462
 30
0.0
 11
4691.4816399088249455
 21
584.0253967994798359
 31
0.0
  0
ARC
  5
26178
  8
0
 10
4691.4695697553088394
 20
584.1065799776567928
 30
0.0
 40
0.0820755568051146
 50
278.4566736798342959
 51
356.1706186007590986
  0
LINE
  5
26179
  8
0
 10
4691.5514620662615926
 20
584.1010985151075374
 30
0.0
 11
4691.5514715901681484
 21
586.477667064045022
 31
0.0
  0
ARC
  5
2617A
  8
0
 10
4684.1679114511780426
 20
586.4719611855547328
 30
0.0
 40
0.0826573140842531
 50
3.9583061792597301
 51
81.2117058123482281
  0
LINE
  5
2617B
  8
0
 10
4684.1805401607261956
 20
586.5536480710796923
 30
0.0
 11
4677.0328018017253271
 21
586.5536466148796535
 31
0.0
  0
ARC
  5
2617C
  8
0
 10
4677.0454178030349794
 20
586.4719794814576517
 30
0.0
 40
0.0826358528148742
 50
98.7816787481328902
 51
176.036030093163788
  0
LINE
  5
2617D
  8
0
 10
4676.9629796384060683
 20
586.4776920275626253
 30
0.0
 11
4676.9629701236835899
 21
584.101126693387755
 31
0.0
  0
ARC
  5
2617E
  8
0
 10
4677.0454481036867946
 20
584.1068489698608346
 30
0.0
 40
0.0826762458821125
 50
183.9687895936694986
 51
261.2012228403298195
  0
LINE
  5
2617F
  8
0
 10
4677.0328015528248216
 20
584.0251456872797462
 30
0.0
 11
4684.1805399088261765
 21
584.0253967994798359
 31
0.0
  0
ARC
  5
26180
  8
0
 10
4684.1684697553082515
 20
584.1065799776567928
 30
0.0
 40
0.0820755568051146
 50
278.4566736798342959
 51
356.1706186007590986
  0
LINE
  5
26181
  8
0
 10
4684.2503620662610047
 20
584.1010985151075374
 30
0.0
 11
4684.2503715901675605
 21
586.477667064045022
 31
0.0
  0
ARC
  5
26182
  8
0
 10
4687.8184614511783366
 20
583.9239111855547435
 30
0.0
 40
0.0826573140842531
 50
3.9583061792597301
 51
81.2117058123482281
  0
LINE
  5
26183
  8
0
 10
4687.8310901607255801
 20
584.0055980710798167
 30
0.0
 11
4680.6833518017247115
 21
584.0055966148797779
 31
0.0
  0
ARC
  5
26184
  8
0
 10
4680.6959678030352734
 20
583.9239294814575487
 30
0.0
 40
0.0826358528148742
 50
98.7816787481328902
 51
176.036030093163788
  0
LINE
  5
26185
  8
0
 10
4680.6135296384063622
 20
583.929642027562636
 30
0.0
 11
4680.6135201236838839
 21
581.5530766933877658
 31
0.0
  0
ARC
  5
26186
  8
0
 10
4680.6959981036852696
 20
581.5587989698608453
 30
0.0
 40
0.0826762458821125
 50
183.9687895936694986
 51
261.2012228403298195
  0
LINE
  5
26187
  8
0
 10
4680.683351552826025
 20
581.4770956872797569
 30
0.0
 11
4687.831089908825561
 21
581.4773467994797329
 31
0.0
  0
ARC
  5
26188
  8
0
 10
4687.8190197553076359
 20
581.5585299776570309
 30
0.0
 40
0.0820755568051146
 50
278.4566736798342959
 51
356.1706186007590986
  0
LINE
  5
26189
  8
0
 10
4687.9009120662612986
 20
581.5530485151075482
 30
0.0
 11
4687.9009215901687639
 21
583.9296170640450327
 31
0.0
  0
ARC
  5
2618A
  8
0
 10
4695.119561451178015
 20
583.9239111855547435
 30
0.0
 40
0.0826573140842531
 50
3.9583061792597301
 51
81.2117058123482281
  0
LINE
  5
2618B
  8
0
 10
4695.132190160726168
 20
584.0055980710798167
 30
0.0
 11
4687.9844518017252994
 21
584.0055966148797779
 31
0.0
  0
ARC
  5
2618C
  8
0
 10
4687.9970678030349518
 20
583.9239294814575487
 30
0.0
 40
0.0826358528148742
 50
98.7816787481328902
 51
176.036030093163788
  0
LINE
  5
2618D
  8
0
 10
4687.9146296384060406
 20
583.929642027562636
 30
0.0
 11
4687.9146201236835623
 21
581.5530766933877658
 31
0.0
  0
ARC
  5
2618E
  8
0
 10
4687.997098103686767
 20
581.5587989698608453
 30
0.0
 40
0.0826762458821125
 50
183.9687895936694986
 51
261.2012228403298195
  0
LINE
  5
2618F
  8
0
 10
4687.9844515528247939
 20
581.4770956872797569
 30
0.0
 11
4695.1321899088261489
 21
581.4773467994797329
 31
0.0
  0
ARC
  5
26190
  8
0
 10
4695.1201197553082238
 20
581.5585299776570309
 30
0.0
 40
0.0820755568051146
 50
278.4566736798342959
 51
356.1706186007590986
  0
LINE
  5
26191
  8
0
 10
4695.202012066260977
 20
581.5530485151075482
 30
0.0
 11
4695.2020215901684423
 21
583.9296170640450327
 31
0.0
  0
ARC
  5
26192
  8
0
 10
4702.4206614511786029
 20
583.9239111855547435
 30
0.0
 40
0.0826573140842531
 50
3.9583061792597301
 51
81.2117058123482281
  0
LINE
  5
26193
  8
0
 10
4702.4332901607249369
 20
584.0055980710798167
 30
0.0
 11
4695.2855518017258873
 21
584.0055966148797779
 31
0.0
  0
ARC
  5
26194
  8
0
 10
4695.2981678030337207
 20
583.9239294814575487
 30
0.0
 40
0.0826358528148742
 50
98.7816787481328902
 51
176.036030093163788
  0
LINE
  5
26195
  8
0
 10
4695.2157296384048095
 20
583.929642027562636
 30
0.0
 11
4695.2157201236841502
 21
581.5530766933877658
 31
0.0
  0
ARC
  5
26196
  8
0
 10
4695.2981981036864454
 20
581.5587989698608453
 30
0.0
 40
0.0826762458821125
 50
183.9687895936694986
 51
261.2012228403298195
  0
LINE
  5
26197
  8
0
 10
4695.2855515528253818
 20
581.4770956872797569
 30
0.0
 11
4702.4332899088249178
 21
581.4773467994797329
 31
0.0
  0
ARC
  5
26198
  8
0
 10
4702.4212197553088117
 20
581.5585299776570309
 30
0.0
 40
0.0820755568051146
 50
278.4566736798342959
 51
356.1706186007590986
  0
LINE
  5
26199
  8
0
 10
4702.5031120662615649
 20
581.5530485151075482
 30
0.0
 11
4702.5031215901681207
 21
583.9296170640450327
 31
0.0
  0
ARC
  5
2619A
  8
0
 10
4698.7701114511783089
 20
581.3758611855547542
 30
0.0
 40
0.0826573140842531
 50
3.9583061792597301
 51
81.2117058123482281
  0
LINE
  5
2619B
  8
0
 10
4698.7827401607255524
 20
581.4575480710798274
 30
0.0
 11
4691.6350018017246839
 21
581.4575466148797886
 31
0.0
  0
ARC
  5
2619C
  8
0
 10
4691.6476178030352457
 20
581.3758794814575595
 30
0.0
 40
0.0826358528148742
 50
98.7816787481328902
 51
176.036030093163788
  0
LINE
  5
2619D
  8
0
 10
4691.5651796384054251
 20
581.3815920275626468
 30
0.0
 11
4691.5651701236829467
 21
579.0050266933876628
 31
0.0
  0
ARC
  5
2619E
  8
0
 10
4691.6476481036852419
 20
579.0107489698608561
 30
0.0
 40
0.0826762458821125
 50
183.9687895936694986
 51
261.2012228403298195
  0
LINE
  5
2619F
  8
0
 10
4691.6350015528259974
 20
578.9290456872797677
 30
0.0
 11
4698.7827399088273523
 21
578.9292967994797436
 31
0.0
  0
ARC
  5
261A0
  8
0
 10
4698.7706697553076083
 20
579.010479977656928
 30
0.0
 40
0.0820755568051146
 50
278.4566736798342959
 51
356.1706186007590986
  0
LINE
  5
261A1
  8
0
 10
4698.852562066261271
 20
579.0049985151075589
 30
0.0
 11
4698.8525715901678268
 21
581.3815670640450435
 31
0.0
  0
ARC
  5
261A2
  8
0
 10
4691.469011451177721
 20
581.3758611855547542
 30
0.0
 40
0.0826573140842531
 50
3.9583061792597301
 51
81.2117058123482281
  0
LINE
  5
261A3
  8
0
 10
4691.481640160725874
 20
581.4575480710798274
 30
0.0
 11
4684.333901801725915
 21
581.4575466148797886
 31
0.0
  0
ARC
  5
261A4
  8
0
 10
4684.3465178030337484
 20
581.3758794814575595
 30
0.0
 40
0.0826358528148742
 50
98.7816787481328902
 51
176.036030093163788
  0
LINE
  5
261A5
  8
0
 10
4684.2640796384048372
 20
581.3815920275626468
 30
0.0
 11
4684.2640701236841778
 21
579.0050266933876628
 31
0.0
  0
ARC
  5
261A6
  8
0
 10
4684.3465481036855635
 20
579.0107489698608561
 30
0.0
 40
0.0826762458821125
 50
183.9687895936694986
 51
261.2012228403298195
  0
LINE
  5
261A7
  8
0
 10
4684.3339015528254095
 20
578.9290456872797677
 30
0.0
 11
4691.4816399088249455
 21
578.9292967994797436
 31
0.0
  0
ARC
  5
261A8
  8
0
 10
4691.4695697553088394
 20
579.010479977656928
 30
0.0
 40
0.0820755568051146
 50
278.4566736798342959
 51
356.1706186007590986
  0
LINE
  5
261A9
  8
0
 10
4691.5514620662615926
 20
579.0049985151075589
 30
0.0
 11
4691.5514715901681484
 21
581.3815670640450435
 31
0.0
  0
ARC
  5
261AA
  8
0
 10
4684.1679114511780426
 20
581.3758611855547542
 30
0.0
 40
0.0826573140842531
 50
3.9583061792597301
 51
81.2117058123482281
  0
LINE
  5
261AB
  8
0
 10
4684.1805401607261956
 20
581.4575480710798274
 30
0.0
 11
4677.0328018017253271
 21
581.4575466148797886
 31
0.0
  0
ARC
  5
261AC
  8
0
 10
4677.0454178030349794
 20
581.3758794814575595
 30
0.0
 40
0.0826358528148742
 50
98.7816787481328902
 51
176.036030093163788
  0
LINE
  5
261AD
  8
0
 10
4676.9629796384060683
 20
581.3815920275626468
 30
0.0
 11
4676.9629701236835899
 21
579.0050266933876628
 31
0.0
  0
ARC
  5
261AE
  8
0
 10
4677.0454481036867946
 20
579.0107489698608561
 30
0.0
 40
0.0826762458821125
 50
183.9687895936694986
 51
261.2012228403298195
  0
LINE
  5
261AF
  8
0
 10
4677.0328015528248216
 20
578.9290456872797677
 30
0.0
 11
4684.1805399088261765
 21
578.9292967994797436
 31
0.0
  0
ARC
  5
261B0
  8
0
 10
4684.1684697553082515
 20
579.010479977656928
 30
0.0
 40
0.0820755568051146
 50
278.4566736798342959
 51
356.1706186007590986
  0
LINE
  5
261B1
  8
0
 10
4684.2503620662610047
 20
579.0049985151075589
 30
0.0
 11
4684.2503715901675605
 21
581.3815670640450435
 31
0.0
  0
ARC
  5
261B2
  8
0
 10
4687.8184614511783366
 20
578.8278111855546513
 30
0.0
 40
0.0826573140842531
 50
3.9583061792597301
 51
81.2117058123482281
  0
LINE
  5
261B3
  8
0
 10
4687.8310901607255801
 20
578.9094980710798382
 30
0.0
 11
4680.6833518017247115
 21
578.9094966148796857
 31
0.0
  0
ARC
  5
261B4
  8
0
 10
4680.6959678030352734
 20
578.8278294814574565
 30
0.0
 40
0.0826358528148742
 50
98.7816787481328902
 51
176.036030093163788
  0
LINE
  5
261B5
  8
0
 10
4680.6135296384063622
 20
578.8335420275625438
 30
0.0
 11
4680.6135201236838839
 21
576.4569766933876735
 31
0.0
  0
ARC
  5
261B6
  8
0
 10
4680.6959981036852696
 20
576.4626989698608668
 30
0.0
 40
0.0826762458821125
 50
183.9687895936694986
 51
261.2012228403298195
  0
LINE
  5
261B7
  8
0
 10
4680.683351552826025
 20
576.3809956872797784
 30
0.0
 11
4687.831089908825561
 21
576.3812467994797544
 31
0.0
  0
ARC
  5
261B8
  8
0
 10
4687.8190197553076359
 20
576.4624299776569387
 30
0.0
 40
0.0820755568051146
 50
278.4566736798342959
 51
356.1706186007590986
  0
LINE
  5
261B9
  8
0
 10
4687.9009120662612986
 20
576.4569485151074559
 30
0.0
 11
4687.9009215901687639
 21
578.8335170640450542
 31
0.0
  0
ARC
  5
261BA
  8
0
 10
4695.119561451178015
 20
578.8278111855546513
 30
0.0
 40
0.0826573140842531
 50
3.9583061792597301
 51
81.2117058123482281
  0
LINE
  5
261BB
  8
0
 10
4695.132190160726168
 20
578.9094980710798382
 30
0.0
 11
4687.9844518017252994
 21
578.9094966148796857
 31
0.0
  0
ARC
  5
261BC
  8
0
 10
4687.9970678030349518
 20
578.8278294814574565
 30
0.0
 40
0.0826358528148742
 50
98.7816787481328902
 51
176.036030093163788
  0
LINE
  5
261BD
  8
0
 10
4687.9146296384060406
 20
578.8335420275625438
 30
0.0
 11
4687.9146201236835623
 21
576.4569766933876735
 31
0.0
  0
ARC
  5
261BE
  8
0
 10
4687.997098103686767
 20
576.4626989698608668
 30
0.0
 40
0.0826762458821125
 50
183.9687895936694986
 51
261.2012228403298195
  0
LINE
  5
261BF
  8
0
 10
4687.9844515528247939
 20
576.3809956872797784
 30
0.0
 11
4695.1321899088261489
 21
576.3812467994797544
 31
0.0
  0
ARC
  5
261C0
  8
0
 10
4695.1201197553082238
 20
576.4624299776569387
 30
0.0
 40
0.0820755568051146
 50
278.4566736798342959
 51
356.1706186007590986
  0
LINE
  5
261C1
  8
0
 10
4695.202012066260977
 20
576.4569485151074559
 30
0.0
 11
4695.2020215901684423
 21
578.8335170640450542
 31
0.0
  0
ARC
  5
261C2
  8
0
 10
4702.4206614511786029
 20
578.8278111855546513
 30
0.0
 40
0.0826573140842531
 50
3.9583061792597301
 51
81.2117058123482281
  0
LINE
  5
261C3
  8
0
 10
4702.4332901607249369
 20
578.9094980710798382
 30
0.0
 11
4695.2855518017258873
 21
578.9094966148796857
 31
0.0
  0
ARC
  5
261C4
  8
0
 10
4695.2981678030337207
 20
578.8278294814574565
 30
0.0
 40
0.0826358528148742
 50
98.7816787481328902
 51
176.036030093163788
  0
LINE
  5
261C5
  8
0
 10
4695.2157296384048095
 20
578.8335420275625438
 30
0.0
 11
4695.2157201236841502
 21
576.4569766933876735
 31
0.0
  0
ARC
  5
261C6
  8
0
 10
4695.2981981036864454
 20
576.4626989698608668
 30
0.0
 40
0.0826762458821125
 50
183.9687895936694986
 51
261.2012228403298195
  0
LINE
  5
261C7
  8
0
 10
4695.2855515528253818
 20
576.3809956872797784
 30
0.0
 11
4702.4332899088249178
 21
576.3812467994797544
 31
0.0
  0
ARC
  5
261C8
  8
0
 10
4702.4212197553088117
 20
576.4624299776569387
 30
0.0
 40
0.0820755568051146
 50
278.4566736798342959
 51
356.1706186007590986
  0
LINE
  5
261C9
  8
0
 10
4702.5031120662615649
 20
576.4569485151074559
 30
0.0
 11
4702.5031215901681207
 21
578.8335170640450542
 31
0.0
  0
ARC
  5
261CA
  8
0
 10
4698.7701114511783089
 20
576.279761185554662
 30
0.0
 40
0.0826573140842531
 50
3.9583061792597301
 51
81.2117058123482281
  0
LINE
  5
261CB
  8
0
 10
4698.7827401607255524
 20
576.3614480710798489
 30
0.0
 11
4691.6350018017246839
 21
576.3614466148798101
 31
0.0
  0
ARC
  5
261CC
  8
0
 10
4691.6476178030352457
 20
576.2797794814575809
 30
0.0
 40
0.0826358528148742
 50
98.7816787481328902
 51
176.036030093163788
  0
LINE
  5
261CD
  8
0
 10
4691.5651796384054251
 20
576.2854920275626682
 30
0.0
 11
4691.5651701236829467
 21
573.908926693387798
 31
0.0
  0
ARC
  5
261CE
  8
0
 10
4691.6476481036852419
 20
573.9146489698607638
 30
0.0
 40
0.0826762458821125
 50
183.9687895936694986
 51
261.2012228403298195
  0
LINE
  5
261CF
  8
0
 10
4691.6350015528259974
 20
573.8329456872799028
 30
0.0
 11
4698.7827399088273523
 21
573.8331967994796514
 31
0.0
  0
ARC
  5
261D0
  8
0
 10
4698.7706697553076083
 20
573.9143799776569494
 30
0.0
 40
0.0820755568051146
 50
278.4566736798342959
 51
356.1706186007590986
  0
LINE
  5
261D1
  8
0
 10
4698.852562066261271
 20
573.9088985151075804
 30
0.0
 11
4698.8525715901678268
 21
576.2854670640449513
 31
0.0
  0
ARC
  5
261D2
  8
0
 10
4691.469011451177721
 20
576.279761185554662
 30
0.0
 40
0.0826573140842531
 50
3.9583061792597301
 51
81.2117058123482281
  0
LINE
  5
261D3
  8
0
 10
4691.481640160725874
 20
576.3614480710798489
 30
0.0
 11
4684.333901801725915
 21
576.3614466148798101
 31
0.0
  0
ARC
  5
261D4
  8
0
 10
4684.3465178030337484
 20
576.2797794814575809
 30
0.0
 40
0.0826358528148742
 50
98.7816787481328902
 51
176.036030093163788
  0
LINE
  5
261D5
  8
0
 10
4684.2640796384048372
 20
576.2854920275626682
 30
0.0
 11
4684.2640701236841778
 21
573.908926693387798
 31
0.0
  0
ARC
  5
261D6
  8
0
 10
4684.3465481036855635
 20
573.9146489698607638
 30
0.0
 40
0.0826762458821125
 50
183.9687895936694986
 51
261.2012228403298195
  0
LINE
  5
261D7
  8
0
 10
4684.3339015528254095
 20
573.8329456872799028
 30
0.0
 11
4691.4816399088249455
 21
573.8331967994796514
 31
0.0
  0
ARC
  5
261D8
  8
0
 10
4691.4695697553088394
 20
573.9143799776569494
 30
0.0
 40
0.0820755568051146
 50
278.4566736798342959
 51
356.1706186007590986
  0
LINE
  5
261D9
  8
0
 10
4691.5514620662615926
 20
573.9088985151075804
 30
0.0
 11
4691.5514715901681484
 21
576.2854670640449513
 31
0.0
  0
ARC
  5
261DA
  8
0
 10
4684.1679114511780426
 20
576.279761185554662
 30
0.0
 40
0.0826573140842531
 50
3.9583061792597301
 51
81.2117058123482281
  0
LINE
  5
261DB
  8
0
 10
4684.1805401607261956
 20
576.3614480710798489
 30
0.0
 11
4677.0328018017253271
 21
576.3614466148798101
 31
0.0
  0
ARC
  5
261DC
  8
0
 10
4677.0454178030349794
 20
576.2797794814575809
 30
0.0
 40
0.0826358528148742
 50
98.7816787481328902
 51
176.036030093163788
  0
LINE
  5
261DD
  8
0
 10
4676.9629796384060683
 20
576.2854920275626682
 30
0.0
 11
4676.9629701236835899
 21
573.908926693387798
 31
0.0
  0
ARC
  5
261DE
  8
0
 10
4677.0454481036867946
 20
573.9146489698607638
 30
0.0
 40
0.0826762458821125
 50
183.9687895936694986
 51
261.2012228403298195
  0
LINE
  5
261DF
  8
0
 10
4677.0328015528248216
 20
573.8329456872799028
 30
0.0
 11
4684.1805399088261765
 21
573.8331967994796514
 31
0.0
  0
ARC
  5
261E0
  8
0
 10
4684.1684697553082515
 20
573.9143799776569494
 30
0.0
 40
0.0820755568051146
 50
278.4566736798342959
 51
356.1706186007590986
  0
LINE
  5
261E1
  8
0
 10
4684.2503620662610047
 20
573.9088985151075804
 30
0.0
 11
4684.2503715901675605
 21
576.2854670640449513
 31
0.0
  0
ARC
  5
261E2
  8
0
 10
4687.8184614511783366
 20
573.7317111855546727
 30
0.0
 40
0.0826573140842531
 50
3.9583061792597301
 51
81.2117058123482281
  0
LINE
  5
261E3
  8
0
 10
4687.8310901607255801
 20
573.8133980710797459
 30
0.0
 11
4680.6833518017247115
 21
573.8133966148798208
 31
0.0
  0
ARC
  5
261E4
  8
0
 10
4680.6959678030352734
 20
573.7317294814575916
 30
0.0
 40
0.0826358528148742
 50
98.7816787481328902
 51
176.036030093163788
  0
LINE
  5
261E5
  8
0
 10
4680.6135296384063622
 20
573.7374420275625653
 30
0.0
 11
4680.6135201236838839
 21
571.360876693387695
 31
0.0
  0
ARC
  5
261E6
  8
0
 10
4680.6959981036852696
 20
571.3665989698607746
 30
0.0
 40
0.0826762458821125
 50
183.9687895936694986
 51
261.2012228403298195
  0
LINE
  5
261E7
  8
0
 10
4680.683351552826025
 20
571.2848956872797999
 30
0.0
 11
4687.831089908825561
 21
571.2851467994797758
 31
0.0
  0
ARC
  5
261E8
  8
0
 10
4687.8190197553076359
 20
571.3663299776568465
 30
0.0
 40
0.0820755568051146
 50
278.4566736798342959
 51
356.1706186007590986
  0
LINE
  5
261E9
  8
0
 10
4687.9009120662612986
 20
571.3608485151073637
 30
0.0
 11
4687.9009215901687639
 21
573.7374170640450757
 31
0.0
  0
ARC
  5
261EA
  8
0
 10
4695.119561451178015
 20
573.7317111855546727
 30
0.0
 40
0.0826573140842531
 50
3.9583061792597301
 51
81.2117058123482281
  0
LINE
  5
261EB
  8
0
 10
4695.132190160726168
 20
573.8133980710797459
 30
0.0
 11
4687.9844518017252994
 21
573.8133966148798208
 31
0.0
  0
ARC
  5
261EC
  8
0
 10
4687.9970678030349518
 20
573.7317294814575916
 30
0.0
 40
0.0826358528148742
 50
98.7816787481328902
 51
176.036030093163788
  0
LINE
  5
261ED
  8
0
 10
4687.9146296384060406
 20
573.7374420275625653
 30
0.0
 11
4687.9146201236835623
 21
571.360876693387695
 31
0.0
  0
ARC
  5
261EE
  8
0
 10
4687.997098103686767
 20
571.3665989698607746
 30
0.0
 40
0.0826762458821125
 50
183.9687895936694986
 51
261.2012228403298195
  0
LINE
  5
261EF
  8
0
 10
4687.9844515528247939
 20
571.2848956872797999
 30
0.0
 11
4695.1321899088261489
 21
571.2851467994797758
 31
0.0
  0
ARC
  5
261F0
  8
0
 10
4695.1201197553082238
 20
571.3663299776568465
 30
0.0
 40
0.0820755568051146
 50
278.4566736798342959
 51
356.1706186007590986
  0
LINE
  5
261F1
  8
0
 10
4695.202012066260977
 20
571.3608485151073637
 30
0.0
 11
4695.2020215901684423
 21
573.7374170640450757
 31
0.0
  0
ARC
  5
261F2
  8
0
 10
4702.4206614511786029
 20
573.7317111855546727
 30
0.0
 40
0.0826573140842531
 50
3.9583061792597301
 51
81.2117058123482281
  0
LINE
  5
261F3
  8
0
 10
4702.4332901607249369
 20
573.8133980710797459
 30
0.0
 11
4695.2855518017258873
 21
573.8133966148798208
 31
0.0
  0
ARC
  5
261F4
  8
0
 10
4695.2981678030337207
 20
573.7317294814575916
 30
0.0
 40
0.0826358528148742
 50
98.7816787481328902
 51
176.036030093163788
  0
LINE
  5
261F5
  8
0
 10
4695.2157296384048095
 20
573.7374420275625653
 30
0.0
 11
4695.2157201236841502
 21
571.360876693387695
 31
0.0
  0
ARC
  5
261F6
  8
0
 10
4695.2981981036864454
 20
571.3665989698607746
 30
0.0
 40
0.0826762458821125
 50
183.9687895936694986
 51
261.2012228403298195
  0
LINE
  5
261F7
  8
0
 10
4695.2855515528253818
 20
571.2848956872797999
 30
0.0
 11
4702.4332899088249178
 21
571.2851467994797758
 31
0.0
  0
ARC
  5
261F8
  8
0
 10
4702.4212197553088117
 20
571.3663299776568465
 30
0.0
 40
0.0820755568051146
 50
278.4566736798342959
 51
356.1706186007590986
  0
LINE
  5
261F9
  8
0
 10
4702.5031120662615649
 20
571.3608485151073637
 30
0.0
 11
4702.5031215901681207
 21
573.7374170640450757
 31
0.0
  0
ARC
  5
261FA
  8
0
 10
4680.5175533198398625
 20
594.1162875287692486
 30
0.0
 40
0.0824538872278029
 50
3.845279495477858
 51
81.3247449837255516
  0
LINE
  5
261FB
  8
0
 10
4680.5299901607259017
 20
594.1977980710796601
 30
0.0
 11
4673.8319358887047201
 21
594.1975463943341538
 31
0.0
  0
LINE
  5
261FC
  8
0
 10
4673.8319358684402687
 20
591.6695468083019023
 30
0.0
 11
4680.5299899088249731
 21
591.6695467994799174
 31
0.0
  0
ARC
  5
261FD
  8
0
 10
4680.5183458184374103
 20
591.7503370054876086
 30
0.0
 40
0.0816250098177938
 50
278.2014199949196041
 51
356.4258718554817165
  0
LINE
  5
261FE
  8
0
 10
4680.599812065952392
 20
591.7452485142022169
 30
0.0
 11
4680.5998215853951478
 21
594.1218170858577423
 31
0.0
  0
ARC
  5
261FF
  8
0
 10
4672.3820199111596594
 20
592.0372311764339202
 30
0.0
 40
1.48214524480013
 50
348.9203875080023067
 51
359.3163938465949059
  0
LINE
  5
26200
  8
0
 10
4673.8640596632903907
 20
592.0195478570060459
 30
0.0
 11
4673.8640491459927944
 21
593.8475385489798555
 31
0.0
  0
ARC
  5
26201
  8
0
 10
4672.3537027805987236
 20
593.8270031324312868
 30
0.0
 40
1.5104859637853101
 50
0.7789737707169913
 51
10.9736382729854096
  0
LINE
  5
26202
  8
0
 10
4673.8319052354263476
 20
594.1393402029798381
 30
0.0
 11
4673.8365693130162981
 21
594.1145352068602961
 31
0.0
  0
LINE
  5
26203
  8
0
 10
4673.8319052354263476
 20
591.7278728592798416
 30
0.0
 11
4673.8365396090257491
 21
591.7524032016796127
 31
0.0
  0
ARC
  5
26204
  8
0
 10
4680.5175533198398625
 20
599.2123875287692272
 30
0.0
 40
0.0824538872278029
 50
3.845279495477858
 51
81.3247449837255516
  0
LINE
  5
26205
  8
0
 10
4680.5299901607259017
 20
599.2938980710797523
 30
0.0
 11
4674.5528970238137845
 21
599.2824787417276866
 31
0.0
  0
LINE
  5
26206
  8
0
 10
4673.8319358684439067
 20
596.7656468083019945
 30
0.0
 11
4680.5299899088249731
 21
596.7656467994798959
 31
0.0
  0
ARC
  5
26207
  8
0
 10
4680.5183458184374103
 20
596.8464370054874735
 30
0.0
 40
0.0816250098177938
 50
278.2014199949196041
 51
356.4258718554817165
  0
LINE
  5
26208
  8
0
 10
4680.599812065952392
 20
596.8413485142020818
 30
0.0
 11
4680.5998215853951478
 21
599.2179170858578345
 31
0.0
  0
ARC
  5
26209
  8
0
 10
4672.3820199111596594
 20
597.1333311764338987
 30
0.0
 40
1.48214524480013
 50
348.9203875080023067
 51
359.3163938465949059
  0
LINE
  5
2620A
  8
0
 10
4673.8640596632903907
 20
597.1156478570061381
 30
0.0
 11
4673.8640491459927944
 21
598.943638548979834
 31
0.0
  0
ARC
  5
2620B
  8
0
 10
4672.3537027805959951
 20
598.9231031324312653
 30
0.0
 40
1.510485963787308
 50
0.7789737707235044
 51
10.9067373699272903
  0
LINE
  5
2620C
  8
0
 10
4673.8319052354263476
 20
599.2354402029798166
 30
0.0
 11
4673.8369040363286331
 21
599.2089035554386101
 31
0.0
  0
LINE
  5
2620D
  8
0
 10
4673.8319052354263476
 20
596.8239728592798201
 30
0.0
 11
4673.8365396090257491
 21
596.8485032016794776
 31
0.0
  0
ARC
  5
2620E
  8
0
 10
4680.5175533198398625
 20
589.0201875287692701
 30
0.0
 40
0.0824538872278029
 50
3.845279495477858
 51
81.3247449837255516
  0
LINE
  5
2620F
  8
0
 10
4680.5299901607259017
 20
589.1016980710797952
 30
0.0
 11
4673.8319358887010821
 21
589.1014463943340616
 31
0.0
  0
LINE
  5
26210
  8
0
 10
4673.8319358684457256
 20
586.5734468083019237
 30
0.0
 11
4680.5299899088249731
 21
586.5734467994798251
 31
0.0
  0
ARC
  5
26211
  8
0
 10
4680.5183458184374103
 20
586.6542370054876301
 30
0.0
 40
0.0816250098177938
 50
278.2014199949196041
 51
356.4258718554817165
  0
LINE
  5
26212
  8
0
 10
4680.599812065952392
 20
586.6491485142021247
 30
0.0
 11
4680.5998215853951478
 21
589.0257170858577638
 31
0.0
  0
ARC
  5
26213
  8
0
 10
4672.3820199111596594
 20
586.9411311764339416
 30
0.0
 40
1.48214524480013
 50
348.9203875080023067
 51
359.3163938465949059
  0
LINE
  5
26214
  8
0
 10
4673.8640596632903907
 20
586.923447857006181
 30
0.0
 11
4673.8640491459927944
 21
588.7514385489797633
 31
0.0
  0
ARC
  5
26215
  8
0
 10
4672.3537027805987236
 20
588.7309031324313082
 30
0.0
 40
1.5104859637853101
 50
0.7789737707169913
 51
10.9736382729854096
  0
LINE
  5
26216
  8
0
 10
4673.8319052354263476
 20
589.0432402029797458
 30
0.0
 11
4673.8365693130162981
 21
589.0184352068603175
 31
0.0
  0
LINE
  5
26217
  8
0
 10
4673.8319052354263476
 20
586.6317728592797494
 30
0.0
 11
4673.8365396090257491
 21
586.6563032016796342
 31
0.0
  0
ARC
  5
26218
  8
0
 10
4680.5175533198398625
 20
583.9240875287692916
 30
0.0
 40
0.0824538872278029
 50
3.845279495477858
 51
81.3247449837255516
  0
LINE
  5
26219
  8
0
 10
4680.5299901607259017
 20
584.0055980710798167
 30
0.0
 11
4673.8319358887010821
 21
584.0053463943339693
 31
0.0
  0
LINE
  5
2621A
  8
0
 10
4673.8319358684384497
 20
581.4773468083019452
 30
0.0
 11
4680.5299899088249731
 21
581.4773467994798466
 31
0.0
  0
ARC
  5
2621B
  8
0
 10
4680.5183458184374103
 20
581.5581370054875379
 30
0.0
 40
0.0816250098177938
 50
278.2014199949196041
 51
356.4258718554817165
  0
LINE
  5
2621C
  8
0
 10
4680.599812065952392
 20
581.5530485142021462
 30
0.0
 11
4680.5998215853951478
 21
583.9296170858576716
 31
0.0
  0
ARC
  5
2621D
  8
0
 10
4672.3820199111596594
 20
581.8450311764339631
 30
0.0
 40
1.48214524480013
 50
348.9203875080023067
 51
359.3163938465949059
  0
LINE
  5
2621E
  8
0
 10
4673.8640596632903907
 20
581.8273478570062025
 30
0.0
 11
4673.8640491459927944
 21
583.655338548979671
 31
0.0
  0
ARC
  5
2621F
  8
0
 10
4672.3537027805987236
 20
583.6348031324313297
 30
0.0
 40
1.5104859637853101
 50
0.7789737707169913
 51
10.9736382729854096
  0
LINE
  5
26220
  8
0
 10
4673.8319052354263476
 20
583.947140202979881
 30
0.0
 11
4673.8365693130162981
 21
583.922335206860339
 31
0.0
  0
LINE
  5
26221
  8
0
 10
4673.8319052354263476
 20
581.5356728592797708
 30
0.0
 11
4673.8365396090257491
 21
581.5602032016796556
 31
0.0
  0
ARC
  5
26222
  8
0
 10
4680.5175533198398625
 20
578.8279875287691993
 30
0.0
 40
0.0824538872278029
 50
3.845279495477858
 51
81.3247449837255516
  0
LINE
  5
26223
  8
0
 10
4680.5299901607259017
 20
578.9094980710798382
 30
0.0
 11
4673.8319358886838017
 21
578.9092463943339908
 31
0.0
  0
LINE
  5
26224
  8
0
 10
4673.8319358685130283
 20
576.3812468083019667
 30
0.0
 11
4680.5299899088249731
 21
576.3812467994798681
 31
0.0
  0
ARC
  5
26225
  8
0
 10
4680.5183458184374103
 20
576.4620370054874456
 30
0.0
 40
0.0816250098177938
 50
278.2014199949196041
 51
356.4258718554817165
  0
LINE
  5
26226
  8
0
 10
4680.599812065952392
 20
576.456948514202054
 30
0.0
 11
4680.5998215853951478
 21
578.833517085857693
 31
0.0
  0
ARC
  5
26227
  8
0
 10
4672.3820199111596594
 20
576.7489311764338709
 30
0.0
 40
1.48214524480013
 50
348.9203875080023067
 51
359.3163938465949059
  0
LINE
  5
26228
  8
0
 10
4673.8640596632903907
 20
576.731247857006224
 30
0.0
 11
4673.8640491459927944
 21
578.5592385489798062
 31
0.0
  0
ARC
  5
26229
  8
0
 10
4672.3537027805987236
 20
578.5387031324313512
 30
0.0
 40
1.5104859637853101
 50
0.7789737707169913
 51
10.9736382729854096
  0
LINE
  5
2622A
  8
0
 10
4673.8319052354263476
 20
578.8510402029797888
 30
0.0
 11
4673.8365693130162981
 21
578.8262352068603604
 31
0.0
  0
LINE
  5
2622B
  8
0
 10
4673.8319052354263476
 20
576.4395728592797923
 30
0.0
 11
4673.8365396090257491
 21
576.4641032016795634
 31
0.0
  0
ARC
  5
2622C
  8
0
 10
4680.5175533198398625
 20
573.7318875287692208
 30
0.0
 40
0.0824538872278029
 50
3.845279495477858
 51
81.3247449837255516
  0
LINE
  5
2622D
  8
0
 10
4680.5299901607259017
 20
573.8133980710797459
 30
0.0
 11
4673.8319358887756607
 21
573.8131463943341259
 31
0.0
  0
LINE
  5
2622E
  8
0
 10
4673.8218942508246982
 20
571.2851468083150621
 30
0.0
 11
4680.5299899088249731
 21
571.2851467994797758
 31
0.0
  0
ARC
  5
2622F
  8
0
 10
4680.5183458184374103
 20
571.3659370054875808
 30
0.0
 40
0.0816250098177938
 50
278.2014199949196041
 51
356.4258718554817165
  0
LINE
  5
26230
  8
0
 10
4680.599812065952392
 20
571.3608485142021891
 30
0.0
 11
4680.5998215853951478
 21
573.7374170858578282
 31
0.0
  0
ARC
  5
26231
  8
0
 10
4672.3820199111596594
 20
571.6528311764338923
 30
0.0
 40
1.48214524480013
 50
348.9203875080023067
 51
359.3163938465949059
  0
LINE
  5
26232
  8
0
 10
4673.8640596632903907
 20
571.6351478570061317
 30
0.0
 11
4673.8640491459927944
 21
573.4631385489798276
 31
0.0
  0
ARC
  5
26233
  8
0
 10
4672.3537027805987236
 20
573.4426031324312589
 30
0.0
 40
1.5104859637853101
 50
0.7789737707169913
 51
10.9736382729854096
  0
LINE
  5
26234
  8
0
 10
4673.8319052354263476
 20
573.7549402029798102
 30
0.0
 11
4673.8365693130162981
 21
573.7301352068603819
 31
0.0
  0
LINE
  5
26235
  8
0
 10
4673.8218942508246982
 20
571.2878356777798672
 30
0.0
 11
4673.8365396090257491
 21
571.3680032016796986
 31
0.0
  0
ARC
  5
26236
  8
0
 10
4672.3273134629007473
 20
596.3640130140918245
 30
0.0
 40
1.552264963746703
 50
1.1658750917399781
 51
14.2305303175386992
  0
LINE
  5
26237
  8
0
 10
4673.8792570756459099
 20
596.3955968791798341
 30
0.0
 11
4673.879257075721398
 21
594.5675968791944115
 31
0.0
  0
ARC
  5
26238
  8
0
 10
4672.3273105958387532
 20
594.5991809206522021
 30
0.0
 40
1.5522678338785421
 50
345.7694898360028901
 51
358.8341205529117133
  0
ARC
  5
26239
  8
0
 10
4676.8732557911498589
 20
596.6708529315218357
 30
0.0
 40
0.0755817696212508
 50
355.7014757931273721
 51
89.1652228172156214
  0
LINE
  5
2623A
  8
0
 10
4676.8743569491261951
 20
596.7464266792798071
 30
0.0
 11
4673.8319463987236304
 21
596.7455968791992973
 31
0.0
  0
LINE
  5
2623B
  8
0
 10
4673.8319464479427552
 20
594.2175968792467984
 30
0.0
 11
4676.8676813834790664
 21
594.2141012290289837
 31
0.0
  0
ARC
  5
2623C
  8
0
 10
4676.8690743135493904
 20
594.2938216013525334
 30
0.0
 40
0.0797325405187388
 50
268.9989899497351757
 51
3.0706347438357979
  0
LINE
  5
2623D
  8
0
 10
4676.9486923785252657
 20
594.2980926371798205
 30
0.0
 11
4676.9486249541259895
 21
596.6651878479799507
 31
0.0
  0
ARC
  5
2623E
  8
0
 10
4672.3273134628961998
 20
591.267913014091846
 30
0.0
 40
1.552264963746703
 50
1.1658750917399781
 51
14.2305303175386992
  0
LINE
  5
2623F
  8
0
 10
4673.879257075642272
 20
591.2994968791798556
 30
0.0
 11
4673.8792570757168505
 21
589.4714968791944329
 31
0.0
  0
ARC
  5
26240
  8
0
 10
4672.3273105958351152
 20
589.5030809206522235
 30
0.0
 40
1.5522678338785421
 50
345.7694898360028901
 51
358.8341205529117133
  0
ARC
  5
26241
  8
0
 10
4676.8732557911462209
 20
591.5747529315217434
 30
0.0
 40
0.0755817696212508
 50
355.7014757931273721
 51
89.1652228172156214
  0
LINE
  5
26242
  8
0
 10
4676.8743569491207381
 20
591.6503266792798286
 30
0.0
 11
4673.8319463987199924
 21
591.6494968791993188
 31
0.0
  0
LINE
  5
26243
  8
0
 10
4673.8319464479400267
 20
589.1214968792468198
 30
0.0
 11
4676.8676813834754284
 21
589.1180012290290051
 31
0.0
  0
ARC
  5
26244
  8
0
 10
4676.8690743135448429
 20
589.1977216013525549
 30
0.0
 40
0.0797325405187388
 50
268.9989899497351757
 51
3.0706347438357979
  0
LINE
  5
26245
  8
0
 10
4676.9486923785207182
 20
589.2019926371798419
 30
0.0
 11
4676.948624954121442
 21
591.5690878479797448
 31
0.0
  0
ARC
  5
26246
  8
0
 10
4672.3273134628961998
 20
586.1718130140917538
 30
0.0
 40
1.552264963746703
 50
1.1658750917399781
 51
14.2305303175386992
  0
LINE
  5
26247
  8
0
 10
4673.879257075642272
 20
586.203396879179877
 30
0.0
 11
4673.8792570757168505
 21
584.3753968791944544
 31
0.0
  0
ARC
  5
26248
  8
0
 10
4672.3273105958351152
 20
584.4069809206521313
 30
0.0
 40
1.5522678338785421
 50
345.7694898360028901
 51
358.8341205529117133
  0
ARC
  5
26249
  8
0
 10
4676.8732557911462209
 20
586.4786529315216512
 30
0.0
 40
0.0755817696212508
 50
355.7014757931273721
 51
89.1652228172156214
  0
LINE
  5
2624A
  8
0
 10
4676.8743569491207381
 20
586.55422667927985
 30
0.0
 11
4673.8319463987199924
 21
586.5533968791993402
 31
0.0
  0
LINE
  5
2624B
  8
0
 10
4673.8319464479400267
 20
584.0253968792468413
 30
0.0
 11
4676.8676813834754284
 21
584.0219012290289129
 31
0.0
  0
ARC
  5
2624C
  8
0
 10
4676.8690743135448429
 20
584.1016216013524627
 30
0.0
 40
0.0797325405187388
 50
268.9989899497351757
 51
3.0706347438357979
  0
LINE
  5
2624D
  8
0
 10
4676.9486923785207182
 20
584.1058926371798634
 30
0.0
 11
4676.948624954121442
 21
586.4729878479797662
 31
0.0
  0
ARC
  5
2624E
  8
0
 10
4672.3273134628961998
 20
581.0757130140917752
 30
0.0
 40
1.552264963746703
 50
1.1658750917399781
 51
14.2305303175386992
  0
LINE
  5
2624F
  8
0
 10
4673.879257075642272
 20
581.1072968791798985
 30
0.0
 11
4673.8792570757168505
 21
579.2792968791942485
 31
0.0
  0
ARC
  5
26250
  8
0
 10
4672.3273105958351152
 20
579.3108809206521528
 30
0.0
 40
1.5522678338785421
 50
345.7694898360028901
 51
358.8341205529117133
  0
ARC
  5
26251
  8
0
 10
4676.8732557911462209
 20
581.3825529315216727
 30
0.0
 40
0.0755817696212508
 50
355.7014757931273721
 51
89.1652228172156214
  0
LINE
  5
26252
  8
0
 10
4676.8743569491207381
 20
581.4581266792797578
 30
0.0
 11
4673.8319463987199924
 21
581.457296879199248
 31
0.0
  0
LINE
  5
26253
  8
0
 10
4673.8319464479400267
 20
578.9292968792468628
 30
0.0
 11
4676.8676813834754284
 21
578.925801229029048
 31
0.0
  0
ARC
  5
26254
  8
0
 10
4676.8690743135448429
 20
579.0055216013524841
 30
0.0
 40
0.0797325405187388
 50
268.9989899497351757
 51
3.0706347438357979
  0
LINE
  5
26255
  8
0
 10
4676.9486923785207182
 20
579.0097926371798849
 30
0.0
 11
4676.948624954121442
 21
581.3768878479797877
 31
0.0
  0
ARC
  5
26256
  8
0
 10
4672.3273134629962442
 20
575.9796130140917967
 30
0.0
 40
1.552264963746703
 50
1.1658750917399781
 51
14.2305303175386992
  0
LINE
  5
26257
  8
0
 10
4673.8792570757423164
 20
576.0111968791798063
 30
0.0
 11
4673.8792570758168949
 21
574.18319687919427
 31
0.0
  0
ARC
  5
26258
  8
0
 10
4672.3273105959342502
 20
574.2147809206520606
 30
0.0
 40
1.5522678338785421
 50
345.7694898360028901
 51
358.8341205529117133
  0
ARC
  5
26259
  8
0
 10
4676.8732557912462653
 20
576.2864529315216942
 30
0.0
 40
0.0755817696212508
 50
355.7014757931273721
 51
89.1652228172156214
  0
LINE
  5
2625A
  8
0
 10
4676.8743569492207826
 20
576.3620266792797793
 30
0.0
 11
4673.8319463988191274
 21
576.3611968791993831
 31
0.0
  0
LINE
  5
2625B
  8
0
 10
4673.8319464480382521
 20
573.8331968792467705
 30
0.0
 11
4676.8676813835745634
 21
573.8297012290289558
 31
0.0
  0
ARC
  5
2625C
  8
0
 10
4676.8690743136448873
 20
573.9094216013525056
 30
0.0
 40
0.0797325405187388
 50
268.9989899497351757
 51
3.0706347438357979
  0
LINE
  5
2625D
  8
0
 10
4676.9486923786216721
 20
573.9136926371797927
 30
0.0
 11
4676.9486249542223959
 21
576.2807878479799228
 31
0.0
  0
LINE
  5
2625E
  8
0
 10
4673.8319052354263476
 20
573.7549402029798102
 30
0.0
 11
4673.8319464480382521
 21
573.8331968792467705
 31
0.0
  0
LINE
  5
2625F
  8
0
 10
4673.8319052354263476
 20
576.4395728592797923
 30
0.0
 11
4673.8319463988191274
 21
576.3611968791993831
 31
0.0
  0
LINE
  5
26260
  8
0
 10
4673.8319464479181988
 20
578.9292968792468628
 30
0.0
 11
4673.8319052354263476
 21
578.8510402029797888
 31
0.0
  0
LINE
  5
26261
  8
0
 10
4673.8319052354263476
 20
581.5356728592797708
 30
0.0
 11
4673.8319463987199924
 21
581.457296879199248
 31
0.0
  0
LINE
  5
26262
  8
0
 10
4673.8319464479400267
 20
584.0253968792468413
 30
0.0
 11
4673.8319052354263476
 21
583.947140202979881
 31
0.0
  0
LINE
  5
26263
  8
0
 10
4673.8319052354263476
 20
586.6317728592797494
 30
0.0
 11
4673.8319463987299969
 21
586.5533968791993402
 31
0.0
  0
LINE
  5
26264
  8
0
 10
4673.8319464479400267
 20
589.1214968792465925
 30
0.0
 11
4673.8319052354263476
 21
589.0432402029797458
 31
0.0
  0
LINE
  5
26265
  8
0
 10
4673.8319463987227209
 20
591.6494968792040936
 30
0.0
 11
4673.8319052354263476
 21
591.7278728592798416
 31
0.0
  0
LINE
  5
26266
  8
0
 10
4673.8319464479427552
 20
594.2175968792466847
 30
0.0
 11
4673.8319052354263476
 21
594.1393402029798381
 31
0.0
  0
LINE
  5
26267
  8
0
 10
4673.8319052354263476
 20
596.8239728592798201
 30
0.0
 11
4673.8319463987272684
 21
596.7455968791872465
 31
0.0
  0
ARC
  5
26268
  8
0
 10
4674.1274717659907765
 20
599.3102725051006701
 30
0.0
 40
0.3048925178335519
 50
178.7362503745150946
 51
194.2077375342720131
  0
ARC
  5
26269
  8
0
 10
4672.2613768138089654
 20
616.7431114907727761
 30
0.0
 40
1.618225219196606
 50
1.3060976323918549
 51
13.9566228784806992
  0
LINE
  5
2626A
  8
0
 10
4673.879181600598713
 20
616.7799968791965739
 30
0.0
 11
4673.8791816283655862
 21
614.95199687917966
 31
0.0
  0
ARC
  5
2626B
  8
0
 10
4672.2613856209773076
 20
614.9888812166212801
 30
0.0
 40
1.6182164181199781
 50
346.0433379948966035
 51
358.6939324843651207
  0
ARC
  5
2626C
  8
0
 10
4674.0856961882163887
 20
570.6494043262215428
 30
0.0
 40
0.0622799297156135
 50
272.8118206547271143
 51
6.8022238238249688
  0
ARC
  5
2626D
  8
0
 10
4674.0007825551456335
 20
570.7122030221354407
 30
0.0
 40
0.1250036442470351
 50
270.0082357213067894
 51
9.2064206335219385
  0
ARC
  5
2626E
  8
0
 10
4672.5625423902365583
 20
570.4748347450771462
 30
0.0
 40
1.595404217641563
 50
6.5484836707045213
 51
20.1033847732450113
  0
ARC
  5
2626F
  8
0
 10
4672.5382911603992397
 20
570.4751597975041477
 30
0.0
 40
1.6065806992969269
 50
9.2065302959291841
 51
19.945230435916411
  0
ARC
  5
26270
  8
0
 10
4673.8346227956290022
 20
570.9407351971954085
 30
0.0
 40
0.2406897594336453
 50
20.0363402094571903
 51
65.7954441448804062
  0
ARC
  5
26271
  8
0
 10
4673.8229419406934539
 20
570.9413614298865696
 30
0.0
 40
0.2399528833841081
 50
19.9413713469166005
 51
65.8221682422480399
  0
ARC
  5
26272
  8
0
 10
4674.0149676777045897
 20
571.3460827728323466
 30
0.0
 40
0.202970428398175
 50
207.7927801673226895
 51
246.2754466610830093
  0
ARC
  5
26273
  8
0
 10
4674.0015793097563801
 20
571.3410425197516815
 30
0.0
 40
0.197833514560077
 50
206.9302288959223972
 51
246.0336940051979013
  0
LINE
  5
26274
  8
0
 10
4673.8218942508246982
 20
571.2878356777798672
 30
0.0
 11
4673.8218942508246982
 21
571.2651347511798576
 31
0.0
  0
ARC
  5
26275
  8
0
 10
4673.8520168835257209
 20
571.2651606137351337
 30
0.0
 40
0.030122643800803
 50
180.0491928132078101
 51
207.0908011621793889
  0
ARC
  5
26276
  8
0
 10
4674.608348037473661
 20
584.8207471735140643
 30
0.0
 40
14.4618378764934992
 50
90.2196897009142305
 51
93.0990204830858374
  0
ARC
  5
26277
  8
0
 10
4698.9486753304054218
 20
627.2408172460626474
 30
0.0
 40
0.082590736034968
 50
98.7086293287308223
 51
176.0578882937666947
  0
LINE
  5
26278
  8
0
 10
4698.9361702921869437
 20
627.3224558012798298
 30
0.0
 11
4706.0772802240871897
 21
627.3249383528797125
 31
0.0
  0
ARC
  5
26279
  8
0
 10
4706.0680122730373114
 20
627.2394919840975263
 30
0.0
 40
0.0859475238429649
 50
4.6549835224746277
 51
83.8096064398093432
  0
LINE
  5
2627A
  8
0
 10
4706.1536762952873687
 20
627.246467093179831
 30
0.0
 11
4706.1536671501880846
 21
624.8698984979688476
 31
0.0
  0
ARC
  5
2627B
  8
0
 10
4706.071432839065892
 20
624.8754283634231115
 30
0.0
 40
0.0824200299533133
 50
278.6135839955026086
 51
356.1529236846308208
  0
LINE
  5
2627C
  8
0
 10
4706.0837768670880905
 20
624.7939379571796508
 30
0.0
 11
4698.9426669422873601
 21
624.7914554054798373
 31
0.0
  0
ARC
  5
2627D
  8
0
 10
4698.9519290158141303
 20
624.8768960591863788
 30
0.0
 40
0.0859412084614658
 50
184.6514972331663103
 51
263.8130911929200124
  0
LINE
  5
2627E
  8
0
 10
4698.8662708638867116
 20
624.8699266746798457
 30
0.0
 11
4698.8662800024867465
 21
627.2464952400797529
 31
0.0
  0
ARC
  5
2627F
  8
0
 10
4698.9486753304054218
 20
622.1447172460625552
 30
0.0
 40
0.082590736034968
 50
98.7086293287308223
 51
176.0578882937666947
  0
LINE
  5
26280
  8
0
 10
4698.9361702921869437
 20
622.2263558012798512
 30
0.0
 11
4706.0772802240871897
 21
622.228838352879734
 31
0.0
  0
ARC
  5
26281
  8
0
 10
4706.0680122730373114
 20
622.1433919840975477
 30
0.0
 40
0.0859475238429649
 50
4.6549835224746277
 51
83.8096064398093432
  0
LINE
  5
26282
  8
0
 10
4706.1536762952873687
 20
622.1503670931798524
 30
0.0
 11
4706.1536671501880846
 21
619.7737984979687553
 31
0.0
  0
ARC
  5
26283
  8
0
 10
4706.071432839065892
 20
619.7793283634231329
 30
0.0
 40
0.0824200299533133
 50
278.6135839955026086
 51
356.1529236846308208
  0
LINE
  5
26284
  8
0
 10
4706.0837768670880905
 20
619.6978379571796722
 30
0.0
 11
4698.9426669422873601
 21
619.6953554054798587
 31
0.0
  0
ARC
  5
26285
  8
0
 10
4698.9519290158141303
 20
619.780796059186514
 30
0.0
 40
0.0859412084614658
 50
184.6514972331663103
 51
263.8130911929200124
  0
LINE
  5
26286
  8
0
 10
4698.8662708638867116
 20
619.7738266746797535
 30
0.0
 11
4698.8662800024867465
 21
622.1503952400796607
 31
0.0
  0
ARC
  5
26287
  8
0
 10
4698.9486753304054218
 20
617.048617246062463
 30
0.0
 40
0.082590736034968
 50
98.7086293287308223
 51
176.0578882937666947
  0
LINE
  5
26288
  8
0
 10
4698.9361702921869437
 20
617.1302558012796453
 30
0.0
 11
4706.0772802240871897
 21
617.1327383528797554
 31
0.0
  0
ARC
  5
26289
  8
0
 10
4706.0680122730373114
 20
617.0472919840975692
 30
0.0
 40
0.0859475238429649
 50
4.6549835224746277
 51
83.8096064398093432
  0
LINE
  5
2628A
  8
0
 10
4706.1536762952873687
 20
617.0542670931798739
 30
0.0
 11
4706.1536671501880846
 21
614.6776984979687768
 31
0.0
  0
ARC
  5
2628B
  8
0
 10
4706.071432839065892
 20
614.6832283634231544
 30
0.0
 40
0.0824200299533133
 50
278.6135839955026086
 51
356.1529236846308208
  0
LINE
  5
2628C
  8
0
 10
4706.0837768670880905
 20
614.6017379571798074
 30
0.0
 11
4698.9426669422873601
 21
614.5992554054797665
 31
0.0
  0
ARC
  5
2628D
  8
0
 10
4698.9519290158141303
 20
614.6846960591864217
 30
0.0
 40
0.0859412084614658
 50
184.6514972331663103
 51
263.8130911929200124
  0
LINE
  5
2628E
  8
0
 10
4698.8662708638867116
 20
614.677726674679775
 30
0.0
 11
4698.8662800024867465
 21
617.0542952400797958
 31
0.0
  0
ARC
  5
2628F
  8
0
 10
4698.9486753304054218
 20
611.9525172460625981
 30
0.0
 40
0.082590736034968
 50
98.7086293287308223
 51
176.0578882937666947
  0
LINE
  5
26290
  8
0
 10
4698.9361702921869437
 20
612.0341558012796668
 30
0.0
 11
4706.0772802240871897
 21
612.0366383528796632
 31
0.0
  0
ARC
  5
26291
  8
0
 10
4706.0680122730373114
 20
611.951191984097477
 30
0.0
 40
0.0859475238429649
 50
4.6549835224746277
 51
83.8096064398093432
  0
LINE
  5
26292
  8
0
 10
4706.1536762952873687
 20
611.9581670931798953
 30
0.0
 11
4706.1536671501880846
 21
609.5815984979687983
 31
0.0
  0
ARC
  5
26293
  8
0
 10
4706.071432839065892
 20
609.5871283634230622
 30
0.0
 40
0.0824200299533133
 50
278.6135839955026086
 51
356.1529236846308208
  0
LINE
  5
26294
  8
0
 10
4706.0837768670880905
 20
609.5056379571798288
 30
0.0
 11
4698.9426669422873601
 21
609.503155405479788
 31
0.0
  0
ARC
  5
26295
  8
0
 10
4698.9519290158141303
 20
609.5885960591864432
 30
0.0
 40
0.0859412084614658
 50
184.6514972331663103
 51
263.8130911929200124
  0
LINE
  5
26296
  8
0
 10
4698.8662708638867116
 20
609.5816266746797965
 30
0.0
 11
4698.8662800024867465
 21
611.9581952400798173
 31
0.0
  0
ARC
  5
26297
  8
0
 10
4698.9486753304054218
 20
606.8564172460626196
 30
0.0
 40
0.082590736034968
 50
98.7086293287308223
 51
176.0578882937666947
  0
LINE
  5
26298
  8
0
 10
4698.9361702921869437
 20
606.9380558012798019
 30
0.0
 11
4706.0772802240871897
 21
606.9405383528796847
 31
0.0
  0
ARC
  5
26299
  8
0
 10
4706.0680122730373114
 20
606.8550919840974984
 30
0.0
 40
0.0859475238429649
 50
4.6549835224746277
 51
83.8096064398093432
  0
LINE
  5
2629A
  8
0
 10
4706.1536762952873687
 20
606.8620670931798031
 30
0.0
 11
4706.1536671501880846
 21
604.4854984979689334
 31
0.0
  0
ARC
  5
2629B
  8
0
 10
4706.071432839065892
 20
604.4910283634231973
 30
0.0
 40
0.0824200299533133
 50
278.6135839955026086
 51
356.1529236846308208
  0
LINE
  5
2629C
  8
0
 10
4706.0837768670880905
 20
604.4095379571797366
 30
0.0
 11
4698.9426669422873601
 21
604.4070554054798095
 31
0.0
  0
ARC
  5
2629D
  8
0
 10
4698.9519290158141303
 20
604.492496059186351
 30
0.0
 40
0.0859412084614658
 50
184.6514972331663103
 51
263.8130911929200124
  0
LINE
  5
2629E
  8
0
 10
4698.8662708638867116
 20
604.4855266746798179
 30
0.0
 11
4698.8662800024867465
 21
606.8620952400798387
 31
0.0
  0
ARC
  5
2629F
  8
0
 10
4698.9487421412350159
 20
596.6641893865546535
 30
0.0
 40
0.0826573140842531
 50
98.7882941876517862
 51
176.0416938207403064
  0
LINE
  5
262A0
  8
0
 10
4698.9361134316868629
 20
596.7458762720798404
 30
0.0
 11
4706.0838517906877314
 21
596.745874815879688
 31
0.0
  0
ARC
  5
262A1
  8
0
 10
4706.0712357893780791
 20
596.6642076824576861
 30
0.0
 40
0.0826358528148742
 50
3.9639699068362289
 51
81.218321251867124
  0
LINE
  5
262A2
  8
0
 10
4706.1536739540069902
 20
596.6699202285625461
 30
0.0
 11
4706.1536834687303781
 21
594.2933548943876758
 31
0.0
  0
ARC
  5
262A3
  8
0
 10
4706.0712054887262639
 20
594.299077170860869
 30
0.0
 40
0.0826762458821125
 50
278.7987771596701805
 51
356.0312104063303877
  0
LINE
  5
262A4
  8
0
 10
4706.0838520395873275
 20
594.2173738882797807
 30
0.0
 11
4698.9361136835859725
 21
594.2176250004797566
 31
0.0
  0
ARC
  5
262A5
  8
0
 10
4698.948183837104807
 20
594.298808178656941
 30
0.0
 40
0.0820755568051146
 50
183.8293813992409014
 51
261.5433263201658178
  0
LINE
  5
262A6
  8
0
 10
4698.8662915261511444
 20
594.2933267161074582
 30
0.0
 11
4698.8662820022445885
 21
596.6698952650450565
 31
0.0
  0
ARC
  5
262A7
  8
0
 10
4698.948742134434724
 20
591.5680893655546697
 30
0.0
 40
0.0826573140842531
 50
98.7882941876517862
 51
176.0416938207403064
  0
LINE
  5
262A8
  8
0
 10
4698.936113424886571
 20
591.6497762510798566
 30
0.0
 11
4706.0838517838874395
 21
591.6497747948798178
 31
0.0
  0
ARC
  5
262A9
  8
0
 10
4706.0712357825777872
 20
591.5681076614577023
 30
0.0
 40
0.0826358528148742
 50
3.9639699068362289
 51
81.218321251867124
  0
LINE
  5
262AA
  8
0
 10
4706.1536739472066984
 20
591.5738202075625622
 30
0.0
 11
4706.1536834619291767
 21
589.197254873387692
 31
0.0
  0
ARC
  5
262AB
  8
0
 10
4706.0712054819268815
 20
589.2029771498607715
 30
0.0
 40
0.0826762458821125
 50
278.7987771596701805
 51
356.0312104063303877
  0
LINE
  5
262AC
  8
0
 10
4706.0838520327870356
 20
589.1212738672797968
 30
0.0
 11
4698.9361136767856806
 21
589.1215249794797728
 31
0.0
  0
ARC
  5
262AD
  8
0
 10
4698.9481838303036056
 20
589.2027081576569572
 30
0.0
 40
0.0820755568051146
 50
183.8293813992409014
 51
261.5433263201658178
  0
LINE
  5
262AE
  8
0
 10
4698.8662915193508525
 20
589.1972266951075881
 30
0.0
 11
4698.8662819954442966
 21
591.573795244044959
 31
0.0
  0
ARC
  5
262AF
  8
0
 10
4698.9487421412459298
 20
586.4719893866060829
 30
0.0
 40
0.0826573140842531
 50
98.7882941876517862
 51
176.0416938207403064
  0
LINE
  5
262B0
  8
0
 10
4698.9361134316977768
 20
586.5536762721311561
 30
0.0
 11
4706.0838517906977359
 21
586.553674815931231
 31
0.0
  0
ARC
  5
262B1
  8
0
 10
4706.071235789388993
 20
586.4720076825090018
 30
0.0
 40
0.0826358528148742
 50
3.9639699068362289
 51
81.218321251867124
  0
LINE
  5
262B2
  8
0
 10
4706.1536739540188137
 20
586.4777202286138618
 30
0.0
 11
4706.1536834687403825
 21
584.1011548944391052
 31
0.0
  0
ARC
  5
262B3
  8
0
 10
4706.0712054887380873
 20
584.1068771709121847
 30
0.0
 40
0.0826762458821125
 50
278.7987771596701805
 51
356.0312104063303877
  0
LINE
  5
262B4
  8
0
 10
4706.0838520395982414
 20
584.02517388833121
 30
0.0
 11
4698.9361136835977959
 21
584.0254250005309586
 31
0.0
  0
ARC
  5
262B5
  8
0
 10
4698.9481838371148115
 20
584.1066081787082567
 30
0.0
 40
0.0820755568051146
 50
183.8293813992409014
 51
261.5433263201658178
  0
LINE
  5
262B6
  8
0
 10
4698.8662915261620583
 20
584.1011267161587739
 30
0.0
 11
4698.866282002254593
 21
586.4776952650962585
 31
0.0
  0
ARC
  5
262B7
  8
0
 10
4698.9487421412459298
 20
581.3758893867060351
 30
0.0
 40
0.0826573140842531
 50
98.7882941876517862
 51
176.0416938207403064
  0
LINE
  5
262B8
  8
0
 10
4698.9361134316977768
 20
581.457576272231222
 30
0.0
 11
4706.0838517906977359
 21
581.4575748160310695
 31
0.0
  0
ARC
  5
262B9
  8
0
 10
4706.071235789388993
 20
581.375907682608954
 30
0.0
 40
0.0826358528148742
 50
3.9639699068362289
 51
81.218321251867124
  0
LINE
  5
262BA
  8
0
 10
4706.1536739540188137
 20
581.3816202287140413
 30
0.0
 11
4706.1536834687403825
 21
579.0050548945389437
 31
0.0
  0
ARC
  5
262BB
  8
0
 10
4706.0712054887380873
 20
579.0107771710121369
 30
0.0
 40
0.0826762458821125
 50
278.7987771596701805
 51
356.0312104063303877
  0
LINE
  5
262BC
  8
0
 10
4706.0838520395982414
 20
578.9290738884310485
 30
0.0
 11
4698.9361136835977959
 21
578.9293250006311382
 31
0.0
  0
ARC
  5
262BD
  8
0
 10
4698.9481838371148115
 20
579.0105081788083226
 30
0.0
 40
0.0820755568051146
 50
183.8293813992409014
 51
261.5433263201658178
  0
LINE
  5
262BE
  8
0
 10
4698.8662915261620583
 20
579.0050267162588398
 30
0.0
 11
4698.866282002254593
 21
581.381595265196438
 31
0.0
  0
ARC
  5
262BF
  8
0
 10
4698.9487421412350159
 20
576.2797893865547394
 30
0.0
 40
0.0826573140842531
 50
98.7882941876517862
 51
176.0416938207403064
  0
LINE
  5
262C0
  8
0
 10
4698.9361134316868629
 20
576.3614762720798126
 30
0.0
 11
4706.0838517906877314
 21
576.3614748158798875
 31
0.0
  0
ARC
  5
262C1
  8
0
 10
4706.0712357893780791
 20
576.2798076824576583
 30
0.0
 40
0.0826358528148742
 50
3.9639699068362289
 51
81.218321251867124
  0
LINE
  5
262C2
  8
0
 10
4706.1536739540069902
 20
576.2855202285626319
 30
0.0
 11
4706.1536834687303781
 21
573.908954894387648
 31
0.0
  0
ARC
  5
262C3
  8
0
 10
4706.0712054887262639
 20
573.9146771708608412
 30
0.0
 40
0.0826762458821125
 50
278.7987771596701805
 51
356.0312104063303877
  0
LINE
  5
262C4
  8
0
 10
4706.0838520395873275
 20
573.8329738882797528
 30
0.0
 11
4698.9361136835859725
 21
573.8332250004798425
 31
0.0
  0
ARC
  5
262C5
  8
0
 10
4698.948183837104807
 20
573.9144081786569132
 30
0.0
 40
0.0820755568051146
 50
183.8293813992409014
 51
261.5433263201658178
  0
LINE
  5
262C6
  8
0
 10
4698.8662915261511444
 20
573.9089267161075441
 30
0.0
 11
4698.8662820022445885
 21
576.2854952650450286
 31
0.0
  0
LINE
  5
262C7
  8
0
 10
4732.4686302454256293
 20
570.4040803232797998
 30
0.0
 11
4732.4927542542645824
 21
571.0944807230534934
 31
0.0
  0
LINE
  5
262C8
  8
0
 10
4672.729215307587765
 20
570.5871993791798786
 30
0.0
 11
4672.7123509216871753
 21
571.0701322066798866
 31
0.0
  0
LINE
  5
262C9
  8
0
 10
4672.7123509216871753
 20
571.0701322066798866
 30
0.0
 11
4672.5733630877875839
 21
571.0749857687796975
 31
0.0
  0
ARC
  5
262CA
  8
0
 10
4672.5726036659252713
 20
571.1376140015828469
 30
0.0
 40
0.0626328369595742
 50
180.0540402083495906
 51
270.6947271725056225
  0
ARC
  5
262CB
  8
0
 10
4672.6264712672864334
 20
570.4067180701405277
 30
0.0
 40
0.0752033498347111
 50
182.0100535447759
 51
195.0299892851101902
  0
LINE
  5
262CC
  8
0
 10
4672.6529685106461329
 20
571.0722058861634878
 30
0.0
 11
4672.6689039792454423
 21
570.6161517568720001
 31
0.0
  0
ARC
  5
262CD
  8
0
 10
4672.6988856818743443
 20
570.6171993792157764
 30
0.0
 40
0.0300000000861241
 50
182.0012181626804875
 51
269.9966871242236834
  0
LINE
  5
262CE
  8
0
 10
4672.5513141909877959
 20
570.4040803232797998
 30
0.0
 11
4672.5271901855294345
 21
571.0944806262950806
 31
0.0
  0
LINE
  5
262CF
  8
0
 10
4732.4691998595553741
 20
628.8977826617017399
 30
0.0
 11
4732.5099708568259302
 21
628.8999193791797779
 31
0.0
  0
LINE
  5
262D0
  8
0
 10
4672.5538457239254058
 20
549.8371993791796513
 30
0.0
 11
4732.46610222558229
 21
549.8371993791796513
 31
0.0
  0
LINE
  5
262D2
  8
0
 10
4673.8318416536421864
 20
612.0373067659301114
 30
0.0
 11
4673.8318297604264444
 21
612.1118788748798352
 31
0.0
  0
LINE
  5
262D3
  8
0
 10
4672.6976956892012822
 20
571.0706439786742976
 30
0.0
 11
4672.7038994541253487
 21
570.8929913956795872
 31
0.0
  0
LINE
  5
262D4
  8
0
 10
4672.7038994541253487
 20
570.8929913956795872
 30
0.0
 11
4672.7191157073511931
 21
570.8764140904726219
 31
0.0
  0
LINE
  5
262D5
  8
0
 10
4732.3222460211263751
 20
571.0706438834772598
 30
0.0
 11
4732.3160422595246928
 21
570.8929913956795872
 31
0.0
  0
LINE
  5
262D6
  8
0
 10
4732.3160422595246928
 20
570.8929913956795872
 30
0.0
 11
4732.3008288367445857
 21
570.8764171740920119
 31
0.0
  0
VIEWPORT
  5
7BC8
 67
     1
  8
0
 10
8.4975296442687753
 20
4.5
 30
0.0
 40
16.9950592885375507
 41
9.0
 68
     1
 69
     1
1001
ACAD
1000
MVIEW
1002
{
1070
    16
1010
0.0
1020
0.0
1030
0.0
1010
0.0
1020
0.0
1030
1.0
1040
0.0
1040
9.0
1040
8.4975296442687753
1040
4.5
1040
50.0
1040
0.0
1040
0.0
1070
     0
1070
   100
1070
     1
1070
     1
1070
     0
1070
     0
1070
     0
1070
     0
1040
0.0
1040
0.0
1040
0.0
1040
1.0
1040
1.0
1040
0.0
1040
0.0
1070
     0
1002
{
1002
}
1002
}
  0
ENDSEC
  0
EOF
