  0
SECTION
  2
HEADER
  9
$ACADVER
  1
AC1009
  9
$INSBASE
 10
4510.3160003855200557
 20
552.0994283794651665
 30
0.0
  9
$EXTMIN
 10
4480.3159990241383639
 20
552.093327288255864
 30
0.0
  9
$EXTMAX
 10
4540.3159990241383639
 20
628.4211195251722302
 30
0.0
  9
$LIMMIN
 10
0.0
 20
0.0
  9
$LIMMAX
 10
11.6929133858000007
 20
8.2677165353999982
  9
$ORTHOMODE
 70
     0
  9
$REGENMODE
 70
     1
  9
$FILLMODE
 70
     1
  9
$QTEXTMODE
 70
     0
  9
$MIRRTEXT
 70
     0
  9
$DRAGMODE
 70
     2
  9
$LTSCALE
 40
0.6431102362
  9
$OSMODE
 70
  4095
  9
$ATTMODE
 70
     1
  9
$TEXTSIZE
 40
0.2
  9
$TRACEWID
 40
0.05
  9
$TEXTSTYLE
  7
STANDARD
  9
$CLAYER
  8
0
  9
$CELTYPE
  6
BYLAYER
  9
$CECOLOR
 62
   256
  9
$DIMSCALE
 40
1.0
  9
$DIMASZ
 40
0.1875
  9
$DIMEXO
 40
0.0625
  9
$DIMDLI
 40
0.4443307087
  9
$DIMRND
 40
0.0
  9
$DIMDLE
 40
0.0
  9
$DIMEXE
 40
0.125
  9
$DIMTP
 40
0.01
  9
$DIMTM
 40
0.01
  9
$DIMTXT
 40
2.0
  9
$DIMCEN
 40
0.1052362205
  9
$DIMTSZ
 40
0.0
  9
$DIMTOL
 70
     1
  9
$DIMLIM
 70
     0
  9
$DIMTIH
 70
     1
  9
$DIMTOH
 70
     1
  9
$DIMSE1
 70
     0
  9
$DIMSE2
 70
     0
  9
$DIMTAD
 70
     0
  9
$DIMZIN
 70
     0
  9
$DIMBLK
  1

  9
$DIMASO
 70
     1
  9
$DIMSHO
 70
     1
  9
$DIMPOST
  1
\X
  9
$DIMAPOST
  1

  9
$DIMALT
 70
     1
  9
$DIMALTD
 70
     2
  9
$DIMALTF
 40
25.3999999999999986
  9
$DIMLFAC
 40
1.0
  9
$DIMTOFL
 70
     0
  9
$DIMTVP
 40
0.0
  9
$DIMTIX
 70
     0
  9
$DIMSOXD
 70
     0
  9
$DIMSAH
 70
     0
  9
$DIMBLK1
  1

  9
$DIMBLK2
  1

  9
$DIMSTYLE
  2
STANDARD
  9
$DIMCLRD
 70
     0
  9
$DIMCLRE
 70
     0
  9
$DIMCLRT
 70
     0
  9
$DIMTFAC
 40
1.0
  9
$DIMGAP
 40
0.09
  9
$LUNITS
 70
     2
  9
$LUPREC
 70
     4
  9
$SKETCHINC
 40
0.1
  9
$FILLETRAD
 40
0.0
  9
$AUNITS
 70
     0
  9
$AUPREC
 70
     0
  9
$MENU
  1
.
  9
$ELEVATION
 40
0.0
  9
$PELEVATION
 40
0.0
  9
$THICKNESS
 40
0.0
  9
$LIMCHECK
 70
     0
  9
$BLIPMODE
 70
     0
  9
$CHAMFERA
 40
0.0
  9
$CHAMFERB
 40
0.0
  9
$SKPOLY
 70
     0
  9
$TDCREATE
 40
2458060.468368056230247
  9
$TDUPDATE
 40
2458857.3673726851120591
  9
$TDINDWG
 40
4.5111644675999996
  9
$TDUSRTIMER
 40
4.5111644675999996
  9
$USRTIMER
 70
     1
  9
$ANGBASE
 50
0.0
  9
$ANGDIR
 70
     0
  9
$PDMODE
 70
     0
  9
$PDSIZE
 40
0.3125
  9
$PLINEWID
 40
0.0
  9
$COORDS
 70
     1
  9
$SPLFRAME
 70
     0
  9
$SPLINETYPE
 70
     6
  9
$SPLINESEGS
 70
     8
  9
$ATTDIA
 70
     1
  9
$ATTREQ
 70
     1
  9
$HANDLING
 70
     1
  9
$HANDSEED
  5
2485D
  9
$SURFTAB1
 70
     6
  9
$SURFTAB2
 70
     6
  9
$SURFTYPE
 70
     6
  9
$SURFU
 70
     6
  9
$SURFV
 70
     6
  9
$UCSNAME
  2

  9
$UCSORG
 10
0.0
 20
0.0
 30
0.0
  9
$UCSXDIR
 10
1.0
 20
0.0
 30
0.0
  9
$UCSYDIR
 10
0.0
 20
1.0
 30
0.0
  9
$PUCSNAME
  2

  9
$PUCSORG
 10
0.0
 20
0.0
 30
0.0
  9
$PUCSXDIR
 10
1.0
 20
0.0
 30
0.0
  9
$PUCSYDIR
 10
0.0
 20
1.0
 30
0.0
  9
$USERI1
 70
     0
  9
$USERI2
 70
     0
  9
$USERI3
 70
     0
  9
$USERI4
 70
     0
  9
$USERI5
 70
     0
  9
$USERR1
 40
0.0
  9
$USERR2
 40
0.0
  9
$USERR3
 40
0.0
  9
$USERR4
 40
0.0
  9
$USERR5
 40
0.0
  9
$WORLDVIEW
 70
     1
  9
$SHADEDGE
 70
     3
  9
$SHADEDIF
 70
    70
  9
$TILEMODE
 70
     1
  9
$MAXACTVP
 70
    64
  9
$PLIMCHECK
 70
     0
  9
$PEXTMIN
 10
1.0000000000000000E+20
 20
1.0000000000000000E+20
 30
1.0000000000000000E+20
  9
$PEXTMAX
 10
-1.0000000000000000E+20
 20
-1.0000000000000000E+20
 30
-1.0000000000000000E+20
  9
$PLIMMIN
 10
0.0
 20
0.0
  9
$PLIMMAX
 10
12.0
 20
9.0
  9
$UNITMODE
 70
     0
  9
$VISRETAIN
 70
     1
  9
$PLINEGEN
 70
     0
  9
$PSLTSCALE
 70
     1
  0
ENDSEC
  0
SECTION
  2
TABLES
  0
TABLE
  2
VPORT
 70
     1
  0
VPORT
  2
*ACTIVE
 70
     0
 10
0.0
 20
0.0
 11
1.0
 21
1.0
 12
0.0
 22
0.0
 13
0.0
 23
0.0
 14
1.0
 24
1.0
 15
0.0
 25
0.0
 16
0.0
 26
0.0
 36
263.4953284196453183
 17
4510.31591796875
 27
590.2572349331904888
 37
0.0
 40
97.087256562971902
 41
2.005224660397074
 42
50.0
 43
0.0
 44
0.0
 50
0.0
 51
0.0
 71
     0
 72
   100
 73
     1
 74
     1
 75
     0
 76
     0
 77
     0
 78
     0
  0
ENDTAB
  0
TABLE
  2
LTYPE
 70
     3
  0
LTYPE
  2
CONTINUOUS
 70
     0
  3
Solid line
 72
    65
 73
     0
 40
0.0
  0
LTYPE
  2
PHANTOM2
 70
     0
  3
___ _ _ ___ _ _ ___ _ _ ___ _ _
 72
    65
 73
     6
 40
1.25
 49
0.625
 49
-0.125
 49
0.125
 49
-0.125
 49
0.125
 49
-0.125
  0
ENDTAB
  0
TABLE
  2
LAYER
 70
     2
  0
LAYER
  2
0
 70
     0
 62
   255
  6
CONTINUOUS
  0
LAYER
  2
DEFPOINTS
 70
     0
 62
     7
  6
CONTINUOUS
  0
ENDTAB
  0
TABLE
  2
STYLE
 70
     1
  0
STYLE
  2
STANDARD
 70
     0
 40
0.0
 41
0.8
 50
0.0
 71
     0
 42
0.2
  3
txt
  4

  0
ENDTAB
  0
TABLE
  2
VIEW
 70
     0
  0
ENDTAB
  0
TABLE
  2
UCS
 70
     0
  0
ENDTAB
  0
TABLE
  2
APPID
 70
     9
  0
APPID
  2
ACAD
 70
     0
  0
APPID
  2
ACAD_MLEADERVER
 70
     0
  0
APPID
  2
ACAD_EXEMPT_FROM_CAD_STANDARDS
 70
     0
  0
APPID
  2
ACAD_NAV_VCDISPLAY
 70
     0
  0
APPID
  2
ACAECLAYERSTANDARD
 70
     0
  0
APPID
  2
ACCMTRANSPARENCY
 70
     0
  0
APPID
  2
ACAD_DSTYLE_DIMJAG
 70
     0
  0
APPID
  2
ACAD_DSTYLE_DIMTALN
 70
     0
  0
APPID
  2
ACDBATTR
 70
     0
  0
ENDTAB
  0
TABLE
  2
DIMSTYLE
 70
     2
  0
DIMSTYLE
  2
STANDARD
 70
     0
  3

  4

  5

  6

  7

 40
1.0
 41
0.1875
 42
0.0625
 43
0.38
 44
0.125
 45
0.0
 46
0.0
 47
0.01
 48
0.01
140
0.15625
141
0.09
142
0.0
143
25.3999999999999986
144
1.0
145
0.0
146
1.0
147
0.09
 71
     1
 72
     0
 73
     1
 74
     1
 75
     0
 76
     0
 77
     0
 78
     4
170
     0
171
     2
172
     0
173
     0
174
     0
175
     0
176
     0
177
     0
178
     0
  0
ENDTAB
  0
ENDSEC
  0
SECTION
  2
BLOCKS
  0
BLOCK
  8
0
  2
$MODEL_SPACE
 70
     0
 10
0.0
 20
0.0
 30
0.0
  3
$MODEL_SPACE
  1

  0
ENDBLK
  5
21
  8
0
  0
BLOCK
 67
     1
  8
0
  2
$PAPER_SPACE
 70
     0
 10
0.0
 20
0.0
 30
0.0
  3
$PAPER_SPACE
  1

  0
ENDBLK
  5
1D
 67
     1
  8
0
  0
BLOCK
  8
0
  2
_FILLED
 70
     0
 10
0.0
 20
0.0
 30
0.0
  3
_FILLED
  1

  0
SOLID
  5
1AED4
  8
0
  6
BYBLOCK
 62
     0
 10
0.0
 20
0.0
 30
0.0
 11
-1.0
 21
0.1666666667
 31
0.0
 12
-1.0
 22
-0.1666666667
 32
0.0
 13
-1.0
 23
-0.1666666667
 33
0.0
  0
ENDBLK
  5
1AED5
  8
0
  6
BYBLOCK
 62
     0
  0
ENDSEC
  0
SECTION
  2
ENTITIES
  0
ATTDEF
  5
3930
  8
DEFPOINTS
 10
4510.3042428955614014
 20
552.0966606215895354
 30
0.0
 40
0.001
  1
71570120
  3

  2
MODELNUMBER
 70
     0
1001
ACDBATTR
1070
     0
1070
     1
  0
ATTDEF
  5
3931
  8
DEFPOINTS
 10
4510.3042428955614014
 20
552.0949939549227565
 30
0.0
 40
0.001
  1
TRAVERSE
  3

  2
TRADENAME
 70
     0
1001
ACDBATTR
1070
     0
1070
     1
  0
ATTDEF
  5
3932
  8
DEFPOINTS
 10
4510.3042428955614014
 20
552.0933272882562051
 30
0.0
 40
0.001
  1
BATH AND WALL SURROUND
  3

  2
PRODUCT
 70
     0
1001
ACDBATTR
1070
     0
1070
     1
  0
LINE
  5
240DF
  8
0
 10
4480.5049121145693789
 20
570.0994283794652802
 30
0.0
 11
4540.1270886564689135
 21
570.0994283794652802
 31
0.0
  0
LINE
  5
240E0
  8
0
 10
4482.1484959232220717
 20
568.0820517302638564
 30
0.0
 11
4538.4835048478171302
 21
568.0820269013302095
 31
0.0
  0
ARC
  5
240E1
  8
0
 10
4538.4748311542853116
 20
568.7143888487368031
 30
0.0
 40
0.6324214302879443
 50
270.7858392992280869
 51
358.1756215621904857
  0
LINE
  5
240E2
  8
0
 10
4540.0967572961390033
 20
570.0994283794652802
 30
0.0
 11
4540.1136216820386835
 21
570.5823612069652881
 31
0.0
  0
LINE
  5
240E3
  8
0
 10
4540.1136216820386835
 20
570.5823612069652881
 30
0.0
 11
4540.2526095159373654
 21
570.5872147690653264
 31
0.0
  0
ARC
  5
240E4
  8
0
 10
4539.2768576244097858
 20
569.9743545188653115
 30
0.0
 40
0.125154397011138
 50
92.0555785455047442
 51
178.6114574736182021
  0
LINE
  5
240E5
  8
0
 10
4539.1517399782969733
 20
569.9773872935946883
 30
0.0
 11
4539.1069320133856309
 21
568.6942550609340969
 31
0.0
  0
ARC
  5
240E6
  8
0
 10
4540.2533707965658323
 20
570.6498383932585057
 30
0.0
 40
0.0626282512552443
 50
269.3035213285232885
 51
359.9501720470768191
  0
ARC
  5
240E7
  8
0
 10
4540.2785020062883632
 20
628.3475972126799434
 30
0.0
 40
0.0625002593878911
 50
93.0027251197434452
 51
179.9999051321256047
  0
CIRCLE
  5
240E8
  8
0
 10
4539.566001746900838
 20
627.9215043794653184
 30
0.0
 40
0.09375
  0
CIRCLE
  5
240E9
  8
0
 10
4538.816001746900838
 20
627.9215043794653184
 30
0.0
 40
0.09375
  0
CIRCLE
  5
240EA
  8
0
 10
4538.066001746900838
 20
627.9215043794653184
 30
0.0
 40
0.09375
  0
CIRCLE
  5
240EB
  8
0
 10
4537.3160017468999285
 20
627.9215043794653184
 30
0.0
 40
0.09375
  0
CIRCLE
  5
240EC
  8
0
 10
4536.5660017468999285
 20
627.9215043794653184
 30
0.0
 40
0.09375
  0
CIRCLE
  5
240ED
  8
0
 10
4535.8160017468999285
 20
627.9215043794653184
 30
0.0
 40
0.09375
  0
CIRCLE
  5
240EE
  8
0
 10
4535.0660017468999285
 20
627.9215043794653184
 30
0.0
 40
0.09375
  0
CIRCLE
  5
240EF
  8
0
 10
4534.3160017468999285
 20
627.9215043794653184
 30
0.0
 40
0.09375
  0
CIRCLE
  5
240F0
  8
0
 10
4533.5660017468999285
 20
627.9215043794653184
 30
0.0
 40
0.09375
  0
CIRCLE
  5
240F1
  8
0
 10
4532.8160017468999285
 20
627.9215043794653184
 30
0.0
 40
0.09375
  0
CIRCLE
  5
240F2
  8
0
 10
4532.0660017468999285
 20
627.9215043794653184
 30
0.0
 40
0.09375
  0
CIRCLE
  5
240F3
  8
0
 10
4531.3160017468999285
 20
627.9215043794653184
 30
0.0
 40
0.09375
  0
CIRCLE
  5
240F4
  8
0
 10
4530.5660017468999285
 20
627.9215043794653184
 30
0.0
 40
0.09375
  0
CIRCLE
  5
240F5
  8
0
 10
4529.8160017468999285
 20
627.9215043794653184
 30
0.0
 40
0.09375
  0
CIRCLE
  5
240F6
  8
0
 10
4529.0660017468999285
 20
627.9215043794653184
 30
0.0
 40
0.09375
  0
CIRCLE
  5
240F7
  8
0
 10
4528.3160017468999285
 20
627.9215043794653184
 30
0.0
 40
0.09375
  0
CIRCLE
  5
240F8
  8
0
 10
4527.5660017468999285
 20
627.9215043794653184
 30
0.0
 40
0.09375
  0
CIRCLE
  5
240F9
  8
0
 10
4526.8160017468999285
 20
627.9215043794653184
 30
0.0
 40
0.09375
  0
CIRCLE
  5
240FA
  8
0
 10
4526.0660017468999285
 20
627.9215043794653184
 30
0.0
 40
0.09375
  0
CIRCLE
  5
240FB
  8
0
 10
4525.3160017468999285
 20
627.9215043794653184
 30
0.0
 40
0.09375
  0
CIRCLE
  5
240FC
  8
0
 10
4524.5660017468999285
 20
627.9215043794653184
 30
0.0
 40
0.09375
  0
CIRCLE
  5
240FD
  8
0
 10
4523.8160017468999285
 20
627.9215043794653184
 30
0.0
 40
0.09375
  0
CIRCLE
  5
240FE
  8
0
 10
4523.0660017468999285
 20
627.9215043794653184
 30
0.0
 40
0.09375
  0
CIRCLE
  5
240FF
  8
0
 10
4522.3160017468999285
 20
627.9215043794653184
 30
0.0
 40
0.09375
  0
CIRCLE
  5
24100
  8
0
 10
4521.566001746900838
 20
627.9215043794653184
 30
0.0
 40
0.09375
  0
CIRCLE
  5
24101
  8
0
 10
4520.816001746900838
 20
627.9215043794653184
 30
0.0
 40
0.09375
  0
CIRCLE
  5
24102
  8
0
 10
4520.066001746900838
 20
627.9215043794653184
 30
0.0
 40
0.09375
  0
CIRCLE
  5
24103
  8
0
 10
4519.316001746900838
 20
627.9215043794653184
 30
0.0
 40
0.09375
  0
CIRCLE
  5
24104
  8
0
 10
4510.3160017470008825
 20
627.9215043794653184
 30
0.0
 40
0.09375
  0
CIRCLE
  5
24105
  8
0
 10
4511.0660017470008825
 20
627.9215043794653184
 30
0.0
 40
0.09375
  0
CIRCLE
  5
24106
  8
0
 10
4511.8160017470008825
 20
627.9215043794653184
 30
0.0
 40
0.09375
  0
CIRCLE
  5
24107
  8
0
 10
4512.5660017470008825
 20
627.9215043794653184
 30
0.0
 40
0.09375
  0
CIRCLE
  5
24108
  8
0
 10
4513.3160017470008825
 20
627.9215043794653184
 30
0.0
 40
0.09375
  0
CIRCLE
  5
24109
  8
0
 10
4514.0660017470008825
 20
627.9215043794653184
 30
0.0
 40
0.09375
  0
CIRCLE
  5
2410A
  8
0
 10
4514.8160017470008825
 20
627.9215043794653184
 30
0.0
 40
0.09375
  0
CIRCLE
  5
2410B
  8
0
 10
4515.5660017470008825
 20
627.9215043794653184
 30
0.0
 40
0.09375
  0
CIRCLE
  5
2410C
  8
0
 10
4516.3160017470008825
 20
627.9215043794653184
 30
0.0
 40
0.09375
  0
CIRCLE
  5
2410D
  8
0
 10
4517.0660017470008825
 20
627.9215043794653184
 30
0.0
 40
0.09375
  0
CIRCLE
  5
2410E
  8
0
 10
4517.8160017470008825
 20
627.9215043794653184
 30
0.0
 40
0.09375
  0
CIRCLE
  5
2410F
  8
0
 10
4518.566001746999973
 20
627.9215043794653184
 30
0.0
 40
0.09375
  0
LINE
  5
24110
  8
0
 10
4480.6359177378380991
 20
628.4211195251652953
 30
0.0
 11
4539.9960830332011028
 21
628.4211195251722302
 31
0.0
  0
ARC
  5
24111
  8
0
 10
4539.7759213948802426
 20
615.1304809494530446
 30
0.0
 40
13.2924619577110192
 50
88.4086282997298554
 51
89.0509726832245718
  0
ARC
  5
24112
  8
0
 10
4540.1379081833192686
 20
628.352945445471164
 30
0.0
 40
0.0652645652224314
 50
73.1601983280698818
 51
83.7019390295574652
  0
ARC
  5
24113
  8
0
 10
4540.1558255928594008
 20
628.4120887973109575
 30
0.0
 40
0.0034667890539801
 50
23.8051489340712301
 51
73.4154948619705863
  0
LINE
  5
24114
  8
0
 10
4540.1589974392836666
 20
628.4134880887736472
 30
0.0
 11
4540.2160017469323066
 21
628.3179684919338115
 31
0.0
  0
ARC
  5
24115
  8
0
 10
4540.1532584610449703
 20
627.2151057577325446
 30
0.0
 40
0.0631070482025065
 50
273.1935825065467043
 51
353.8451755204021083
  0
LINE
  5
24116
  8
0
 10
4540.1567741340613793
 20
627.1520967140472749
 30
0.0
 11
4539.3963833024836276
 21
627.1122358684647224
 31
0.0
  0
ARC
  5
24117
  8
0
 10
4539.409959208042892
 20
626.8544356171368008
 30
0.0
 40
0.2581574612450347
 50
93.0144433970867652
 51
180.0016063375408919
  0
LINE
  5
24118
  8
0
 10
4539.1518017469006736
 20
626.8544283794652756
 30
0.0
 11
4539.1518017469006736
 21
570.2244283794651665
 31
0.0
  0
ARC
  5
24119
  8
0
 10
4539.2769419888918492
 20
570.2244850318929821
 30
0.0
 40
0.1251402548152468
 50
180.0259384569503993
 51
267.9055372812507017
  0
LINE
  5
2411A
  8
0
 10
4481.480201746900093
 20
626.8544283794652756
 30
0.0
 11
4539.1518017469006736
 21
626.8544283794652756
 31
0.0
  0
ARC
  5
2411B
  8
0
 10
4540.5629400306088428
 20
626.4477620538774545
 30
0.0
 40
1.6165649126030699
 50
166.0368440684484028
 51
178.7003171073741896
  0
LINE
  5
2411C
  8
0
 10
4538.94679100378562
 20
626.4844286566060418
 30
0.0
 11
4538.9467910031007705
 21
624.656425879465246
 31
0.0
  0
ARC
  5
2411D
  8
0
 10
4540.5645848096937698
 20
624.6933097986905068
 30
0.0
 40
1.618214208364283
 50
181.3060544878989901
 51
193.9566661938872869
  0
ARC
  5
2411E
  8
0
 10
4528.6580034977178002
 20
626.753046246348049
 30
0.0
 40
0.082590736034968
 50
98.7086293287313197
 51
176.0578882937635115
  0
LINE
  5
2411F
  8
0
 10
4528.6454984595002315
 20
626.834684801565345
 30
0.0
 11
4535.7866083913995681
 21
626.8371673531652277
 31
0.0
  0
ARC
  5
24120
  8
0
 10
4535.7773404403496897
 20
626.7517209843830415
 30
0.0
 40
0.0859475238429649
 50
4.6549835224746277
 51
83.8096064398093432
  0
LINE
  5
24121
  8
0
 10
4535.8630044625997471
 20
626.7586960934653462
 30
0.0
 11
4535.8629953174995535
 21
624.3821274982542491
 31
0.0
  0
ARC
  5
24122
  8
0
 10
4535.7807610063773609
 20
624.3876573637086267
 30
0.0
 40
0.0824200299533133
 50
278.6135839955026086
 51
356.1529236846308208
  0
LINE
  5
24123
  8
0
 10
4535.7931050343995594
 20
624.306166957465166
 30
0.0
 11
4528.6519951095997385
 21
624.3036844057653525
 31
0.0
  0
ARC
  5
24124
  8
0
 10
4528.6612571831274181
 20
624.3891250594720077
 30
0.0
 40
0.0859412084614658
 50
184.6514972331663103
 51
263.8130911929200124
  0
LINE
  5
24125
  8
0
 10
4528.5755990312009089
 20
624.382155674965361
 30
0.0
 11
4528.5756081698009439
 21
626.7587242403653818
 31
0.0
  0
ARC
  5
24126
  8
0
 10
4535.9568666641198433
 20
626.7581977786965126
 30
0.0
 40
0.0796300539901669
 50
89.0823246575048557
 51
183.0096542621280946
  0
LINE
  5
24127
  8
0
 10
4535.9581420008616988
 20
626.8378176192808269
 30
0.0
 11
4538.9941428433003239
 21
626.8378357671058438
 31
0.0
  0
LINE
  5
24128
  8
0
 10
4538.9941428439151423
 20
624.3030159910655357
 30
0.0
 11
4535.9582902445481523
 21
624.3028820136238437
 31
0.0
  0
ARC
  5
24129
  8
0
 10
4535.9570507854414245
 20
624.3827518640332528
 30
0.0
 40
0.0798794670943839
 50
177.0077559573136057
 51
270.8890723521359973
  0
LINE
  5
2412A
  8
0
 10
4535.8772802251987741
 20
624.3869216340652883
 30
0.0
 11
4535.8773464436999348
 21
626.7540168645653011
 31
0.0
  0
LINE
  5
2412B
  8
0
 10
4540.2160017469013837
 20
628.3475973161653201
 30
0.0
 11
4540.2160017481228351
 21
627.2083397057484717
 31
0.0
  0
LINE
  5
2412C
  8
0
 10
4482.4296972464089777
 20
600.6177276629364314
 30
0.0
 11
4538.2023035246293148
 21
600.6177276629364314
 31
0.0
  0
LINE
  5
2412D
  8
0
 10
4481.6729132418386143
 20
599.3341691480859481
 30
0.0
 11
4538.9590875291996781
 21
599.3341689851031333
 31
0.0
  0
LINE
  5
2412E
  8
0
 10
4487.1300602189912752
 20
555.3750836055156697
 30
0.0
 11
4533.5019405520479268
 21
555.3749737464102054
 31
0.0
  0
ARC
  5
2412F
  8
0
 10
4533.3368651134833271
 20
556.6607189007543184
 30
0.0
 40
1.296298770475611
 50
277.3161197993181872
 51
340.0483773679267188
  0
ARC
  5
24130
  8
0
 10
4510.8658830139802376
 20
567.4177952242374658
 30
0.0
 40
26.2033991164724398
 50
334.6971478014273771
 51
357.337768872419872
  0
LINE
  5
24131
  8
0
 10
4483.5909997048293008
 20
566.2007002365655808
 30
0.0
 11
4537.0410010662089917
 21
566.2007002365653534
 31
0.0
  0
LINE
  5
24132
  8
0
 10
4540.3159990241383639
 20
628.4121483794652931
 30
0.0
 11
4540.3159990241383639
 21
570.6497839278653146
 31
0.0
  0
ARC
  5
24133
  8
0
 10
4538.1408978399640546
 20
601.4038781332747021
 30
0.0
 40
0.7885450019640446
 50
274.4662665479622206
 51
356.3564961187468043
  0
ARC
  5
24134
  8
0
 10
4538.5815819077160995
 20
595.5730679886962662
 30
0.0
 40
3.3030006539860381
 50
82.7482021411809257
 51
90.2649259233823358
  0
LINE
  5
24135
  8
0
 10
4484.7616420657686831
 20
627.1614899393653104
 30
0.0
 11
4535.8703587052696093
 21
627.1614899393653104
 31
0.0
  0
ARC
  5
24136
  8
0
 10
4536.2172833899376201
 20
651.0397779301772516
 30
0.0
 40
23.8808080706870207
 50
269.1676152912262978
 51
276.0910459019813175
  0
ARC
  5
24137
  8
0
 10
4539.7800478897943321
 20
622.4064218883163448
 30
0.0
 40
4.9944754107520364
 50
93.0274795116362867
 51
101.8873600629210046
  0
ARC
  5
24138
  8
0
 10
13369.0818534264399204
 20
-167529.5890567720925901
 30
0.0
 40
168388.6342796013050247
 50
93.0055546351913449
 51
93.0057192370183543
  0
ARC
  5
24139
  8
0
 10
4539.9959968371977084
 20
627.4817500190131341
 30
0.0
 40
0.0625483017807696
 50
273.0767498460432989
 51
359.8532436870152083
  0
LINE
  5
2413A
  8
0
 10
4540.0585449337995669
 20
627.4815898091652571
 30
0.0
 11
4540.0585449337995669
 21
628.3516648624653271
 31
0.0
  0
ARC
  5
2413B
  8
0
 10
4540.1293985577231069
 20
628.347995746976494
 30
0.0
 40
0.070948561869014
 50
96.6998139986678353
 51
177.0356178381715893
  0
LINE
  5
2413C
  8
0
 10
4540.2721302431291406
 20
552.0994283794651665
 30
0.0
 11
4540.2721292737387557
 21
569.8994449924500714
 31
0.0
  0
ARC
  5
2413D
  8
0
 10
4540.1997041531712966
 20
569.9189283801265447
 30
0.0
 40
0.0750000032306652
 50
344.9430809952211803
 51
357.9987814878608106
  0
LINE
  5
2413E
  8
0
 10
4540.1730040930797259
 20
570.584434886449003
 30
0.0
 11
4540.1570686244822355
 21
570.1283807571575153
 31
0.0
  0
ARC
  5
2413F
  8
0
 10
4540.127086921852424
 20
570.1294283795012916
 30
0.0
 40
0.0300000000861011
 50
270.0033128757762029
 51
357.9987818373551818
  0
ARC
  5
24140
  8
0
 10
4521.3569034977190313
 20
626.753046246348049
 30
0.0
 40
0.082590736034968
 50
98.7086293287313197
 51
176.0578882937635115
  0
LINE
  5
24141
  8
0
 10
4521.3443984594996436
 20
626.834684801565345
 30
0.0
 11
4528.4855083913998897
 21
626.8371673531652277
 31
0.0
  0
ARC
  5
24142
  8
0
 10
4528.4762404403500113
 20
626.7517209843830415
 30
0.0
 40
0.0859475238429649
 50
4.6549835224746277
 51
83.8096064398093432
  0
LINE
  5
24143
  8
0
 10
4528.5619044626009781
 20
626.7586960934653462
 30
0.0
 11
4528.5618953174998751
 21
624.3821274982542491
 31
0.0
  0
ARC
  5
24144
  8
0
 10
4528.4796610063776825
 20
624.3876573637086267
 30
0.0
 40
0.0824200299533133
 50
278.6135839955026086
 51
356.1529236846308208
  0
LINE
  5
24145
  8
0
 10
4528.492005034399881
 20
624.306166957465166
 30
0.0
 11
4521.3508951096009696
 21
624.3036844057653525
 31
0.0
  0
ARC
  5
24146
  8
0
 10
4521.3601571831268302
 20
624.3891250594720077
 30
0.0
 40
0.0859412084614658
 50
184.6514972331663103
 51
263.8130911929200124
  0
LINE
  5
24147
  8
0
 10
4521.274499031200321
 20
624.382155674965361
 30
0.0
 11
4521.274508169800356
 21
626.7587242403653818
 31
0.0
  0
ARC
  5
24148
  8
0
 10
4514.0558034977184434
 20
626.753046246348049
 30
0.0
 40
0.082590736034968
 50
98.7086293287313197
 51
176.0578882937635115
  0
LINE
  5
24149
  8
0
 10
4514.0432984594999652
 20
626.834684801565345
 30
0.0
 11
4521.1844083914002113
 21
626.8371673531652277
 31
0.0
  0
ARC
  5
2414A
  8
0
 10
4521.1751404403512424
 20
626.7517209843830415
 30
0.0
 40
0.0859475238429649
 50
4.6549835224746277
 51
83.8096064398093432
  0
LINE
  5
2414B
  8
0
 10
4521.2608044626003903
 20
626.7586960934653462
 30
0.0
 11
4521.2607953175011062
 21
624.3821274982542491
 31
0.0
  0
ARC
  5
2414C
  8
0
 10
4521.1785610063789136
 20
624.3876573637086267
 30
0.0
 40
0.0824200299533133
 50
278.6135839955026086
 51
356.1529236846308208
  0
LINE
  5
2414D
  8
0
 10
4521.1909050344011121
 20
624.306166957465166
 30
0.0
 11
4514.0497951096003817
 21
624.3036844057653525
 31
0.0
  0
ARC
  5
2414E
  8
0
 10
4514.0590571831280613
 20
624.3891250594720077
 30
0.0
 40
0.0859412084614658
 50
184.6514972331663103
 51
263.8130911929200124
  0
LINE
  5
2414F
  8
0
 10
4513.9733990311997331
 20
624.382155674965361
 30
0.0
 11
4513.9734081698006776
 21
626.7587242403653818
 31
0.0
  0
ARC
  5
24150
  8
0
 10
4510.4052534977190589
 20
624.2049962463480597
 30
0.0
 40
0.082590736034968
 50
98.7086293287313197
 51
176.0578882937635115
  0
LINE
  5
24151
  8
0
 10
4510.3927484595005808
 20
624.2866348015653557
 30
0.0
 11
4517.5338583914008268
 21
624.2891173531652385
 31
0.0
  0
ARC
  5
24152
  8
0
 10
4517.5245904403509485
 20
624.2036709843830522
 30
0.0
 40
0.0859475238429649
 50
4.6549835224746277
 51
83.8096064398093432
  0
LINE
  5
24153
  8
0
 10
4517.6102544626000963
 20
624.2106460934652432
 30
0.0
 11
4517.6102453175008122
 21
621.8340774982542598
 31
0.0
  0
ARC
  5
24154
  8
0
 10
4517.5280110063786196
 20
621.8396073637086374
 30
0.0
 40
0.0824200299533133
 50
278.6135839955026086
 51
356.1529236846308208
  0
LINE
  5
24155
  8
0
 10
4517.5403550344008181
 20
621.7581169574652904
 30
0.0
 11
4510.3992451096000877
 21
621.7556344057652495
 31
0.0
  0
ARC
  5
24156
  8
0
 10
4510.4085071831268579
 20
621.8410750594720184
 30
0.0
 40
0.0859412084614658
 50
184.6514972331663103
 51
263.8130911929200124
  0
LINE
  5
24157
  8
0
 10
4510.3228490312003487
 20
621.834105674965258
 30
0.0
 11
4510.3228581698003836
 21
624.2106742403651651
 31
0.0
  0
ARC
  5
24158
  8
0
 10
4517.7063534977178278
 20
624.2049962463480597
 30
0.0
 40
0.082590736034968
 50
98.7086293287313197
 51
176.0578882937635115
  0
LINE
  5
24159
  8
0
 10
4517.6938484595002592
 20
624.2866348015653557
 30
0.0
 11
4524.8349583914014147
 21
624.2891173531652385
 31
0.0
  0
ARC
  5
2415A
  8
0
 10
4524.8256904403497174
 20
624.2036709843830522
 30
0.0
 40
0.0859475238429649
 50
4.6549835224746277
 51
83.8096064398093432
  0
LINE
  5
2415B
  8
0
 10
4524.9113544625997747
 20
624.2106460934652432
 30
0.0
 11
4524.9113453175014001
 21
621.8340774982542598
 31
0.0
  0
ARC
  5
2415C
  8
0
 10
4524.829111006378298
 20
621.8396073637086374
 30
0.0
 40
0.0824200299533133
 50
278.6135839955026086
 51
356.1529236846308208
  0
LINE
  5
2415D
  8
0
 10
4524.841455034399587
 20
621.7581169574652904
 30
0.0
 11
4517.7003451095997661
 21
621.7556344057652495
 31
0.0
  0
ARC
  5
2415E
  8
0
 10
4517.7096071831274458
 20
621.8410750594720184
 30
0.0
 40
0.0859412084614658
 50
184.6514972331663103
 51
263.8130911929200124
  0
LINE
  5
2415F
  8
0
 10
4517.6239490312000271
 20
621.834105674965258
 30
0.0
 11
4517.6239581698009715
 21
624.2106742403651651
 31
0.0
  0
ARC
  5
24160
  8
0
 10
4525.0074534977184157
 20
624.2049962463480597
 30
0.0
 40
0.082590736034968
 50
98.7086293287313197
 51
176.0578882937635115
  0
LINE
  5
24161
  8
0
 10
4524.9949484594990281
 20
624.2866348015653557
 30
0.0
 11
4532.1360583914001836
 21
624.2891173531652385
 31
0.0
  0
ARC
  5
24162
  8
0
 10
4532.1267904403512148
 20
624.2036709843830522
 30
0.0
 40
0.0859475238429649
 50
4.6549835224746277
 51
83.8096064398093432
  0
LINE
  5
24163
  8
0
 10
4532.2124544626012721
 20
624.2106460934652432
 30
0.0
 11
4532.2124453175010785
 21
621.8340774982542598
 31
0.0
  0
ARC
  5
24164
  8
0
 10
4532.1302110063788859
 20
621.8396073637086374
 30
0.0
 40
0.0824200299533133
 50
278.6135839955026086
 51
356.1529236846308208
  0
LINE
  5
24165
  8
0
 10
4532.1425550344001749
 20
621.7581169574652904
 30
0.0
 11
4525.0014451096012635
 21
621.7556344057652495
 31
0.0
  0
ARC
  5
24166
  8
0
 10
4525.0107071831271242
 20
621.8410750594720184
 30
0.0
 40
0.0859412084614658
 50
184.6514972331663103
 51
263.8130911929200124
  0
LINE
  5
24167
  8
0
 10
4524.9250490311997055
 20
621.834105674965258
 30
0.0
 11
4524.9250581698006499
 21
624.2106742403651651
 31
0.0
  0
ARC
  5
24168
  8
0
 10
4514.0558034977184434
 20
621.6569462463479567
 30
0.0
 40
0.082590736034968
 50
98.7086293287313197
 51
176.0578882937635115
  0
LINE
  5
24169
  8
0
 10
4514.0432984594999652
 20
621.7385848015652527
 30
0.0
 11
4521.1844083914002113
 21
621.7410673531652492
 31
0.0
  0
ARC
  5
2416A
  8
0
 10
4521.1751404403512424
 20
621.6556209843829492
 30
0.0
 40
0.0859475238429649
 50
4.6549835224746277
 51
83.8096064398093432
  0
LINE
  5
2416B
  8
0
 10
4521.2608044626003903
 20
621.6625960934653676
 30
0.0
 11
4521.2607953175011062
 21
619.2860274982542705
 31
0.0
  0
ARC
  5
2416C
  8
0
 10
4521.1785610063789136
 20
619.2915573637086482
 30
0.0
 40
0.0824200299533133
 50
278.6135839955026086
 51
356.1529236846308208
  0
LINE
  5
2416D
  8
0
 10
4521.1909050344011121
 20
619.2100669574653011
 30
0.0
 11
4514.0497951096003817
 21
619.2075844057652603
 31
0.0
  0
ARC
  5
2416E
  8
0
 10
4514.0590571831280613
 20
619.2930250594720292
 30
0.0
 40
0.0859412084614658
 50
184.6514972331663103
 51
263.8130911929200124
  0
LINE
  5
2416F
  8
0
 10
4513.9733990311997331
 20
619.2860556749652687
 30
0.0
 11
4513.9734081698006776
 21
621.6626242403652896
 31
0.0
  0
ARC
  5
24170
  8
0
 10
4521.3569034977190313
 20
621.6569462463479567
 30
0.0
 40
0.082590736034968
 50
98.7086293287313197
 51
176.0578882937635115
  0
LINE
  5
24171
  8
0
 10
4521.3443984594996436
 20
621.7385848015652527
 30
0.0
 11
4528.4855083913998897
 21
621.7410673531652492
 31
0.0
  0
ARC
  5
24172
  8
0
 10
4528.4762404403500113
 20
621.6556209843829492
 30
0.0
 40
0.0859475238429649
 50
4.6549835224746277
 51
83.8096064398093432
  0
LINE
  5
24173
  8
0
 10
4528.5619044626009781
 20
621.6625960934653676
 30
0.0
 11
4528.5618953174998751
 21
619.2860274982542705
 31
0.0
  0
ARC
  5
24174
  8
0
 10
4528.4796610063776825
 20
619.2915573637086482
 30
0.0
 40
0.0824200299533133
 50
278.6135839955026086
 51
356.1529236846308208
  0
LINE
  5
24175
  8
0
 10
4528.492005034399881
 20
619.2100669574653011
 30
0.0
 11
4521.3508951096009696
 21
619.2075844057652603
 31
0.0
  0
ARC
  5
24176
  8
0
 10
4521.3601571831268302
 20
619.2930250594720292
 30
0.0
 40
0.0859412084614658
 50
184.6514972331663103
 51
263.8130911929200124
  0
LINE
  5
24177
  8
0
 10
4521.274499031200321
 20
619.2860556749652687
 30
0.0
 11
4521.274508169800356
 21
621.6626242403652896
 31
0.0
  0
ARC
  5
24178
  8
0
 10
4528.6580034977178002
 20
621.6569462463479567
 30
0.0
 40
0.082590736034968
 50
98.7086293287313197
 51
176.0578882937635115
  0
LINE
  5
24179
  8
0
 10
4528.6454984595002315
 20
621.7385848015652527
 30
0.0
 11
4535.7866083913995681
 21
621.7410673531652492
 31
0.0
  0
ARC
  5
2417A
  8
0
 10
4535.7773404403496897
 20
621.6556209843829492
 30
0.0
 40
0.0859475238429649
 50
4.6549835224746277
 51
83.8096064398093432
  0
LINE
  5
2417B
  8
0
 10
4535.8630044625997471
 20
621.6625960934653676
 30
0.0
 11
4535.8629953175013725
 21
619.2860274982542705
 31
0.0
  0
ARC
  5
2417C
  8
0
 10
4535.7807610063773609
 20
619.2915573637086482
 30
0.0
 40
0.0824200299533133
 50
278.6135839955026086
 51
356.1529236846308208
  0
LINE
  5
2417D
  8
0
 10
4535.7931050343995594
 20
619.2100669574653011
 30
0.0
 11
4528.6519951095997385
 21
619.2075844057652603
 31
0.0
  0
ARC
  5
2417E
  8
0
 10
4528.6612571831274181
 20
619.2930250594720292
 30
0.0
 40
0.0859412084614658
 50
184.6514972331663103
 51
263.8130911929200124
  0
LINE
  5
2417F
  8
0
 10
4528.5755990312009089
 20
619.2860556749652687
 30
0.0
 11
4528.5756081698009439
 21
621.6626242403652896
 31
0.0
  0
ARC
  5
24180
  8
0
 10
4525.0074534977184157
 20
619.1088962463480811
 30
0.0
 40
0.082590736034968
 50
98.7086293287313197
 51
176.0578882937635115
  0
LINE
  5
24181
  8
0
 10
4524.9949484594990281
 20
619.1905348015652635
 30
0.0
 11
4532.1360583914001836
 21
619.1930173531651462
 31
0.0
  0
ARC
  5
24182
  8
0
 10
4532.1267904403512148
 20
619.10757098438296
 30
0.0
 40
0.0859475238429649
 50
4.6549835224746277
 51
83.8096064398093432
  0
LINE
  5
24183
  8
0
 10
4532.2124544626012721
 20
619.1145460934652647
 30
0.0
 11
4532.2124453175010785
 21
616.737977498254395
 31
0.0
  0
ARC
  5
24184
  8
0
 10
4532.1302110063788859
 20
616.7435073637085452
 30
0.0
 40
0.0824200299533133
 50
278.6135839955026086
 51
356.1529236846308208
  0
LINE
  5
24185
  8
0
 10
4532.1425550344001749
 20
616.6620169574651982
 30
0.0
 11
4525.0014451096012635
 21
616.6595344057653847
 31
0.0
  0
ARC
  5
24186
  8
0
 10
4525.0107071831271242
 20
616.7449750594719262
 30
0.0
 40
0.0859412084614658
 50
184.6514972331663103
 51
263.8130911929200124
  0
LINE
  5
24187
  8
0
 10
4524.9250490311997055
 20
616.7380056749651658
 30
0.0
 11
4524.9250581698006499
 21
619.1145742403651866
 31
0.0
  0
ARC
  5
24188
  8
0
 10
4517.7063534977178278
 20
619.1088962463480811
 30
0.0
 40
0.082590736034968
 50
98.7086293287313197
 51
176.0578882937635115
  0
LINE
  5
24189
  8
0
 10
4517.6938484595002592
 20
619.1905348015652635
 30
0.0
 11
4524.8349583914014147
 21
619.1930173531651462
 31
0.0
  0
ARC
  5
2418A
  8
0
 10
4524.8256904403497174
 20
619.10757098438296
 30
0.0
 40
0.0859475238429649
 50
4.6549835224746277
 51
83.8096064398093432
  0
LINE
  5
2418B
  8
0
 10
4524.9113544625997747
 20
619.1145460934652647
 30
0.0
 11
4524.9113453175014001
 21
616.737977498254395
 31
0.0
  0
ARC
  5
2418C
  8
0
 10
4524.829111006378298
 20
616.7435073637085452
 30
0.0
 40
0.0824200299533133
 50
278.6135839955026086
 51
356.1529236846308208
  0
LINE
  5
2418D
  8
0
 10
4524.841455034399587
 20
616.6620169574651982
 30
0.0
 11
4517.7003451095997661
 21
616.6595344057653847
 31
0.0
  0
ARC
  5
2418E
  8
0
 10
4517.7096071831274458
 20
616.7449750594719262
 30
0.0
 40
0.0859412084614658
 50
184.6514972331663103
 51
263.8130911929200124
  0
LINE
  5
2418F
  8
0
 10
4517.6239490312000271
 20
616.7380056749651658
 30
0.0
 11
4517.6239581698009715
 21
619.1145742403651866
 31
0.0
  0
ARC
  5
24190
  8
0
 10
4510.4052534977190589
 20
619.1088962463480811
 30
0.0
 40
0.082590736034968
 50
98.7086293287313197
 51
176.0578882937635115
  0
LINE
  5
24191
  8
0
 10
4510.3927484595005808
 20
619.1905348015652635
 30
0.0
 11
4517.5338583914008268
 21
619.1930173531651462
 31
0.0
  0
ARC
  5
24192
  8
0
 10
4517.5245904403509485
 20
619.10757098438296
 30
0.0
 40
0.0859475238429649
 50
4.6549835224746277
 51
83.8096064398093432
  0
LINE
  5
24193
  8
0
 10
4517.6102544626000963
 20
619.1145460934652647
 30
0.0
 11
4517.6102453175008122
 21
616.737977498254395
 31
0.0
  0
ARC
  5
24194
  8
0
 10
4517.5280110063786196
 20
616.7435073637085452
 30
0.0
 40
0.0824200299533133
 50
278.6135839955026086
 51
356.1529236846308208
  0
LINE
  5
24195
  8
0
 10
4517.5403550344008181
 20
616.6620169574651982
 30
0.0
 11
4510.3992451096000877
 21
616.6595344057653847
 31
0.0
  0
ARC
  5
24196
  8
0
 10
4510.4085071831268579
 20
616.7449750594719262
 30
0.0
 40
0.0859412084614658
 50
184.6514972331663103
 51
263.8130911929200124
  0
LINE
  5
24197
  8
0
 10
4510.3228490312003487
 20
616.7380056749651658
 30
0.0
 11
4510.3228581698003836
 21
619.1145742403651866
 31
0.0
  0
ARC
  5
24198
  8
0
 10
4514.0558034977184434
 20
616.5608462463480919
 30
0.0
 40
0.082590736034968
 50
98.7086293287313197
 51
176.0578882937635115
  0
LINE
  5
24199
  8
0
 10
4514.0432984594999652
 20
616.6424848015651605
 30
0.0
 11
4521.1844083914002113
 21
616.644967353165157
 31
0.0
  0
ARC
  5
2419A
  8
0
 10
4521.1751404403512424
 20
616.5595209843829707
 30
0.0
 40
0.0859475238429649
 50
4.6549835224746277
 51
83.8096064398093432
  0
LINE
  5
2419B
  8
0
 10
4521.2608044626003903
 20
616.5664960934653891
 30
0.0
 11
4521.2607953175011062
 21
614.189927498254292
 31
0.0
  0
ARC
  5
2419C
  8
0
 10
4521.1785610063789136
 20
614.1954573637085559
 30
0.0
 40
0.0824200299533133
 50
278.6135839955026086
 51
356.1529236846308208
  0
LINE
  5
2419D
  8
0
 10
4521.1909050344011121
 20
614.1139669574652089
 30
0.0
 11
4514.0497951096003817
 21
614.1114844057652817
 31
0.0
  0
ARC
  5
2419E
  8
0
 10
4514.0590571831280613
 20
614.1969250594719369
 30
0.0
 40
0.0859412084614658
 50
184.6514972331663103
 51
263.8130911929200124
  0
LINE
  5
2419F
  8
0
 10
4513.9733990311997331
 20
614.1899556749652902
 30
0.0
 11
4513.9734081698006776
 21
616.566524240365311
 31
0.0
  0
ARC
  5
241A0
  8
0
 10
4521.3569034977190313
 20
616.5608462463480919
 30
0.0
 40
0.082590736034968
 50
98.7086293287313197
 51
176.0578882937635115
  0
LINE
  5
241A1
  8
0
 10
4521.3443984594996436
 20
616.6424848015651605
 30
0.0
 11
4528.4855083913998897
 21
616.644967353165157
 31
0.0
  0
ARC
  5
241A2
  8
0
 10
4528.4762404403500113
 20
616.5595209843829707
 30
0.0
 40
0.0859475238429649
 50
4.6549835224746277
 51
83.8096064398093432
  0
LINE
  5
241A3
  8
0
 10
4528.5619044626009781
 20
616.5664960934653891
 30
0.0
 11
4528.5618953174998751
 21
614.189927498254292
 31
0.0
  0
ARC
  5
241A4
  8
0
 10
4528.4796610063776825
 20
614.1954573637085559
 30
0.0
 40
0.0824200299533133
 50
278.6135839955026086
 51
356.1529236846308208
  0
LINE
  5
241A5
  8
0
 10
4528.492005034399881
 20
614.1139669574652089
 30
0.0
 11
4521.3508951096009696
 21
614.1114844057652817
 31
0.0
  0
ARC
  5
241A6
  8
0
 10
4521.3601571831268302
 20
614.1969250594719369
 30
0.0
 40
0.0859412084614658
 50
184.6514972331663103
 51
263.8130911929200124
  0
LINE
  5
241A7
  8
0
 10
4521.274499031200321
 20
614.1899556749652902
 30
0.0
 11
4521.274508169800356
 21
616.566524240365311
 31
0.0
  0
ARC
  5
241A8
  8
0
 10
4528.6580034977178002
 20
616.5608462463480919
 30
0.0
 40
0.082590736034968
 50
98.7086293287313197
 51
176.0578882937635115
  0
LINE
  5
241A9
  8
0
 10
4528.6454984595002315
 20
616.6424848015651605
 30
0.0
 11
4535.7866083913995681
 21
616.644967353165157
 31
0.0
  0
ARC
  5
241AA
  8
0
 10
4535.7773404403496897
 20
616.5595209843829707
 30
0.0
 40
0.0859475238429649
 50
4.6549835224746277
 51
83.8096064398093432
  0
LINE
  5
241AB
  8
0
 10
4535.8630044625997471
 20
616.5664960934653891
 30
0.0
 11
4535.8629953175013725
 21
614.189927498254292
 31
0.0
  0
ARC
  5
241AC
  8
0
 10
4535.7807610063773609
 20
614.1954573637085559
 30
0.0
 40
0.0824200299533133
 50
278.6135839955026086
 51
356.1529236846308208
  0
LINE
  5
241AD
  8
0
 10
4535.7931050343995594
 20
614.1139669574652089
 30
0.0
 11
4528.6519951095997385
 21
614.1114844057652817
 31
0.0
  0
ARC
  5
241AE
  8
0
 10
4528.6612571831274181
 20
614.1969250594719369
 30
0.0
 40
0.0859412084614658
 50
184.6514972331663103
 51
263.8130911929200124
  0
LINE
  5
241AF
  8
0
 10
4528.5755990312009089
 20
614.1899556749652902
 30
0.0
 11
4528.5756081698009439
 21
616.566524240365311
 31
0.0
  0
ARC
  5
241B0
  8
0
 10
4525.0074534977184157
 20
614.0127962463481026
 30
0.0
 40
0.082590736034968
 50
98.7086293287313197
 51
176.0578882937635115
  0
LINE
  5
241B1
  8
0
 10
4524.9949484594990281
 20
614.0944348015651713
 30
0.0
 11
4532.1360583914001836
 21
614.0969173531652814
 31
0.0
  0
ARC
  5
241B2
  8
0
 10
4532.1267904403512148
 20
614.0114709843830951
 30
0.0
 40
0.0859475238429649
 50
4.6549835224746277
 51
83.8096064398093432
  0
LINE
  5
241B3
  8
0
 10
4532.2124544626012721
 20
614.0184460934651725
 30
0.0
 11
4532.2124453175010785
 21
611.6418774982544164
 31
0.0
  0
ARC
  5
241B4
  8
0
 10
4532.1302110063788859
 20
611.6474073637085667
 30
0.0
 40
0.0824200299533133
 50
278.6135839955026086
 51
356.1529236846308208
  0
LINE
  5
241B5
  8
0
 10
4532.1425550344001749
 20
611.5659169574652196
 30
0.0
 11
4525.0014451096012635
 21
611.5634344057652925
 31
0.0
  0
ARC
  5
241B6
  8
0
 10
4525.0107071831271242
 20
611.6488750594719477
 30
0.0
 40
0.0859412084614658
 50
184.6514972331663103
 51
263.8130911929200124
  0
LINE
  5
241B7
  8
0
 10
4524.9250490311997055
 20
611.6419056749653009
 30
0.0
 11
4524.9250581698006499
 21
614.0184742403653217
 31
0.0
  0
ARC
  5
241B8
  8
0
 10
4517.7063534977178278
 20
614.0127962463481026
 30
0.0
 40
0.082590736034968
 50
98.7086293287313197
 51
176.0578882937635115
  0
LINE
  5
241B9
  8
0
 10
4517.6938484595002592
 20
614.0944348015651713
 30
0.0
 11
4524.8349583914014147
 21
614.0969173531652814
 31
0.0
  0
ARC
  5
241BA
  8
0
 10
4524.8256904403497174
 20
614.0114709843830951
 30
0.0
 40
0.0859475238429649
 50
4.6549835224746277
 51
83.8096064398093432
  0
LINE
  5
241BB
  8
0
 10
4524.9113544625997747
 20
614.0184460934651725
 30
0.0
 11
4524.9113453175014001
 21
611.6418774982544164
 31
0.0
  0
ARC
  5
241BC
  8
0
 10
4524.829111006378298
 20
611.6474073637085667
 30
0.0
 40
0.0824200299533133
 50
278.6135839955026086
 51
356.1529236846308208
  0
LINE
  5
241BD
  8
0
 10
4524.841455034399587
 20
611.5659169574652196
 30
0.0
 11
4517.7003451095997661
 21
611.5634344057652925
 31
0.0
  0
ARC
  5
241BE
  8
0
 10
4517.7096071831274458
 20
611.6488750594719477
 30
0.0
 40
0.0859412084614658
 50
184.6514972331663103
 51
263.8130911929200124
  0
LINE
  5
241BF
  8
0
 10
4517.6239490312000271
 20
611.6419056749653009
 30
0.0
 11
4517.6239581698009715
 21
614.0184742403653217
 31
0.0
  0
ARC
  5
241C0
  8
0
 10
4510.4052534977190589
 20
614.0127962463481026
 30
0.0
 40
0.082590736034968
 50
98.7086293287313197
 51
176.0578882937635115
  0
LINE
  5
241C1
  8
0
 10
4510.3927484595005808
 20
614.0944348015651713
 30
0.0
 11
4517.5338583914008268
 21
614.0969173531652814
 31
0.0
  0
ARC
  5
241C2
  8
0
 10
4517.5245904403509485
 20
614.0114709843830951
 30
0.0
 40
0.0859475238429649
 50
4.6549835224746277
 51
83.8096064398093432
  0
LINE
  5
241C3
  8
0
 10
4517.6102544626000963
 20
614.0184460934651725
 30
0.0
 11
4517.6102453175008122
 21
611.6418774982544164
 31
0.0
  0
ARC
  5
241C4
  8
0
 10
4517.5280110063786196
 20
611.6474073637085667
 30
0.0
 40
0.0824200299533133
 50
278.6135839955026086
 51
356.1529236846308208
  0
LINE
  5
241C5
  8
0
 10
4517.5403550344008181
 20
611.5659169574652196
 30
0.0
 11
4510.3992451096000877
 21
611.5634344057652925
 31
0.0
  0
ARC
  5
241C6
  8
0
 10
4510.4085071831268579
 20
611.6488750594719477
 30
0.0
 40
0.0859412084614658
 50
184.6514972331663103
 51
263.8130911929200124
  0
LINE
  5
241C7
  8
0
 10
4510.3228490312003487
 20
611.6419056749653009
 30
0.0
 11
4510.3228581698003836
 21
614.0184742403653217
 31
0.0
  0
ARC
  5
241C8
  8
0
 10
4514.0558034977184434
 20
611.4647462463481133
 30
0.0
 40
0.082590736034968
 50
98.7086293287313197
 51
176.0578882937635115
  0
LINE
  5
241C9
  8
0
 10
4514.0432984594999652
 20
611.5463848015652957
 30
0.0
 11
4521.1844083914002113
 21
611.5488673531651784
 31
0.0
  0
ARC
  5
241CA
  8
0
 10
4521.1751404403512424
 20
611.4634209843829922
 30
0.0
 40
0.0859475238429649
 50
4.6549835224746277
 51
83.8096064398093432
  0
LINE
  5
241CB
  8
0
 10
4521.2608044626003903
 20
611.4703960934652969
 30
0.0
 11
4521.2607953175011062
 21
609.0938274982544272
 31
0.0
  0
ARC
  5
241CC
  8
0
 10
4521.1785610063789136
 20
609.0993573637086911
 30
0.0
 40
0.0824200299533133
 50
278.6135839955026086
 51
356.1529236846308208
  0
LINE
  5
241CD
  8
0
 10
4521.1909050344011121
 20
609.0178669574652304
 30
0.0
 11
4514.0497951096003817
 21
609.0153844057653032
 31
0.0
  0
ARC
  5
241CE
  8
0
 10
4514.0590571831280613
 20
609.1008250594718447
 30
0.0
 40
0.0859412084614658
 50
184.6514972331663103
 51
263.8130911929200124
  0
LINE
  5
241CF
  8
0
 10
4513.9733990311997331
 20
609.0938556749653117
 30
0.0
 11
4513.9734081698006776
 21
611.4704242403653325
 31
0.0
  0
ARC
  5
241D0
  8
0
 10
4521.3569034977190313
 20
611.4647462463481133
 30
0.0
 40
0.082590736034968
 50
98.7086293287313197
 51
176.0578882937635115
  0
LINE
  5
241D1
  8
0
 10
4521.3443984594996436
 20
611.5463848015652957
 30
0.0
 11
4528.4855083913998897
 21
611.5488673531651784
 31
0.0
  0
ARC
  5
241D2
  8
0
 10
4528.4762404403500113
 20
611.4634209843829922
 30
0.0
 40
0.0859475238429649
 50
4.6549835224746277
 51
83.8096064398093432
  0
LINE
  5
241D3
  8
0
 10
4528.5619044626009781
 20
611.4703960934652969
 30
0.0
 11
4528.5618953174998751
 21
609.0938274982544272
 31
0.0
  0
ARC
  5
241D4
  8
0
 10
4528.4796610063776825
 20
609.0993573637086911
 30
0.0
 40
0.0824200299533133
 50
278.6135839955026086
 51
356.1529236846308208
  0
LINE
  5
241D5
  8
0
 10
4528.492005034399881
 20
609.0178669574652304
 30
0.0
 11
4521.3508951096009696
 21
609.0153844057653032
 31
0.0
  0
ARC
  5
241D6
  8
0
 10
4521.3601571831268302
 20
609.1008250594718447
 30
0.0
 40
0.0859412084614658
 50
184.6514972331663103
 51
263.8130911929200124
  0
LINE
  5
241D7
  8
0
 10
4521.274499031200321
 20
609.0938556749653117
 30
0.0
 11
4521.274508169800356
 21
611.4704242403653325
 31
0.0
  0
ARC
  5
241D8
  8
0
 10
4528.6580034977178002
 20
611.4647462463481133
 30
0.0
 40
0.082590736034968
 50
98.7086293287313197
 51
176.0578882937635115
  0
LINE
  5
241D9
  8
0
 10
4528.6454984595002315
 20
611.5463848015652957
 30
0.0
 11
4535.7866083913995681
 21
611.5488673531651784
 31
0.0
  0
ARC
  5
241DA
  8
0
 10
4535.7773404403496897
 20
611.4634209843829922
 30
0.0
 40
0.0859475238429649
 50
4.6549835224746277
 51
83.8096064398093432
  0
LINE
  5
241DB
  8
0
 10
4535.8630044625997471
 20
611.4703960934652969
 30
0.0
 11
4535.8629953175013725
 21
609.0938274982544272
 31
0.0
  0
ARC
  5
241DC
  8
0
 10
4535.7807610063773609
 20
609.0993573637086911
 30
0.0
 40
0.0824200299533133
 50
278.6135839955026086
 51
356.1529236846308208
  0
LINE
  5
241DD
  8
0
 10
4535.7931050343995594
 20
609.0178669574652304
 30
0.0
 11
4528.6519951095997385
 21
609.0153844057653032
 31
0.0
  0
ARC
  5
241DE
  8
0
 10
4528.6612571831274181
 20
609.1008250594718447
 30
0.0
 40
0.0859412084614658
 50
184.6514972331663103
 51
263.8130911929200124
  0
LINE
  5
241DF
  8
0
 10
4528.5755990312009089
 20
609.0938556749653117
 30
0.0
 11
4528.5756081698009439
 21
611.4704242403653325
 31
0.0
  0
ARC
  5
241E0
  8
0
 10
4525.0077775899953849
 20
608.9166304018931442
 30
0.0
 40
0.082590736034968
 50
98.7086293287313197
 51
176.0578882937635115
  0
LINE
  5
241E1
  8
0
 10
4524.9952725517769068
 20
608.9982689571103265
 30
0.0
 11
4532.1363824836771528
 21
609.0007515087103229
 31
0.0
  0
ARC
  5
241E2
  8
0
 10
4532.127114532626365
 20
608.9153051399279093
 30
0.0
 40
0.0859475238429649
 50
4.6549835224746277
 51
83.8096064398093432
  0
LINE
  5
241E3
  8
0
 10
4532.2127785548773318
 20
608.9222802490103277
 30
0.0
 11
4532.2127694097771382
 21
606.5457116537993443
 31
0.0
  0
ARC
  5
241E4
  8
0
 10
4532.1305350986540361
 20
606.5512415192537219
 30
0.0
 40
0.0824200299533133
 50
278.6135839955026086
 51
356.1529236846308208
  0
LINE
  5
241E5
  8
0
 10
4532.1428791266771441
 20
606.4697511130101475
 30
0.0
 11
4525.0017692018773232
 21
606.467268561310334
 31
0.0
  0
ARC
  5
241E6
  8
0
 10
4525.0110312754031838
 20
606.5527092150168755
 30
0.0
 40
0.0859412084614658
 50
184.6514972331663103
 51
263.8130911929200124
  0
LINE
  5
241E7
  8
0
 10
4524.9253731234757652
 20
606.5457398305103425
 30
0.0
 11
4524.9253822620758001
 21
608.9223083959103633
 31
0.0
  0
ARC
  5
241E8
  8
0
 10
4517.7063534977178278
 20
608.9166962463480104
 30
0.0
 40
0.082590736034968
 50
98.7086293287313197
 51
176.0578882937635115
  0
LINE
  5
241E9
  8
0
 10
4517.6938484595002592
 20
608.9983348015651927
 30
0.0
 11
4524.8349583914014147
 21
609.0008173531653028
 31
0.0
  0
ARC
  5
241EA
  8
0
 10
4524.8256904403497174
 20
608.9153709843830029
 30
0.0
 40
0.0859475238429649
 50
4.6549835224746277
 51
83.8096064398093432
  0
LINE
  5
241EB
  8
0
 10
4524.9113544625997747
 20
608.9223460934653076
 30
0.0
 11
4524.9113453175014001
 21
606.5457774982544379
 31
0.0
  0
ARC
  5
241EC
  8
0
 10
4524.829111006378298
 20
606.5513073637085881
 30
0.0
 40
0.0824200299533133
 50
278.6135839955026086
 51
356.1529236846308208
  0
LINE
  5
241ED
  8
0
 10
4524.841455034399587
 20
606.4698169574652411
 30
0.0
 11
4517.7003451095997661
 21
606.4673344057653139
 31
0.0
  0
ARC
  5
241EE
  8
0
 10
4517.7096071831274458
 20
606.5527750594719691
 30
0.0
 40
0.0859412084614658
 50
184.6514972331663103
 51
263.8130911929200124
  0
LINE
  5
241EF
  8
0
 10
4517.6239490312000271
 20
606.5458056749653224
 30
0.0
 11
4517.6239581698009715
 21
608.9223742403653432
 31
0.0
  0
ARC
  5
241F0
  8
0
 10
4510.4052534977190589
 20
608.9166962463480104
 30
0.0
 40
0.082590736034968
 50
98.7086293287313197
 51
176.0578882937635115
  0
LINE
  5
241F1
  8
0
 10
4510.3927484595005808
 20
608.9983348015651927
 30
0.0
 11
4517.5338583914008268
 21
609.0008173531653028
 31
0.0
  0
ARC
  5
241F2
  8
0
 10
4517.5245904403509485
 20
608.9153709843830029
 30
0.0
 40
0.0859475238429649
 50
4.6549835224746277
 51
83.8096064398093432
  0
LINE
  5
241F3
  8
0
 10
4517.6102544626000963
 20
608.9223460934653076
 30
0.0
 11
4517.6102453175008122
 21
606.5457774982544379
 31
0.0
  0
ARC
  5
241F4
  8
0
 10
4517.5280110063786196
 20
606.5513073637085881
 30
0.0
 40
0.0824200299533133
 50
278.6135839955026086
 51
356.1529236846308208
  0
LINE
  5
241F5
  8
0
 10
4517.5403550344008181
 20
606.4698169574652411
 30
0.0
 11
4510.3992451096000877
 21
606.4673344057653139
 31
0.0
  0
ARC
  5
241F6
  8
0
 10
4510.4085071831268579
 20
606.5527750594719691
 30
0.0
 40
0.0859412084614658
 50
184.6514972331663103
 51
263.8130911929200124
  0
LINE
  5
241F7
  8
0
 10
4510.3228490312003487
 20
606.5458056749653224
 30
0.0
 11
4510.3228581698003836
 21
608.9223742403653432
 31
0.0
  0
ARC
  5
241F8
  8
0
 10
4514.0558034977184434
 20
606.3686462463481348
 30
0.0
 40
0.082590736034968
 50
98.7086293287313197
 51
176.0578882937635115
  0
LINE
  5
241F9
  8
0
 10
4514.0432984594999652
 20
606.4502848015653171
 30
0.0
 11
4521.1844083914002113
 21
606.4527673531653136
 31
0.0
  0
ARC
  5
241FA
  8
0
 10
4521.1751404403512424
 20
606.3673209843829
 30
0.0
 40
0.0859475238429649
 50
4.6549835224746277
 51
83.8096064398093432
  0
LINE
  5
241FB
  8
0
 10
4521.2608044626003903
 20
606.3742960934653183
 30
0.0
 11
4521.2607953175011062
 21
603.9977274982544486
 31
0.0
  0
ARC
  5
241FC
  8
0
 10
4521.1785610063789136
 20
604.0032573637087125
 30
0.0
 40
0.0824200299533133
 50
278.6135839955026086
 51
356.1529236846308208
  0
LINE
  5
241FD
  8
0
 10
4521.1909050344011121
 20
603.9217669574652518
 30
0.0
 11
4514.0497951096003817
 21
603.919284405765211
 31
0.0
  0
ARC
  5
241FE
  8
0
 10
4514.0590571831280613
 20
604.0047250594718662
 30
0.0
 40
0.0859412084614658
 50
184.6514972331663103
 51
263.8130911929200124
  0
LINE
  5
241FF
  8
0
 10
4513.9733990311997331
 20
603.9977556749653331
 30
0.0
 11
4513.9734081698006776
 21
606.3743242403653539
 31
0.0
  0
ARC
  5
24200
  8
0
 10
4521.3569034977190313
 20
606.3686462463481348
 30
0.0
 40
0.082590736034968
 50
98.7086293287313197
 51
176.0578882937635115
  0
LINE
  5
24201
  8
0
 10
4521.3443984594996436
 20
606.4502848015653171
 30
0.0
 11
4528.4855083913998897
 21
606.4527673531653136
 31
0.0
  0
ARC
  5
24202
  8
0
 10
4528.4762404403500113
 20
606.3673209843829
 30
0.0
 40
0.0859475238429649
 50
4.6549835224746277
 51
83.8096064398093432
  0
LINE
  5
24203
  8
0
 10
4528.5619044626009781
 20
606.3742960934653183
 30
0.0
 11
4528.5618953174998751
 21
603.9977274982544486
 31
0.0
  0
ARC
  5
24204
  8
0
 10
4528.4796610063776825
 20
604.0032573637087125
 30
0.0
 40
0.0824200299533133
 50
278.6135839955026086
 51
356.1529236846308208
  0
LINE
  5
24205
  8
0
 10
4528.492005034399881
 20
603.9217669574652518
 30
0.0
 11
4521.3508951096009696
 21
603.919284405765211
 31
0.0
  0
ARC
  5
24206
  8
0
 10
4521.3601571831268302
 20
604.0047250594718662
 30
0.0
 40
0.0859412084614658
 50
184.6514972331663103
 51
263.8130911929200124
  0
LINE
  5
24207
  8
0
 10
4521.274499031200321
 20
603.9977556749653331
 30
0.0
 11
4521.274508169800356
 21
606.3743242403653539
 31
0.0
  0
ARC
  5
24208
  8
0
 10
4528.6580034977178002
 20
606.3686462463481348
 30
0.0
 40
0.082590736034968
 50
98.7086293287313197
 51
176.0578882937635115
  0
LINE
  5
24209
  8
0
 10
4528.6454984595002315
 20
606.4502848015653171
 30
0.0
 11
4535.7866083913995681
 21
606.4527673531653136
 31
0.0
  0
ARC
  5
2420A
  8
0
 10
4535.7773404403496897
 20
606.3673209843829
 30
0.0
 40
0.0859475238429649
 50
4.6549835224746277
 51
83.8096064398093432
  0
LINE
  5
2420B
  8
0
 10
4535.8630044625997471
 20
606.3742960934653183
 30
0.0
 11
4535.8629953175013725
 21
603.9977274982544486
 31
0.0
  0
ARC
  5
2420C
  8
0
 10
4535.7807610063773609
 20
604.0032573637087125
 30
0.0
 40
0.0824200299533133
 50
278.6135839955026086
 51
356.1529236846308208
  0
LINE
  5
2420D
  8
0
 10
4535.7931050343995594
 20
603.9217669574652518
 30
0.0
 11
4528.6519951095997385
 21
603.919284405765211
 31
0.0
  0
ARC
  5
2420E
  8
0
 10
4528.6612571831274181
 20
604.0047250594718662
 30
0.0
 40
0.0859412084614658
 50
184.6514972331663103
 51
263.8130911929200124
  0
LINE
  5
2420F
  8
0
 10
4528.5755990312009089
 20
603.9977556749653331
 30
0.0
 11
4528.5756081698009439
 21
606.3743242403653539
 31
0.0
  0
ARC
  5
24210
  8
0
 10
4525.0074534977184157
 20
603.8205962463481455
 30
0.0
 40
0.082590736034968
 50
98.7086293287313197
 51
176.0578882937635115
  0
LINE
  5
24211
  8
0
 10
4524.9949484594990281
 20
603.9022348015653279
 30
0.0
 11
4532.1360583914001836
 21
603.9047173531653243
 31
0.0
  0
ARC
  5
24212
  8
0
 10
4532.1267904403512148
 20
603.8192709843830244
 30
0.0
 40
0.0859475238429649
 50
4.6549835224746277
 51
83.8096064398093432
  0
LINE
  5
24213
  8
0
 10
4532.2124544626012721
 20
603.8262460934653291
 30
0.0
 11
4532.2124453175010785
 21
601.4496774982544594
 31
0.0
  0
ARC
  5
24214
  8
0
 10
4532.1302110063788859
 20
601.4552073637084959
 30
0.0
 40
0.0824200299533133
 50
278.6135839955026086
 51
356.1529236846308208
  0
LINE
  5
24215
  8
0
 10
4532.1425550344001749
 20
601.3737169574651489
 30
0.0
 11
4525.0014451096012635
 21
601.3712344057653354
 31
0.0
  0
ARC
  5
24216
  8
0
 10
4525.0107071831271242
 20
601.4566750594719906
 30
0.0
 40
0.0859412084614658
 50
184.6514972331663103
 51
263.8130911929200124
  0
LINE
  5
24217
  8
0
 10
4524.9250490311997055
 20
601.4497056749653439
 30
0.0
 11
4524.9250581698006499
 21
603.826274240365251
 31
0.0
  0
ARC
  5
24218
  8
0
 10
4517.7063534977178278
 20
603.8205962463481455
 30
0.0
 40
0.082590736034968
 50
98.7086293287313197
 51
176.0578882937635115
  0
LINE
  5
24219
  8
0
 10
4517.6938484595002592
 20
603.9022348015653279
 30
0.0
 11
4524.8349583914014147
 21
603.9047173531653243
 31
0.0
  0
ARC
  5
2421A
  8
0
 10
4524.8256904403497174
 20
603.8192709843830244
 30
0.0
 40
0.0859475238429649
 50
4.6549835224746277
 51
83.8096064398093432
  0
LINE
  5
2421B
  8
0
 10
4524.9113544625997747
 20
603.8262460934653291
 30
0.0
 11
4524.9113453175014001
 21
601.4496774982544594
 31
0.0
  0
ARC
  5
2421C
  8
0
 10
4524.829111006378298
 20
601.4552073637084959
 30
0.0
 40
0.0824200299533133
 50
278.6135839955026086
 51
356.1529236846308208
  0
LINE
  5
2421D
  8
0
 10
4524.841455034399587
 20
601.3737169574651489
 30
0.0
 11
4517.7003451095997661
 21
601.3712344057653354
 31
0.0
  0
ARC
  5
2421E
  8
0
 10
4517.7096071831274458
 20
601.4566750594719906
 30
0.0
 40
0.0859412084614658
 50
184.6514972331663103
 51
263.8130911929200124
  0
LINE
  5
2421F
  8
0
 10
4517.6239490312000271
 20
601.4497056749653439
 30
0.0
 11
4517.6239581698009715
 21
603.826274240365251
 31
0.0
  0
ARC
  5
24220
  8
0
 10
4510.4052534977190589
 20
603.8205962463481455
 30
0.0
 40
0.082590736034968
 50
98.7086293287313197
 51
176.0578882937635115
  0
LINE
  5
24221
  8
0
 10
4510.3927484595005808
 20
603.9022348015653279
 30
0.0
 11
4517.5338583914008268
 21
603.9047173531653243
 31
0.0
  0
ARC
  5
24222
  8
0
 10
4517.5245904403509485
 20
603.8192709843830244
 30
0.0
 40
0.0859475238429649
 50
4.6549835224746277
 51
83.8096064398093432
  0
LINE
  5
24223
  8
0
 10
4517.6102544626000963
 20
603.8262460934653291
 30
0.0
 11
4517.6102453175008122
 21
601.4496774982544594
 31
0.0
  0
ARC
  5
24224
  8
0
 10
4517.5280110063786196
 20
601.4552073637084959
 30
0.0
 40
0.0824200299533133
 50
278.6135839955026086
 51
356.1529236846308208
  0
LINE
  5
24225
  8
0
 10
4517.5403550344008181
 20
601.3737169574651489
 30
0.0
 11
4510.3992451096000877
 21
601.3712344057653354
 31
0.0
  0
ARC
  5
24226
  8
0
 10
4510.4085071831268579
 20
601.4566750594719906
 30
0.0
 40
0.0859412084614658
 50
184.6514972331663103
 51
263.8130911929200124
  0
LINE
  5
24227
  8
0
 10
4510.3228490312003487
 20
601.4497056749653439
 30
0.0
 11
4510.3228581698003836
 21
603.826274240365251
 31
0.0
  0
ARC
  5
24228
  8
0
 10
4540.5629400306088428
 20
621.3516620538782718
 30
0.0
 40
1.6165649126030699
 50
166.0368440684484028
 51
178.7003171073741896
  0
LINE
  5
24229
  8
0
 10
4538.94679100378562
 20
621.3883286566067454
 30
0.0
 11
4538.9467910031007705
 21
619.560325879466177
 31
0.0
  0
ARC
  5
2422A
  8
0
 10
4540.5645848096937698
 20
619.5972097986913241
 30
0.0
 40
1.618214208364283
 50
181.3060544878989901
 51
193.9566661938872869
  0
ARC
  5
2422B
  8
0
 10
4535.9568666641198433
 20
621.6620977786972162
 30
0.0
 40
0.0796300539901669
 50
89.0823246575048557
 51
183.0096542621280946
  0
LINE
  5
2422C
  8
0
 10
4535.9581420008616988
 20
621.7417176192815305
 30
0.0
 11
4538.9941428433003239
 21
621.7417357671066611
 31
0.0
  0
LINE
  5
2422D
  8
0
 10
4538.9941428439151423
 20
619.2069159910662393
 30
0.0
 11
4535.9582902445481523
 21
619.206782013624661
 31
0.0
  0
ARC
  5
2422E
  8
0
 10
4535.9570507854414245
 20
619.2866518640339564
 30
0.0
 40
0.0798794670943839
 50
177.0077559573136057
 51
270.8890723521359973
  0
LINE
  5
2422F
  8
0
 10
4535.8772802251996836
 20
619.2908216340661056
 30
0.0
 11
4535.8773464436999348
 21
621.6579168645661184
 31
0.0
  0
ARC
  5
24230
  8
0
 10
4535.9568666641198433
 20
616.5659977786973514
 30
0.0
 40
0.0796300539901669
 50
89.0823246575048557
 51
183.0096542621280946
  0
LINE
  5
24231
  8
0
 10
4535.9581420008616988
 20
616.6456176192816656
 30
0.0
 11
4538.9941428433003239
 21
616.6456357671067963
 31
0.0
  0
LINE
  5
24232
  8
0
 10
4538.9941428439151423
 20
614.1108159910664881
 30
0.0
 11
4535.9582902445481523
 21
614.1106820136249098
 31
0.0
  0
ARC
  5
24233
  8
0
 10
4535.9570507854414245
 20
614.1905518640343189
 30
0.0
 40
0.0798794670943839
 50
177.0077559573136057
 51
270.8890723521359973
  0
LINE
  5
24234
  8
0
 10
4535.8772802251996836
 20
614.1947216340662408
 30
0.0
 11
4535.8773464436999348
 21
616.5618168645662536
 31
0.0
  0
ARC
  5
24235
  8
0
 10
4540.5629281373931008
 20
611.1594620529872373
 30
0.0
 40
1.6165649126030699
 50
166.0368440684484028
 51
178.7003171073741896
  0
LINE
  5
24236
  8
0
 10
4538.9467791105689685
 20
611.1961286557158246
 30
0.0
 11
4538.946779109884119
 21
609.3681258785751425
 31
0.0
  0
ARC
  5
24237
  8
0
 10
4540.5645729164780278
 20
609.4050097978001759
 30
0.0
 40
1.618214208364283
 50
181.3060544878989901
 51
193.9566661938872869
  0
ARC
  5
24238
  8
0
 10
4535.9568547709031918
 20
611.4698977778061817
 30
0.0
 40
0.0796300539901669
 50
89.0823246575048557
 51
183.0096542621280946
  0
LINE
  5
24239
  8
0
 10
4535.9581301076459567
 20
611.5495176183903823
 30
0.0
 11
4538.9941309500827629
 21
611.5495357662156266
 31
0.0
  0
LINE
  5
2423A
  8
0
 10
4538.9941309506975813
 20
609.0147159901753184
 30
0.0
 11
4535.9582783513324102
 21
609.0145820127337402
 31
0.0
  0
ARC
  5
2423B
  8
0
 10
4535.957038892224773
 20
609.0944518631430356
 30
0.0
 40
0.0798794670943839
 50
177.0077559573136057
 51
270.8890723521359973
  0
LINE
  5
2423C
  8
0
 10
4535.8772683319830321
 20
609.0986216331749574
 30
0.0
 11
4535.8773345504832832
 21
611.4657168636750839
 31
0.0
  0
ARC
  5
2423D
  8
0
 10
4540.5629403558859849
 20
606.063362011414938
 30
0.0
 40
1.616565238696688
 50
166.0368453636482116
 51
178.7003164681044041
  0
LINE
  5
2423E
  8
0
 10
4538.9467910034609304
 20
606.1000286395717467
 30
0.0
 11
4538.9467910027760809
 21
604.2720258624311782
 31
0.0
  0
ARC
  5
2423F
  8
0
 10
4540.5645844452837991
 20
604.3089097532023288
 30
0.0
 40
1.6182138437253071
 50
181.3060537745205067
 51
193.9566677405130974
  0
ARC
  5
24240
  8
0
 10
4535.9568666944269353
 20
606.3737977514362001
 30
0.0
 40
0.0796300831407492
 50
89.0823468040049562
 51
183.0096337336011914
  0
LINE
  5
24241
  8
0
 10
4535.9581420008616988
 20
606.4534176216602646
 30
0.0
 11
4538.9941428433003239
 21
606.4534357678652441
 31
0.0
  0
LINE
  5
24242
  8
0
 10
4538.9941428439151423
 20
603.9186159911320146
 30
0.0
 11
4535.9582926915772987
 21
603.9184819749219741
 31
0.0
  0
ARC
  5
24243
  8
0
 10
4535.957050280502699
 20
603.9983504384352955
 30
0.0
 40
0.0798781262253188
 50
177.0066720221026912
 51
270.8912049506047879
  0
LINE
  5
24244
  8
0
 10
4535.877281138199578
 20
604.0025216475653451
 30
0.0
 11
4535.877346443400711
 21
606.3696168642658222
 31
0.0
  0
ARC
  5
24245
  8
0
 10
4532.3085534977190036
 20
624.2049962463480597
 30
0.0
 40
0.082590736034968
 50
98.7086293287313197
 51
176.0578882937635115
  0
LINE
  5
24246
  8
0
 10
4532.296048459499616
 20
624.2866348015653557
 30
0.0
 11
4538.9941428409256332
 21
624.2889633422378211
 31
0.0
  0
LINE
  5
24247
  8
0
 10
4538.9941428433003239
 20
621.7579606880245819
 30
0.0
 11
4532.3025451096000324
 21
621.7556344057652495
 31
0.0
  0
ARC
  5
24248
  8
0
 10
4532.3118071831277121
 20
621.8410750594720184
 30
0.0
 40
0.0859412084614658
 50
184.6514972331663103
 51
263.8130911929200124
  0
LINE
  5
24249
  8
0
 10
4532.2261490312002934
 20
621.834105674965258
 30
0.0
 11
4532.2261581698003283
 21
624.2106742403652788
 31
0.0
  0
ARC
  5
2424A
  8
0
 10
4540.4603643172576994
 20
622.1277450697714357
 30
0.0
 40
1.4985765344588109
 50
180.7402684163801894
 51
191.0635674596516083
  0
LINE
  5
2424B
  8
0
 10
4538.9619128594003996
 20
622.108383817968388
 30
0.0
 11
4538.9619237931692624
 21
623.9363902985186314
 31
0.0
  0
ARC
  5
2424C
  8
0
 10
4540.4900461077859291
 20
623.914059228312226
 30
0.0
 40
1.528285472392924
 50
169.0872382839185946
 51
179.1627731653344995
  0
ARC
  5
2424D
  8
0
 10
4532.3085534977190036
 20
619.1088962463480811
 30
0.0
 40
0.082590736034968
 50
98.7086293287313197
 51
176.0578882937635115
  0
LINE
  5
2424E
  8
0
 10
4532.296048459499616
 20
619.1905348015652635
 30
0.0
 11
4538.9941428437996365
 21
619.1928633422388657
 31
0.0
  0
LINE
  5
2424F
  8
0
 10
4538.9941428437814466
 20
616.6618606880247171
 30
0.0
 11
4532.3025451096000324
 21
616.6595344057653847
 31
0.0
  0
ARC
  5
24250
  8
0
 10
4532.3118071831277121
 20
616.7449750594720399
 30
0.0
 40
0.0859412084614658
 50
184.6514972331663103
 51
263.8130911929200124
  0
LINE
  5
24251
  8
0
 10
4532.2261490312002934
 20
616.7380056749653932
 30
0.0
 11
4532.2261581698003283
 21
619.1145742403651866
 31
0.0
  0
ARC
  5
24252
  8
0
 10
4540.4603643172576994
 20
617.0316450697713435
 30
0.0
 40
1.4985765344588109
 50
180.7402684163801894
 51
191.0635674596516083
  0
LINE
  5
24253
  8
0
 10
4538.9619128594003996
 20
617.0122838179685232
 30
0.0
 11
4538.9619237931692624
 21
618.8402902985186529
 31
0.0
  0
ARC
  5
24254
  8
0
 10
4540.4900461077859291
 20
618.8179592283121337
 30
0.0
 40
1.5282854723930031
 50
169.0872382839185946
 51
179.1627731653312878
  0
ARC
  5
24255
  8
0
 10
4532.3085534977190036
 20
614.0127962463481026
 30
0.0
 40
0.082590736034968
 50
98.7086293287313197
 51
176.0578882937635115
  0
LINE
  5
24256
  8
0
 10
4532.296048459499616
 20
614.0944348015652849
 30
0.0
 11
4538.9941428437978175
 21
614.0967633422387735
 31
0.0
  0
LINE
  5
24257
  8
0
 10
4538.9941335377334326
 20
611.5657606847895522
 30
0.0
 11
4532.3025451096000324
 21
611.5634344057654062
 31
0.0
  0
ARC
  5
24258
  8
0
 10
4532.3118071831277121
 20
611.6488750594719477
 30
0.0
 40
0.0859412084614658
 50
184.6514972331663103
 51
263.8130911929200124
  0
LINE
  5
24259
  8
0
 10
4532.2261490312002934
 20
611.6419056749653009
 30
0.0
 11
4532.2261581698003283
 21
614.0184742403653217
 31
0.0
  0
ARC
  5
2425A
  8
0
 10
4540.4603643172576994
 20
611.9355450697714787
 30
0.0
 40
1.4985765344588109
 50
180.7402684163801894
 51
191.0635674596516083
  0
LINE
  5
2425B
  8
0
 10
4538.9619128594003996
 20
611.9161838179685446
 30
0.0
 11
4538.9619237931692624
 21
613.7441902985185607
 31
0.0
  0
ARC
  5
2425C
  8
0
 10
4540.4900461077859291
 20
613.7218592283121552
 30
0.0
 40
1.528285472392898
 50
169.0872382839185946
 51
179.1627731653312878
  0
ARC
  5
2425D
  8
0
 10
4532.3085534977190036
 20
608.9166962463480104
 30
0.0
 40
0.082590736034968
 50
98.7086293287313197
 51
176.0578882937635115
  0
LINE
  5
2425E
  8
0
 10
4532.296048459499616
 20
608.9983348015651927
 30
0.0
 11
4538.9941331954178168
 21
609.0006633388845785
 31
0.0
  0
LINE
  5
2425F
  8
0
 10
4538.9941428433003239
 20
606.4696606880245326
 30
0.0
 11
4532.3025451096000324
 21
606.4673344057653139
 31
0.0
  0
ARC
  5
24260
  8
0
 10
4532.3118071831277121
 20
606.5527750594719691
 30
0.0
 40
0.0859412084614658
 50
184.6514972331663103
 51
263.8130911929200124
  0
LINE
  5
24261
  8
0
 10
4532.2261490312002934
 20
606.5458056749653224
 30
0.0
 11
4532.2261581698003283
 21
608.9223742403653432
 31
0.0
  0
ARC
  5
24262
  8
0
 10
4540.4603643172576994
 20
606.8394450697715001
 30
0.0
 40
1.4985765344588109
 50
180.7402684163801894
 51
191.0635674596516083
  0
LINE
  5
24263
  8
0
 10
4538.9619128594003996
 20
606.8200838179684524
 30
0.0
 11
4538.9619237931692624
 21
608.6480902985185821
 31
0.0
  0
ARC
  5
24264
  8
0
 10
4540.4900461077859291
 20
608.625759228312063
 30
0.0
 40
1.528285472393039
 50
169.0872382839185946
 51
179.1627731653312878
  0
ARC
  5
24265
  8
0
 10
4532.3085534977190036
 20
603.8205962463481455
 30
0.0
 40
0.082590736034968
 50
98.7086293287313197
 51
176.0578882937635115
  0
LINE
  5
24266
  8
0
 10
4532.296048459499616
 20
603.9022348015653279
 30
0.0
 11
4538.9941428450638341
 21
603.9045633422391575
 31
0.0
  0
LINE
  5
24267
  8
0
 10
4538.9941430703165679
 20
601.3735606881034528
 30
0.0
 11
4532.3025451096000324
 21
601.3712344057653354
 31
0.0
  0
ARC
  5
24268
  8
0
 10
4532.3118071831277121
 20
601.4566750594719906
 30
0.0
 40
0.0859412084614658
 50
184.6514972331663103
 51
263.8130911929200124
  0
LINE
  5
24269
  8
0
 10
4532.2261490312002934
 20
601.4497056749653439
 30
0.0
 11
4532.2261581698003283
 21
603.826274240365251
 31
0.0
  0
ARC
  5
2426A
  8
0
 10
4540.4603643172576994
 20
601.7433450697715216
 30
0.0
 40
1.4985765344588109
 50
180.7402684163801894
 51
191.0635674596516083
  0
LINE
  5
2426B
  8
0
 10
4538.9619128594003996
 20
601.7239838179683602
 30
0.0
 11
4538.9619237931692624
 21
603.5519902985186036
 31
0.0
  0
ARC
  5
2426C
  8
0
 10
4540.4900461077859291
 20
603.5296592283120845
 30
0.0
 40
1.528285472392932
 50
169.0872382839185946
 51
179.1627731653344995
  0
LINE
  5
2426D
  8
0
 10
4538.9941428403726604
 20
624.3030159910651946
 30
0.0
 11
4538.9941428433003239
 21
624.2285647510389026
 31
0.0
  0
LINE
  5
2426E
  8
0
 10
4538.9941428433003239
 20
624.2285647510389026
 30
0.0
 11
4538.9893972782001583
 21
624.2033852993653227
 31
0.0
  0
LINE
  5
2426F
  8
0
 10
4538.9941428433003239
 20
621.7417357671066611
 30
0.0
 11
4538.9941428433003239
 21
621.8163078751651938
 31
0.0
  0
LINE
  5
24270
  8
0
 10
4538.9941428433003239
 20
621.8163078751651938
 30
0.0
 11
4538.9896390013509517
 21
621.8401712970151038
 31
0.0
  0
LINE
  5
24271
  8
0
 10
4538.9941428439169613
 20
619.2069159910579401
 30
0.0
 11
4538.9941428433003239
 21
619.1324645914653502
 31
0.0
  0
LINE
  5
24272
  8
0
 10
4538.9941428433003239
 20
619.1324645914653502
 30
0.0
 11
4538.9893972782001583
 21
619.1072852993653441
 31
0.0
  0
LINE
  5
24273
  8
0
 10
4538.9941428439142328
 20
616.6456357670060697
 30
0.0
 11
4538.9941428433003239
 21
616.7202078751653289
 31
0.0
  0
LINE
  5
24274
  8
0
 10
4538.9941428433003239
 20
616.7202078751653289
 30
0.0
 11
4538.9896390013509517
 21
616.7440712970144432
 31
0.0
  0
LINE
  5
24275
  8
0
 10
4538.9941428439151423
 20
614.1108159911275379
 30
0.0
 11
4538.9941428433003239
 21
614.0363645914653716
 31
0.0
  0
LINE
  5
24276
  8
0
 10
4538.9941428433003239
 20
614.0363645914653716
 30
0.0
 11
4538.9893972782001583
 21
614.0111852993652519
 31
0.0
  0
LINE
  5
24277
  8
0
 10
4538.9941309500827629
 20
611.5495357662156266
 30
0.0
 11
4538.9941428433003239
 21
611.6241078751653504
 31
0.0
  0
LINE
  5
24278
  8
0
 10
4538.9941428433003239
 20
611.6241078751653504
 30
0.0
 11
4538.9896390013509517
 21
611.6479712970144647
 31
0.0
  0
LINE
  5
24279
  8
0
 10
4538.9941309506975813
 20
609.0147159901750911
 30
0.0
 11
4538.9941428433003239
 21
608.9402645914652794
 31
0.0
  0
LINE
  5
2427A
  8
0
 10
4538.9941428433003239
 20
608.9402645914652794
 30
0.0
 11
4538.9893972782001583
 21
608.9150852993651597
 31
0.0
  0
LINE
  5
2427B
  8
0
 10
4538.9941428433003239
 20
606.4534357678652441
 30
0.0
 11
4538.9941428433003239
 21
606.5280078751652582
 31
0.0
  0
LINE
  5
2427C
  8
0
 10
4538.9941428433003239
 20
606.5280078751652582
 30
0.0
 11
4538.9896390007443188
 21
606.5518713001164315
 31
0.0
  0
LINE
  5
2427D
  8
0
 10
4538.9941428439151423
 20
603.9186159911320146
 30
0.0
 11
4538.9941428499996618
 21
603.844164626265183
 31
0.0
  0
LINE
  5
2427E
  8
0
 10
4538.9941428499996618
 20
603.844164626265183
 30
0.0
 11
4538.9893972782001583
 21
603.8189852993652948
 31
0.0
  0
LINE
  5
2427F
  8
0
 10
4538.9891712004246074
 20
601.284597727472601
 30
0.0
 11
4538.9941430760982257
 21
601.3089056058023516
 31
0.0
  0
LINE
  5
24280
  8
0
 10
4538.9941430760982257
 20
601.3089056058023516
 30
0.0
 11
4538.9941430650997063
 21
601.4319067175653117
 31
0.0
  0
LINE
  5
24281
  8
0
 10
4538.9941430650997063
 20
601.4319067175653117
 30
0.0
 11
4538.9896390013509517
 21
601.4557712970140528
 31
0.0
  0
ARC
  5
24282
  8
0
 10
4540.4064502704832194
 20
600.9907392339353009
 30
0.0
 40
1.447422805074277
 50
168.2862739863302863
 51
179.4780272873474019
  0
LINE
  5
24283
  8
0
 10
4538.9590875291996781
 20
601.0039252794653066
 30
0.0
 11
4538.9590875291996781
 21
599.1759252794653321
 31
0.0
  0
ARC
  5
24284
  8
0
 10
4540.5430168071188746
 20
599.2018306072511677
 30
0.0
 40
1.584141105917636
 50
180.9369948830079124
 51
193.6039619736496036
  0
LINE
  5
24285
  8
0
 10
4538.8247833257000821
 20
601.3575235906653234
 30
0.0
 11
4481.807220168099775
 21
601.3575235906653234
 31
0.0
  0
ARC
  5
24286
  8
0
 10
4538.8191225082582605
 20
599.7862954756290037
 30
0.0
 40
1.5712383123939999
 50
86.0320775262706547
 51
89.7935757757743431
  0
LINE
  5
24287
  8
0
 10
4538.7949318618002508
 20
598.8901821705652537
 30
0.0
 11
4481.8370689092380417
 21
598.8901821705652537
 31
0.0
  0
ARC
  5
24288
  8
0
 10
4538.3801727377767747
 20
553.0794606474203192
 30
0.0
 40
45.8125990487561694
 50
89.2369514715604453
 51
89.481272129122658
  0
ARC
  5
24289
  8
0
 10
4510.4053111525481654
 20
598.7244401858401943
 30
0.0
 40
0.0826573140842531
 50
98.7882941876517862
 51
176.0416938207403064
  0
LINE
  5
2428A
  8
0
 10
4510.3926824430000124
 20
598.8061270713653812
 30
0.0
 11
4517.5404208020008809
 21
598.8061256151653424
 31
0.0
  0
ARC
  5
2428B
  8
0
 10
4517.5278048006921381
 20
598.7244584817431132
 30
0.0
 40
0.0826358528148742
 50
3.9639699068362289
 51
81.2183212518676072
  0
LINE
  5
2428C
  8
0
 10
4517.6102429653210493
 20
598.7301710278480869
 30
0.0
 11
4517.6102524800417086
 21
596.3536056936732166
 31
0.0
  0
ARC
  5
2428D
  8
0
 10
4517.5277745000412324
 20
596.3593279701462961
 30
0.0
 40
0.0826762458821125
 50
278.7987771596182256
 51
356.0312104063303877
  0
LINE
  5
2428E
  8
0
 10
4517.5404210509013865
 20
596.2776246875653214
 30
0.0
 11
4510.3926826949000315
 21
596.2778757997652974
 31
0.0
  0
ARC
  5
2428F
  8
0
 10
4510.4047528484179566
 20
596.3590589779424818
 30
0.0
 40
0.0820755568051146
 50
183.8293813992376045
 51
261.5433263201658178
  0
LINE
  5
24290
  8
0
 10
4510.3228605374642939
 20
596.3535775153928853
 30
0.0
 11
4510.3228510135568285
 21
598.7301460643305973
 31
0.0
  0
ARC
  5
24291
  8
0
 10
4517.7064111525478438
 20
598.7244401858401943
 30
0.0
 40
0.0826573140842531
 50
98.7882941876517862
 51
176.0416938207403064
  0
LINE
  5
24292
  8
0
 10
4517.6937824429996908
 20
598.8061270713653812
 30
0.0
 11
4524.8415208019996498
 21
598.8061256151653424
 31
0.0
  0
ARC
  5
24293
  8
0
 10
4524.828904800690907
 20
598.7244584817431132
 30
0.0
 40
0.0826358528148742
 50
3.9639699068362289
 51
81.2183212518676072
  0
LINE
  5
24294
  8
0
 10
4524.9113429653198182
 20
598.7301710278480869
 30
0.0
 11
4524.911352480041387
 21
596.3536056936732166
 31
0.0
  0
ARC
  5
24295
  8
0
 10
4524.8288745000400013
 20
596.3593279701462961
 30
0.0
 40
0.0826762458821125
 50
278.7987771596182256
 51
356.0312104063303877
  0
LINE
  5
24296
  8
0
 10
4524.8415210509001554
 20
596.2776246875653214
 30
0.0
 11
4517.6937826948997099
 21
596.2778757997652974
 31
0.0
  0
ARC
  5
24297
  8
0
 10
4517.7058528484167255
 20
596.3590589779424818
 30
0.0
 40
0.0820755568051146
 50
183.8293813992376045
 51
261.5433263201658178
  0
LINE
  5
24298
  8
0
 10
4517.6239605374648818
 20
596.3535775153928853
 30
0.0
 11
4517.6239510135574164
 21
598.7301460643305973
 31
0.0
  0
ARC
  5
24299
  8
0
 10
4525.0075111525466127
 20
598.7244401858401943
 30
0.0
 40
0.0826573140842531
 50
98.7882941876517862
 51
176.0416938207403064
  0
LINE
  5
2429A
  8
0
 10
4524.9948824430002787
 20
598.8061270713653812
 30
0.0
 11
4532.1426208020002377
 21
598.8061256151653424
 31
0.0
  0
ARC
  5
2429B
  8
0
 10
4532.1300048006905854
 20
598.7244584817431132
 30
0.0
 40
0.0826358528148742
 50
3.9639699068362289
 51
81.2183212518676072
  0
LINE
  5
2429C
  8
0
 10
4532.2124429653204061
 20
598.7301710278480869
 30
0.0
 11
4532.2124524800428844
 21
596.3536056936732166
 31
0.0
  0
ARC
  5
2429D
  8
0
 10
4532.1299745000396797
 20
596.3593279701462961
 30
0.0
 40
0.0826762458821125
 50
278.7987771596182256
 51
356.0312104063303877
  0
LINE
  5
2429E
  8
0
 10
4532.1426210508998338
 20
596.2776246875653214
 30
0.0
 11
4524.9948826949002978
 21
596.2778757997652974
 31
0.0
  0
ARC
  5
2429F
  8
0
 10
4525.0069528484173134
 20
596.3590589779424818
 30
0.0
 40
0.0820755568051146
 50
183.8293813992376045
 51
261.5433263201658178
  0
LINE
  5
242A0
  8
0
 10
4524.9250605374645602
 20
596.3535775153928853
 30
0.0
 11
4524.9250510135580043
 21
598.7301460643305973
 31
0.0
  0
ARC
  5
242A1
  8
0
 10
4528.6580611525469067
 20
596.176390185840205
 30
0.0
 40
0.0826573140842531
 50
98.7882941876517862
 51
176.0416938207403064
  0
LINE
  5
242A2
  8
0
 10
4528.6454324429996632
 20
596.2580770713652782
 30
0.0
 11
4535.7931708019996222
 21
596.2580756151653532
 31
0.0
  0
ARC
  5
242A3
  8
0
 10
4535.7805548006908793
 20
596.1764084817430103
 30
0.0
 40
0.0826358528148742
 50
3.9639699068362289
 51
81.2183212518676072
  0
LINE
  5
242A4
  8
0
 10
4535.8629929653197905
 20
596.1821210278482113
 30
0.0
 11
4535.8630024800422689
 21
593.8055556936732273
 31
0.0
  0
ARC
  5
242A5
  8
0
 10
4535.7805245000390642
 20
593.8112779701461932
 30
0.0
 40
0.0826762458821125
 50
278.7987771596182256
 51
356.0312104063303877
  0
LINE
  5
242A6
  8
0
 10
4535.7931710509001277
 20
593.7295746875653322
 30
0.0
 11
4528.6454326948996822
 21
593.7298257997651945
 31
0.0
  0
ARC
  5
242A7
  8
0
 10
4528.6575028484166978
 20
593.8110089779423788
 30
0.0
 40
0.0820755568051146
 50
183.8293813992376045
 51
261.5433263201658178
  0
LINE
  5
242A8
  8
0
 10
4528.5756105374648541
 20
593.8055275153930097
 30
0.0
 11
4528.5756010135573888
 21
596.182096064330608
 31
0.0
  0
ARC
  5
242A9
  8
0
 10
4521.3569611525472283
 20
596.176390185840205
 30
0.0
 40
0.0826573140842531
 50
98.7882941876517862
 51
176.0416938207403064
  0
LINE
  5
242AA
  8
0
 10
4521.3443324429999848
 20
596.2580770713652782
 30
0.0
 11
4528.4920708020008533
 21
596.2580756151653532
 31
0.0
  0
ARC
  5
242AB
  8
0
 10
4528.4794548006912009
 20
596.1764084817430103
 30
0.0
 40
0.0826358528148742
 50
3.9639699068362289
 51
81.2183212518676072
  0
LINE
  5
242AC
  8
0
 10
4528.5618929653201121
 20
596.1821210278482113
 30
0.0
 11
4528.561902480041681
 21
593.8055556936732273
 31
0.0
  0
ARC
  5
242AD
  8
0
 10
4528.4794245000393857
 20
593.8112779701461932
 30
0.0
 40
0.0826762458821125
 50
278.7987771596182256
 51
356.0312104063303877
  0
LINE
  5
242AE
  8
0
 10
4528.4920710509013588
 20
593.7295746875653322
 30
0.0
 11
4521.3443326949000038
 21
593.7298257997651945
 31
0.0
  0
ARC
  5
242AF
  8
0
 10
4521.3564028484170194
 20
593.8110089779423788
 30
0.0
 40
0.0820755568051146
 50
183.8293813992376045
 51
261.5433263201658178
  0
LINE
  5
242B0
  8
0
 10
4521.2745105374642662
 20
593.8055275153930097
 30
0.0
 11
4521.2745010135568009
 21
596.182096064330608
 31
0.0
  0
ARC
  5
242B1
  8
0
 10
4514.0558611525475499
 20
596.176390185840205
 30
0.0
 40
0.0826573140842531
 50
98.7882941876517862
 51
176.0416938207403064
  0
LINE
  5
242B2
  8
0
 10
4514.0432324429993969
 20
596.2580770713652782
 30
0.0
 11
4521.1909708020002654
 21
596.2580756151653532
 31
0.0
  0
ARC
  5
242B3
  8
0
 10
4521.178354800690613
 20
596.1764084817430103
 30
0.0
 40
0.0826358528148742
 50
3.9639699068362289
 51
81.2183212518676072
  0
LINE
  5
242B4
  8
0
 10
4521.2607929653204337
 20
596.1821210278482113
 30
0.0
 11
4521.2608024800420026
 21
593.8055556936732273
 31
0.0
  0
ARC
  5
242B5
  8
0
 10
4521.1783245000397073
 20
593.8112779701461932
 30
0.0
 40
0.0826762458821125
 50
278.7987771596182256
 51
356.0312104063303877
  0
LINE
  5
242B6
  8
0
 10
4521.1909710509007709
 20
593.7295746875653322
 30
0.0
 11
4514.0432326949003254
 21
593.7298257997651945
 31
0.0
  0
ARC
  5
242B7
  8
0
 10
4514.0553028484182505
 20
593.8110089779423788
 30
0.0
 40
0.0820755568051146
 50
183.8293813992376045
 51
261.5433263201658178
  0
LINE
  5
242B8
  8
0
 10
4513.9734105374645878
 20
593.8055275153930097
 30
0.0
 11
4513.973401013558032
 21
596.182096064330608
 31
0.0
  0
ARC
  5
242B9
  8
0
 10
4510.4053111525481654
 20
593.6283401858402158
 30
0.0
 40
0.0826573140842531
 50
98.7882941876517862
 51
176.0416938207403064
  0
LINE
  5
242BA
  8
0
 10
4510.3926824430000124
 20
593.710027071365289
 30
0.0
 11
4517.5404208020008809
 21
593.7100256151652502
 31
0.0
  0
ARC
  5
242BB
  8
0
 10
4517.5278048006921381
 20
593.6283584817431347
 30
0.0
 40
0.0826358528148742
 50
3.9639699068362289
 51
81.2183212518676072
  0
LINE
  5
242BC
  8
0
 10
4517.6102429653210493
 20
593.6340710278479946
 30
0.0
 11
4517.6102524800417086
 21
591.2575056936732381
 31
0.0
  0
ARC
  5
242BD
  8
0
 10
4517.5277745000394134
 20
591.2632279701463176
 30
0.0
 40
0.0826762458821125
 50
278.7987771596182256
 51
356.0312104063303877
  0
LINE
  5
242BE
  8
0
 10
4517.5404210509013865
 20
591.1815246875653429
 30
0.0
 11
4510.3926826949000315
 21
591.1817757997653189
 31
0.0
  0
ARC
  5
242BF
  8
0
 10
4510.4047528484179566
 20
591.2629589779425032
 30
0.0
 40
0.0820755568051146
 50
183.8293813992376045
 51
261.5433263201658178
  0
LINE
  5
242C0
  8
0
 10
4510.3228605374642939
 20
591.2574775153930204
 30
0.0
 11
4510.3228510135568285
 21
593.634046064330505
 31
0.0
  0
ARC
  5
242C1
  8
0
 10
4517.7064111525478438
 20
593.6283401858402158
 30
0.0
 40
0.0826573140842531
 50
98.7882941876517862
 51
176.0416938207403064
  0
LINE
  5
242C2
  8
0
 10
4517.6937824429996908
 20
593.710027071365289
 30
0.0
 11
4524.8415208019996498
 21
593.7100256151652502
 31
0.0
  0
ARC
  5
242C3
  8
0
 10
4524.828904800690907
 20
593.6283584817431347
 30
0.0
 40
0.0826358528148742
 50
3.9639699068362289
 51
81.2183212518676072
  0
LINE
  5
242C4
  8
0
 10
4524.9113429653198182
 20
593.6340710278479946
 30
0.0
 11
4524.911352480041387
 21
591.2575056936732381
 31
0.0
  0
ARC
  5
242C5
  8
0
 10
4524.8288745000400013
 20
591.2632279701463176
 30
0.0
 40
0.0826762458821125
 50
278.7987771596182256
 51
356.0312104063303877
  0
LINE
  5
242C6
  8
0
 10
4524.8415210509001554
 20
591.1815246875653429
 30
0.0
 11
4517.6937826948997099
 21
591.1817757997653189
 31
0.0
  0
ARC
  5
242C7
  8
0
 10
4517.7058528484167255
 20
591.2629589779425032
 30
0.0
 40
0.0820755568051146
 50
183.8293813992376045
 51
261.5433263201658178
  0
LINE
  5
242C8
  8
0
 10
4517.6239605374648818
 20
591.2574775153930204
 30
0.0
 11
4517.6239510135574164
 21
593.634046064330505
 31
0.0
  0
ARC
  5
242C9
  8
0
 10
4525.0075111525466127
 20
593.6283401858402158
 30
0.0
 40
0.0826573140842531
 50
98.7882941876517862
 51
176.0416938207403064
  0
LINE
  5
242CA
  8
0
 10
4524.9948824430002787
 20
593.710027071365289
 30
0.0
 11
4532.1426208020002377
 21
593.7100256151652502
 31
0.0
  0
ARC
  5
242CB
  8
0
 10
4532.1300048006905854
 20
593.6283584817431347
 30
0.0
 40
0.0826358528148742
 50
3.9639699068362289
 51
81.2183212518676072
  0
LINE
  5
242CC
  8
0
 10
4532.2124429653204061
 20
593.6340710278479946
 30
0.0
 11
4532.2124524800428844
 21
591.2575056936732381
 31
0.0
  0
ARC
  5
242CD
  8
0
 10
4532.1299745000396797
 20
591.2632279701463176
 30
0.0
 40
0.0826762458821125
 50
278.7987771596182256
 51
356.0312104063303877
  0
LINE
  5
242CE
  8
0
 10
4532.1426210508998338
 20
591.1815246875653429
 30
0.0
 11
4524.9948826949002978
 21
591.1817757997653189
 31
0.0
  0
ARC
  5
242CF
  8
0
 10
4525.0069528484173134
 20
591.2629589779425032
 30
0.0
 40
0.0820755568051146
 50
183.8293813992376045
 51
261.5433263201658178
  0
LINE
  5
242D0
  8
0
 10
4524.9250605374645602
 20
591.2574775153930204
 30
0.0
 11
4524.9250510135580043
 21
593.634046064330505
 31
0.0
  0
ARC
  5
242D1
  8
0
 10
4514.0558611525475499
 20
591.0802901858402265
 30
0.0
 40
0.0826573140842531
 50
98.7882941876517862
 51
176.0416938207403064
  0
LINE
  5
242D2
  8
0
 10
4514.0432324429993969
 20
591.161977071365186
 30
0.0
 11
4521.1909708020002654
 21
591.1619756151653746
 31
0.0
  0
ARC
  5
242D3
  8
0
 10
4521.178354800690613
 20
591.0803084817431454
 30
0.0
 40
0.0826358528148742
 50
3.9639699068362289
 51
81.2183212518676072
  0
LINE
  5
242D4
  8
0
 10
4521.2607929653204337
 20
591.086021027848119
 30
0.0
 11
4521.2608024800420026
 21
588.7094556936732488
 31
0.0
  0
ARC
  5
242D5
  8
0
 10
4521.1783245000397073
 20
588.7151779701463283
 30
0.0
 40
0.0826762458821125
 50
278.7987771596182256
 51
356.0312104063303877
  0
LINE
  5
242D6
  8
0
 10
4521.1909710509007709
 20
588.6334746875653536
 30
0.0
 11
4514.0432326949003254
 21
588.6337257997653296
 31
0.0
  0
ARC
  5
242D7
  8
0
 10
4514.0553028484182505
 20
588.714908977942514
 30
0.0
 40
0.0820755568051146
 50
183.8293813992376045
 51
261.5433263201658178
  0
LINE
  5
242D8
  8
0
 10
4513.9734105374645878
 20
588.7094275153930312
 30
0.0
 11
4513.973401013558032
 21
591.0859960643305158
 31
0.0
  0
ARC
  5
242D9
  8
0
 10
4521.3569611525472283
 20
591.0802901858402265
 30
0.0
 40
0.0826573140842531
 50
98.7882941876517862
 51
176.0416938207403064
  0
LINE
  5
242DA
  8
0
 10
4521.3443324429999848
 20
591.161977071365186
 30
0.0
 11
4528.4920708020008533
 21
591.1619756151653746
 31
0.0
  0
ARC
  5
242DB
  8
0
 10
4528.4794548006912009
 20
591.0803084817431454
 30
0.0
 40
0.0826358528148742
 50
3.9639699068362289
 51
81.2183212518676072
  0
LINE
  5
242DC
  8
0
 10
4528.5618929653201121
 20
591.086021027848119
 30
0.0
 11
4528.561902480041681
 21
588.7094556936732488
 31
0.0
  0
ARC
  5
242DD
  8
0
 10
4528.4794245000393857
 20
588.7151779701463283
 30
0.0
 40
0.0826762458821125
 50
278.7987771596182256
 51
356.0312104063303877
  0
LINE
  5
242DE
  8
0
 10
4528.4920710509013588
 20
588.6334746875653536
 30
0.0
 11
4521.3443326949000038
 21
588.6337257997653296
 31
0.0
  0
ARC
  5
242DF
  8
0
 10
4521.3564028484170194
 20
588.714908977942514
 30
0.0
 40
0.0820755568051146
 50
183.8293813992376045
 51
261.5433263201658178
  0
LINE
  5
242E0
  8
0
 10
4521.2745105374642662
 20
588.7094275153930312
 30
0.0
 11
4521.2745010135568009
 21
591.0859960643305158
 31
0.0
  0
ARC
  5
242E1
  8
0
 10
4528.6580611525469067
 20
591.0802901858402265
 30
0.0
 40
0.0826573140842531
 50
98.7882941876517862
 51
176.0416938207403064
  0
LINE
  5
242E2
  8
0
 10
4528.6454324429996632
 20
591.161977071365186
 30
0.0
 11
4535.7931708019996222
 21
591.1619756151653746
 31
0.0
  0
ARC
  5
242E3
  8
0
 10
4535.7805548006908793
 20
591.0803084817431454
 30
0.0
 40
0.0826358528148742
 50
3.9639699068362289
 51
81.2183212518676072
  0
LINE
  5
242E4
  8
0
 10
4535.8629929653197905
 20
591.086021027848119
 30
0.0
 11
4535.8630024800422689
 21
588.7094556936732488
 31
0.0
  0
ARC
  5
242E5
  8
0
 10
4535.7805245000390642
 20
588.7151779701463283
 30
0.0
 40
0.0826762458821125
 50
278.7987771596182256
 51
356.0312104063303877
  0
LINE
  5
242E6
  8
0
 10
4535.7931710509001277
 20
588.6334746875653536
 30
0.0
 11
4528.6454326948996822
 21
588.6337257997653296
 31
0.0
  0
ARC
  5
242E7
  8
0
 10
4528.6575028484166978
 20
588.714908977942514
 30
0.0
 40
0.0820755568051146
 50
183.8293813992376045
 51
261.5433263201658178
  0
LINE
  5
242E8
  8
0
 10
4528.5756105374648541
 20
588.7094275153930312
 30
0.0
 11
4528.5756010135573888
 21
591.0859960643305158
 31
0.0
  0
ARC
  5
242E9
  8
0
 10
4510.4053111525481654
 20
588.5322401858402372
 30
0.0
 40
0.0826573140842531
 50
98.7882941876517862
 51
176.0416938207403064
  0
LINE
  5
242EA
  8
0
 10
4510.3926824430000124
 20
588.6139270713653104
 30
0.0
 11
4517.5404208020008809
 21
588.613925615165158
 31
0.0
  0
ARC
  5
242EB
  8
0
 10
4517.5278048006921381
 20
588.5322584817431562
 30
0.0
 40
0.0826358528148742
 50
3.9639699068362289
 51
81.2183212518676072
  0
LINE
  5
242EC
  8
0
 10
4517.6102429653210493
 20
588.5379710278481298
 30
0.0
 11
4517.6102524800417086
 21
586.1614056936731458
 31
0.0
  0
ARC
  5
242ED
  8
0
 10
4517.5277745000394134
 20
586.1671279701463391
 30
0.0
 40
0.0826762458821125
 50
278.7987771596182256
 51
356.0312104063303877
  0
LINE
  5
242EE
  8
0
 10
4517.5404210509013865
 20
586.0854246875652507
 30
0.0
 11
4510.3926826949000315
 21
586.0856757997653403
 31
0.0
  0
ARC
  5
242EF
  8
0
 10
4510.4047528484179566
 20
586.166858977942411
 30
0.0
 40
0.0820755568051146
 50
183.8293813992376045
 51
261.5433263201658178
  0
LINE
  5
242F0
  8
0
 10
4510.3228605374642939
 20
586.1613775153930419
 30
0.0
 11
4510.3228510135568285
 21
588.5379460643305265
 31
0.0
  0
ARC
  5
242F1
  8
0
 10
4517.7064111525478438
 20
588.5322401858402372
 30
0.0
 40
0.0826573140842531
 50
98.7882941876517862
 51
176.0416938207403064
  0
LINE
  5
242F2
  8
0
 10
4517.6937824429996908
 20
588.6139270713653104
 30
0.0
 11
4524.8415208019996498
 21
588.613925615165158
 31
0.0
  0
ARC
  5
242F3
  8
0
 10
4524.828904800690907
 20
588.5322584817431562
 30
0.0
 40
0.0826358528148742
 50
3.9639699068362289
 51
81.2183212518676072
  0
LINE
  5
242F4
  8
0
 10
4524.9113429653198182
 20
588.5379710278481298
 30
0.0
 11
4524.911352480041387
 21
586.1614056936731458
 31
0.0
  0
ARC
  5
242F5
  8
0
 10
4524.8288745000400013
 20
586.1671279701463391
 30
0.0
 40
0.0826762458821125
 50
278.7987771596182256
 51
356.0312104063303877
  0
LINE
  5
242F6
  8
0
 10
4524.8415210509001554
 20
586.0854246875652507
 30
0.0
 11
4517.6937826948997099
 21
586.0856757997653403
 31
0.0
  0
ARC
  5
242F7
  8
0
 10
4517.7058528484167255
 20
586.166858977942411
 30
0.0
 40
0.0820755568051146
 50
183.8293813992376045
 51
261.5433263201658178
  0
LINE
  5
242F8
  8
0
 10
4517.6239605374648818
 20
586.1613775153930419
 30
0.0
 11
4517.6239510135574164
 21
588.5379460643305265
 31
0.0
  0
ARC
  5
242F9
  8
0
 10
4525.0075111525466127
 20
588.5322401858402372
 30
0.0
 40
0.0826573140842531
 50
98.7882941876517862
 51
176.0416938207403064
  0
LINE
  5
242FA
  8
0
 10
4524.9948824430002787
 20
588.6139270713653104
 30
0.0
 11
4532.1426208020002377
 21
588.613925615165158
 31
0.0
  0
ARC
  5
242FB
  8
0
 10
4532.1300048006905854
 20
588.5322584817431562
 30
0.0
 40
0.0826358528148742
 50
3.9639699068362289
 51
81.2183212518676072
  0
LINE
  5
242FC
  8
0
 10
4532.2124429653204061
 20
588.5379710278481298
 30
0.0
 11
4532.2124524800428844
 21
586.1614056936731458
 31
0.0
  0
ARC
  5
242FD
  8
0
 10
4532.1299745000396797
 20
586.1671279701463391
 30
0.0
 40
0.0826762458821125
 50
278.7987771596182256
 51
356.0312104063303877
  0
LINE
  5
242FE
  8
0
 10
4532.1426210508998338
 20
586.0854246875652507
 30
0.0
 11
4524.9948826949002978
 21
586.0856757997653403
 31
0.0
  0
ARC
  5
242FF
  8
0
 10
4525.0069528484173134
 20
586.166858977942411
 30
0.0
 40
0.0820755568051146
 50
183.8293813992376045
 51
261.5433263201658178
  0
LINE
  5
24300
  8
0
 10
4524.9250605374645602
 20
586.1613775153930419
 30
0.0
 11
4524.9250510135580043
 21
588.5379460643305265
 31
0.0
  0
ARC
  5
24301
  8
0
 10
4514.0558611525475499
 20
585.984190185840248
 30
0.0
 40
0.0826573140842531
 50
98.7882941876517862
 51
176.0416938207403064
  0
LINE
  5
24302
  8
0
 10
4514.0432324429993969
 20
586.0658770713653212
 30
0.0
 11
4521.1909708020002654
 21
586.0658756151652824
 31
0.0
  0
ARC
  5
24303
  8
0
 10
4521.178354800690613
 20
585.9842084817430532
 30
0.0
 40
0.0826358528148742
 50
3.9639699068362289
 51
81.2183212518676072
  0
LINE
  5
24304
  8
0
 10
4521.2607929653204337
 20
585.9899210278481405
 30
0.0
 11
4521.2608024800420026
 21
583.6133556936731566
 31
0.0
  0
ARC
  5
24305
  8
0
 10
4521.1783245000397073
 20
583.6190779701463498
 30
0.0
 40
0.0826762458821125
 50
278.7987771596182256
 51
356.0312104063303877
  0
LINE
  5
24306
  8
0
 10
4521.1909710509007709
 20
583.5373746875651477
 30
0.0
 11
4514.0432326949003254
 21
583.5376257997652374
 31
0.0
  0
ARC
  5
24307
  8
0
 10
4514.0553028484182505
 20
583.6188089779424217
 30
0.0
 40
0.0820755568051146
 50
183.8293813992376045
 51
261.5433263201658178
  0
LINE
  5
24308
  8
0
 10
4513.9734105374645878
 20
583.6133275153930526
 30
0.0
 11
4513.973401013558032
 21
585.9898960643305372
 31
0.0
  0
ARC
  5
24309
  8
0
 10
4521.3569611525472283
 20
585.984190185840248
 30
0.0
 40
0.0826573140842531
 50
98.7882941876517862
 51
176.0416938207403064
  0
LINE
  5
2430A
  8
0
 10
4521.3443324429999848
 20
586.0658770713653212
 30
0.0
 11
4528.4920708020008533
 21
586.0658756151652824
 31
0.0
  0
ARC
  5
2430B
  8
0
 10
4528.4794548006912009
 20
585.9842084817430532
 30
0.0
 40
0.0826358528148742
 50
3.9639699068362289
 51
81.2183212518676072
  0
LINE
  5
2430C
  8
0
 10
4528.5618929653201121
 20
585.9899210278481405
 30
0.0
 11
4528.561902480041681
 21
583.6133556936731566
 31
0.0
  0
ARC
  5
2430D
  8
0
 10
4528.4794245000393857
 20
583.6190779701463498
 30
0.0
 40
0.0826762458821125
 50
278.7987771596182256
 51
356.0312104063303877
  0
LINE
  5
2430E
  8
0
 10
4528.4920710509013588
 20
583.5373746875651477
 30
0.0
 11
4521.3443326949000038
 21
583.5376257997652374
 31
0.0
  0
ARC
  5
2430F
  8
0
 10
4521.3564028484170194
 20
583.6188089779424217
 30
0.0
 40
0.0820755568051146
 50
183.8293813992376045
 51
261.5433263201658178
  0
LINE
  5
24310
  8
0
 10
4521.2745105374642662
 20
583.6133275153930526
 30
0.0
 11
4521.2745010135568009
 21
585.9898960643305372
 31
0.0
  0
ARC
  5
24311
  8
0
 10
4528.6580611525469067
 20
585.984190185840248
 30
0.0
 40
0.0826573140842531
 50
98.7882941876517862
 51
176.0416938207403064
  0
LINE
  5
24312
  8
0
 10
4528.6454324429996632
 20
586.0658770713653212
 30
0.0
 11
4535.7931708019996222
 21
586.0658756151652824
 31
0.0
  0
ARC
  5
24313
  8
0
 10
4535.7805548006908793
 20
585.9842084817430532
 30
0.0
 40
0.0826358528148742
 50
3.9639699068362289
 51
81.2183212518676072
  0
LINE
  5
24314
  8
0
 10
4535.8629929653197905
 20
585.9899210278481405
 30
0.0
 11
4535.8630024800422689
 21
583.6133556936731566
 31
0.0
  0
ARC
  5
24315
  8
0
 10
4535.7805245000390642
 20
583.6190779701463498
 30
0.0
 40
0.0826762458821125
 50
278.7987771596182256
 51
356.0312104063303877
  0
LINE
  5
24316
  8
0
 10
4535.7931710509001277
 20
583.5373746875651477
 30
0.0
 11
4528.6454326948996822
 21
583.5376257997652374
 31
0.0
  0
ARC
  5
24317
  8
0
 10
4528.6575028484166978
 20
583.6188089779424217
 30
0.0
 40
0.0820755568051146
 50
183.8293813992376045
 51
261.5433263201658178
  0
LINE
  5
24318
  8
0
 10
4528.5756105374648541
 20
583.6133275153930526
 30
0.0
 11
4528.5756010135573888
 21
585.9898960643305372
 31
0.0
  0
ARC
  5
24319
  8
0
 10
4525.0075111525466127
 20
583.436140185840145
 30
0.0
 40
0.0826573140842531
 50
98.7882941876517862
 51
176.0416938207403064
  0
LINE
  5
2431A
  8
0
 10
4524.9948824430002787
 20
583.5178270713653319
 30
0.0
 11
4532.1426208020002377
 21
583.5178256151651794
 31
0.0
  0
ARC
  5
2431B
  8
0
 10
4532.1300048006905854
 20
583.4361584817431776
 30
0.0
 40
0.0826358528148742
 50
3.9639699068362289
 51
81.2183212518676072
  0
LINE
  5
2431C
  8
0
 10
4532.2124429653204061
 20
583.4418710278481512
 30
0.0
 11
4532.2124524800428844
 21
581.0653056936731673
 31
0.0
  0
ARC
  5
2431D
  8
0
 10
4532.1299745000396797
 20
581.0710279701463605
 30
0.0
 40
0.0826762458821125
 50
278.7987771596182256
 51
356.0312104063303877
  0
LINE
  5
2431E
  8
0
 10
4532.1426210508998338
 20
580.9893246875652721
 30
0.0
 11
4524.9948826949002978
 21
580.9895757997652481
 31
0.0
  0
ARC
  5
2431F
  8
0
 10
4525.0069528484173134
 20
581.0707589779424325
 30
0.0
 40
0.0820755568051146
 50
183.8293813992376045
 51
261.5433263201658178
  0
LINE
  5
24320
  8
0
 10
4524.9250605374645602
 20
581.0652775153929497
 30
0.0
 11
4524.9250510135580043
 21
583.441846064330548
 31
0.0
  0
ARC
  5
24321
  8
0
 10
4517.7064111525478438
 20
583.436140185840145
 30
0.0
 40
0.0826573140842531
 50
98.7882941876517862
 51
176.0416938207403064
  0
LINE
  5
24322
  8
0
 10
4517.6937824429996908
 20
583.5178270713653319
 30
0.0
 11
4524.8415208019996498
 21
583.5178256151651794
 31
0.0
  0
ARC
  5
24323
  8
0
 10
4524.828904800690907
 20
583.4361584817431776
 30
0.0
 40
0.0826358528148742
 50
3.9639699068362289
 51
81.2183212518676072
  0
LINE
  5
24324
  8
0
 10
4524.9113429653198182
 20
583.4418710278481512
 30
0.0
 11
4524.911352480041387
 21
581.0653056936731673
 31
0.0
  0
ARC
  5
24325
  8
0
 10
4524.8288745000400013
 20
581.0710279701463605
 30
0.0
 40
0.0826762458821125
 50
278.7987771596182256
 51
356.0312104063303877
  0
LINE
  5
24326
  8
0
 10
4524.8415210509001554
 20
580.9893246875652721
 30
0.0
 11
4517.6937826948997099
 21
580.9895757997652481
 31
0.0
  0
ARC
  5
24327
  8
0
 10
4517.7058528484167255
 20
581.0707589779424325
 30
0.0
 40
0.0820755568051146
 50
183.8293813992376045
 51
261.5433263201658178
  0
LINE
  5
24328
  8
0
 10
4517.6239605374648818
 20
581.0652775153929497
 30
0.0
 11
4517.6239510135574164
 21
583.441846064330548
 31
0.0
  0
ARC
  5
24329
  8
0
 10
4510.4053111525481654
 20
583.436140185840145
 30
0.0
 40
0.0826573140842531
 50
98.7882941876517862
 51
176.0416938207403064
  0
LINE
  5
2432A
  8
0
 10
4510.3926824430000124
 20
583.5178270713653319
 30
0.0
 11
4517.5404208020008809
 21
583.5178256151651794
 31
0.0
  0
ARC
  5
2432B
  8
0
 10
4517.5278048006921381
 20
583.4361584817431776
 30
0.0
 40
0.0826358528148742
 50
3.9639699068362289
 51
81.2183212518676072
  0
LINE
  5
2432C
  8
0
 10
4517.6102429653210493
 20
583.4418710278481512
 30
0.0
 11
4517.6102524800417086
 21
581.0653056936731673
 31
0.0
  0
ARC
  5
2432D
  8
0
 10
4517.5277745000394134
 20
581.0710279701463605
 30
0.0
 40
0.0826762458821125
 50
278.7987771596182256
 51
356.0312104063303877
  0
LINE
  5
2432E
  8
0
 10
4517.5404210509013865
 20
580.9893246875652721
 30
0.0
 11
4510.3926826949000315
 21
580.9895757997652481
 31
0.0
  0
ARC
  5
2432F
  8
0
 10
4510.4047528484179566
 20
581.0707589779424325
 30
0.0
 40
0.0820755568051146
 50
183.8293813992376045
 51
261.5433263201658178
  0
LINE
  5
24330
  8
0
 10
4510.3228605374642939
 20
581.0652775153929497
 30
0.0
 11
4510.3228510135568285
 21
583.441846064330548
 31
0.0
  0
ARC
  5
24331
  8
0
 10
4514.0558611525475499
 20
580.8880901858401558
 30
0.0
 40
0.0826573140842531
 50
98.7882941876517862
 51
176.0416938207403064
  0
LINE
  5
24332
  8
0
 10
4514.0432324429993969
 20
580.9697770713653426
 30
0.0
 11
4521.1909708020002654
 21
580.9697756151653039
 31
0.0
  0
ARC
  5
24333
  8
0
 10
4521.178354800690613
 20
580.888108481742961
 30
0.0
 40
0.0826358528148742
 50
3.9639699068329799
 51
81.2183212518676072
  0
LINE
  5
24334
  8
0
 10
4521.2607929653204337
 20
580.893821027848162
 30
0.0
 11
4521.2608024800420026
 21
578.5172556936730643
 31
0.0
  0
ARC
  5
24335
  8
0
 10
4521.1783245000397073
 20
578.5229779701461439
 30
0.0
 40
0.0826762458821125
 50
278.7987771596182256
 51
356.0312104063303877
  0
LINE
  5
24336
  8
0
 10
4521.1909710509007709
 20
578.4412746875651692
 30
0.0
 11
4514.0432326949003254
 21
578.4415257997651452
 31
0.0
  0
ARC
  5
24337
  8
0
 10
4514.0553028484182505
 20
578.5227089779424432
 30
0.0
 40
0.0820755568051146
 50
183.8293813992376045
 51
261.5433263201658178
  0
LINE
  5
24338
  8
0
 10
4513.9734105374645878
 20
578.5172275153929604
 30
0.0
 11
4513.973401013558032
 21
580.893796064330445
 31
0.0
  0
ARC
  5
24339
  8
0
 10
4521.3569611525472283
 20
580.8880901858401558
 30
0.0
 40
0.0826573140842531
 50
98.7882941876517862
 51
176.0416938207403064
  0
LINE
  5
2433A
  8
0
 10
4521.3443324429999848
 20
580.9697770713653426
 30
0.0
 11
4528.4920708020008533
 21
580.9697756151653039
 31
0.0
  0
ARC
  5
2433B
  8
0
 10
4528.4794548006912009
 20
580.888108481742961
 30
0.0
 40
0.0826358528148742
 50
3.9639699068329799
 51
81.2183212518676072
  0
LINE
  5
2433C
  8
0
 10
4528.5618929653201121
 20
580.893821027848162
 30
0.0
 11
4528.561902480041681
 21
578.5172556936730643
 31
0.0
  0
ARC
  5
2433D
  8
0
 10
4528.4794245000393857
 20
578.5229779701461439
 30
0.0
 40
0.0826762458821125
 50
278.7987771596182256
 51
356.0312104063303877
  0
LINE
  5
2433E
  8
0
 10
4528.4920710509013588
 20
578.4412746875651692
 30
0.0
 11
4521.3443326949000038
 21
578.4415257997651452
 31
0.0
  0
ARC
  5
2433F
  8
0
 10
4521.3564028484170194
 20
578.5227089779424432
 30
0.0
 40
0.0820755568051146
 50
183.8293813992376045
 51
261.5433263201658178
  0
LINE
  5
24340
  8
0
 10
4521.2745105374642662
 20
578.5172275153929604
 30
0.0
 11
4521.2745010135568009
 21
580.893796064330445
 31
0.0
  0
ARC
  5
24341
  8
0
 10
4528.6580611525469067
 20
580.8880901858401558
 30
0.0
 40
0.0826573140842531
 50
98.7882941876517862
 51
176.0416938207403064
  0
LINE
  5
24342
  8
0
 10
4528.6454324429996632
 20
580.9697770713653426
 30
0.0
 11
4535.7931708019996222
 21
580.9697756151653039
 31
0.0
  0
ARC
  5
24343
  8
0
 10
4535.7805548006908793
 20
580.888108481742961
 30
0.0
 40
0.0826358528148742
 50
3.9639699068362289
 51
81.2183212518676072
  0
LINE
  5
24344
  8
0
 10
4535.8629929653197905
 20
580.893821027848162
 30
0.0
 11
4535.8630024800422689
 21
578.5172556936730643
 31
0.0
  0
ARC
  5
24345
  8
0
 10
4535.7805245000390642
 20
578.5229779701461439
 30
0.0
 40
0.0826762458821125
 50
278.7987771596182256
 51
356.0312104063303877
  0
LINE
  5
24346
  8
0
 10
4535.7931710509001277
 20
578.4412746875651692
 30
0.0
 11
4528.6454326948996822
 21
578.4415257997651452
 31
0.0
  0
ARC
  5
24347
  8
0
 10
4528.6575028484166978
 20
578.5227089779424432
 30
0.0
 40
0.0820755568051146
 50
183.8293813992376045
 51
261.5433263201658178
  0
LINE
  5
24348
  8
0
 10
4528.5756105374648541
 20
578.5172275153929604
 30
0.0
 11
4528.5756010135573888
 21
580.893796064330445
 31
0.0
  0
ARC
  5
24349
  8
0
 10
4525.0075111525466127
 20
578.3400401858401665
 30
0.0
 40
0.0826573140842531
 50
98.7882941876517862
 51
176.0416938207403064
  0
LINE
  5
2434A
  8
0
 10
4524.9948824430002787
 20
578.4217270713653534
 30
0.0
 11
4532.1426208020002377
 21
578.4217256151653146
 31
0.0
  0
ARC
  5
2434B
  8
0
 10
4532.1300048006905854
 20
578.3400584817430854
 30
0.0
 40
0.0826358528148742
 50
3.9639699068329799
 51
81.2183212518676072
  0
LINE
  5
2434C
  8
0
 10
4532.2124429653204061
 20
578.345771027848059
 30
0.0
 11
4532.2124524800428844
 21
575.9692056936731888
 31
0.0
  0
ARC
  5
2434D
  8
0
 10
4532.1299745000396797
 20
575.9749279701462683
 30
0.0
 40
0.0826762458821125
 50
278.7987771596182256
 51
356.0312104063303877
  0
LINE
  5
2434E
  8
0
 10
4532.1426210508998338
 20
575.8932246875651799
 30
0.0
 11
4524.9948826949002978
 21
575.8934757997652696
 31
0.0
  0
ARC
  5
2434F
  8
0
 10
4525.0069528484173134
 20
575.9746589779424539
 30
0.0
 40
0.0820755568051146
 50
183.8293813992376045
 51
261.5433263201658178
  0
LINE
  5
24350
  8
0
 10
4524.9250605374645602
 20
575.9691775153930848
 30
0.0
 11
4524.9250510135580043
 21
578.3457460643305694
 31
0.0
  0
ARC
  5
24351
  8
0
 10
4517.7064111525478438
 20
578.3400401858401665
 30
0.0
 40
0.0826573140842531
 50
98.7882941876517862
 51
176.0416938207403064
  0
LINE
  5
24352
  8
0
 10
4517.6937824429996908
 20
578.4217270713653534
 30
0.0
 11
4524.8415208019996498
 21
578.4217256151653146
 31
0.0
  0
ARC
  5
24353
  8
0
 10
4524.828904800690907
 20
578.3400584817430854
 30
0.0
 40
0.0826358528148742
 50
3.9639699068329799
 51
81.2183212518676072
  0
LINE
  5
24354
  8
0
 10
4524.9113429653198182
 20
578.345771027848059
 30
0.0
 11
4524.911352480041387
 21
575.9692056936731888
 31
0.0
  0
ARC
  5
24355
  8
0
 10
4524.8288745000400013
 20
575.9749279701462683
 30
0.0
 40
0.0826762458821125
 50
278.7987771596182256
 51
356.0312104063303877
  0
LINE
  5
24356
  8
0
 10
4524.8415210509001554
 20
575.8932246875651799
 30
0.0
 11
4517.6937826948997099
 21
575.8934757997652696
 31
0.0
  0
ARC
  5
24357
  8
0
 10
4517.7058528484167255
 20
575.9746589779424539
 30
0.0
 40
0.0820755568051146
 50
183.8293813992376045
 51
261.5433263201658178
  0
LINE
  5
24358
  8
0
 10
4517.6239605374648818
 20
575.9691775153930848
 30
0.0
 11
4517.6239510135574164
 21
578.3457460643305694
 31
0.0
  0
ARC
  5
24359
  8
0
 10
4510.4053111525481654
 20
578.3400401858401665
 30
0.0
 40
0.0826573140842531
 50
98.7882941876517862
 51
176.0416938207403064
  0
LINE
  5
2435A
  8
0
 10
4510.3926824430000124
 20
578.4217270713653534
 30
0.0
 11
4517.5404208020008809
 21
578.4217256151653146
 31
0.0
  0
ARC
  5
2435B
  8
0
 10
4517.5278048006921381
 20
578.3400584817430854
 30
0.0
 40
0.0826358528148742
 50
3.9639699068329799
 51
81.2183212518676072
  0
LINE
  5
2435C
  8
0
 10
4517.6102429653210493
 20
578.345771027848059
 30
0.0
 11
4517.6102524800417086
 21
575.9692056936731888
 31
0.0
  0
ARC
  5
2435D
  8
0
 10
4517.5277745000394134
 20
575.9749279701462683
 30
0.0
 40
0.0826762458821125
 50
278.7987771596182256
 51
356.0312104063303877
  0
LINE
  5
2435E
  8
0
 10
4517.5404210509013865
 20
575.8932246875651799
 30
0.0
 11
4510.3926826949000315
 21
575.8934757997652696
 31
0.0
  0
ARC
  5
2435F
  8
0
 10
4510.4047528484179566
 20
575.9746589779424539
 30
0.0
 40
0.0820755568051146
 50
183.8293813992376045
 51
261.5433263201658178
  0
LINE
  5
24360
  8
0
 10
4510.3228605374642939
 20
575.9691775153930848
 30
0.0
 11
4510.3228510135568285
 21
578.3457460643305694
 31
0.0
  0
ARC
  5
24361
  8
0
 10
4514.0558611525475499
 20
575.7919901858400635
 30
0.0
 40
0.0826573140842531
 50
98.7882941876517862
 51
176.0416938207403064
  0
LINE
  5
24362
  8
0
 10
4514.0432324429993969
 20
575.8736770713652504
 30
0.0
 11
4521.1909708020002654
 21
575.8736756151653253
 31
0.0
  0
ARC
  5
24363
  8
0
 10
4521.178354800690613
 20
575.7920084817429824
 30
0.0
 40
0.0826358528148742
 50
3.9639699068329799
 51
81.2183212518676072
  0
LINE
  5
24364
  8
0
 10
4521.2607929653204337
 20
575.7977210278481834
 30
0.0
 11
4521.2608024800420026
 21
573.4211556936731995
 31
0.0
  0
ARC
  5
24365
  8
0
 10
4521.1783245000397073
 20
573.4268779701461654
 30
0.0
 40
0.0826762458821125
 50
278.7987771596182256
 51
356.0312104063303877
  0
LINE
  5
24366
  8
0
 10
4521.1909710509007709
 20
573.3451746875653043
 30
0.0
 11
4514.0432326949003254
 21
573.3454257997651666
 31
0.0
  0
ARC
  5
24367
  8
0
 10
4514.0553028484182505
 20
573.426608977942351
 30
0.0
 40
0.0820755568051146
 50
183.8293813992376045
 51
261.5433263201658178
  0
LINE
  5
24368
  8
0
 10
4513.9734105374645878
 20
573.4211275153929819
 30
0.0
 11
4513.973401013558032
 21
575.7976960643304665
 31
0.0
  0
ARC
  5
24369
  8
0
 10
4521.3569611525472283
 20
575.7919901858400635
 30
0.0
 40
0.0826573140842531
 50
98.7882941876517862
 51
176.0416938207403064
  0
LINE
  5
2436A
  8
0
 10
4521.3443324429999848
 20
575.8736770713652504
 30
0.0
 11
4528.4920708020008533
 21
575.8736756151653253
 31
0.0
  0
ARC
  5
2436B
  8
0
 10
4528.4794548006912009
 20
575.7920084817429824
 30
0.0
 40
0.0826358528148742
 50
3.9639699068329799
 51
81.2183212518676072
  0
LINE
  5
2436C
  8
0
 10
4528.5618929653201121
 20
575.7977210278481834
 30
0.0
 11
4528.561902480041681
 21
573.4211556936731995
 31
0.0
  0
ARC
  5
2436D
  8
0
 10
4528.4794245000393857
 20
573.4268779701461654
 30
0.0
 40
0.0826762458821125
 50
278.7987771596182256
 51
356.0312104063303877
  0
LINE
  5
2436E
  8
0
 10
4528.4920710509013588
 20
573.3451746875653043
 30
0.0
 11
4521.3443326949000038
 21
573.3454257997651666
 31
0.0
  0
ARC
  5
2436F
  8
0
 10
4521.3564028484170194
 20
573.426608977942351
 30
0.0
 40
0.0820755568051146
 50
183.8293813992376045
 51
261.5433263201658178
  0
LINE
  5
24370
  8
0
 10
4521.2745105374642662
 20
573.4211275153929819
 30
0.0
 11
4521.2745010135568009
 21
575.7976960643304665
 31
0.0
  0
ARC
  5
24371
  8
0
 10
4528.6580611525469067
 20
575.7919901858400635
 30
0.0
 40
0.0826573140842531
 50
98.7882941876517862
 51
176.0416938207403064
  0
LINE
  5
24372
  8
0
 10
4528.6454324429996632
 20
575.8736770713652504
 30
0.0
 11
4535.7931708019996222
 21
575.8736756151653253
 31
0.0
  0
ARC
  5
24373
  8
0
 10
4535.7805548006908793
 20
575.7920084817429824
 30
0.0
 40
0.0826358528148742
 50
3.9639699068362289
 51
81.2183212518676072
  0
LINE
  5
24374
  8
0
 10
4535.8629929653197905
 20
575.7977210278481834
 30
0.0
 11
4535.8630024800422689
 21
573.4211556936731995
 31
0.0
  0
ARC
  5
24375
  8
0
 10
4535.7805245000390642
 20
573.4268779701461654
 30
0.0
 40
0.0826762458821125
 50
278.7987771596182256
 51
356.0312104063303877
  0
LINE
  5
24376
  8
0
 10
4535.7931710509001277
 20
573.3451746875653043
 30
0.0
 11
4528.6454326948996822
 21
573.3454257997651666
 31
0.0
  0
ARC
  5
24377
  8
0
 10
4528.6575028484166978
 20
573.426608977942351
 30
0.0
 40
0.0820755568051146
 50
183.8293813992376045
 51
261.5433263201658178
  0
LINE
  5
24378
  8
0
 10
4528.5756105374648541
 20
573.4211275153929819
 30
0.0
 11
4528.5756010135573888
 21
575.7976960643304665
 31
0.0
  0
ARC
  5
24379
  8
0
 10
4525.0075111525466127
 20
573.2439401858400743
 30
0.0
 40
0.0826573140842531
 50
98.7882941876517862
 51
176.0416938207403064
  0
LINE
  5
2437A
  8
0
 10
4524.9948824430002787
 20
573.3256270713651475
 30
0.0
 11
4532.1426208020002377
 21
573.3256256151653361
 31
0.0
  0
ARC
  5
2437B
  8
0
 10
4532.1300048006905854
 20
573.2439584817431069
 30
0.0
 40
0.0826358528148742
 50
3.9639699068329799
 51
81.2183212518676072
  0
LINE
  5
2437C
  8
0
 10
4532.2124429653204061
 20
573.2496710278479668
 30
0.0
 11
4532.2124524800428844
 21
570.8731056936730965
 31
0.0
  0
ARC
  5
2437D
  8
0
 10
4532.1299745000396797
 20
570.8788279701462898
 30
0.0
 40
0.0826762458821125
 50
278.7987771596182256
 51
356.0312104063303877
  0
LINE
  5
2437E
  8
0
 10
4532.1426210508998338
 20
570.7971246875652014
 30
0.0
 11
4524.9948826949002978
 21
570.797375799765291
 31
0.0
  0
ARC
  5
2437F
  8
0
 10
4525.0069528484173134
 20
570.8785589779424754
 30
0.0
 40
0.0820755568051146
 50
183.8293813992376045
 51
261.5433263201658178
  0
LINE
  5
24380
  8
0
 10
4524.9250605374645602
 20
570.8730775153929926
 30
0.0
 11
4524.9250510135580043
 21
573.2496460643304772
 31
0.0
  0
ARC
  5
24381
  8
0
 10
4517.7064111525478438
 20
573.2439401858400743
 30
0.0
 40
0.0826573140842531
 50
98.7882941876517862
 51
176.0416938207403064
  0
LINE
  5
24382
  8
0
 10
4517.6937824429996908
 20
573.3256270713651475
 30
0.0
 11
4524.8415208019996498
 21
573.3256256151653361
 31
0.0
  0
ARC
  5
24383
  8
0
 10
4524.828904800690907
 20
573.2439584817431069
 30
0.0
 40
0.0826358528148742
 50
3.9639699068329799
 51
81.2183212518676072
  0
LINE
  5
24384
  8
0
 10
4524.9113429653198182
 20
573.2496710278479668
 30
0.0
 11
4524.911352480041387
 21
570.8731056936730965
 31
0.0
  0
ARC
  5
24385
  8
0
 10
4524.8288745000400013
 20
570.8788279701462898
 30
0.0
 40
0.0826762458821125
 50
278.7987771596182256
 51
356.0312104063303877
  0
LINE
  5
24386
  8
0
 10
4524.8415210509001554
 20
570.7971246875652014
 30
0.0
 11
4517.6937826948997099
 21
570.797375799765291
 31
0.0
  0
ARC
  5
24387
  8
0
 10
4517.7058528484167255
 20
570.8785589779424754
 30
0.0
 40
0.0820755568051146
 50
183.8293813992376045
 51
261.5433263201658178
  0
LINE
  5
24388
  8
0
 10
4517.6239605374648818
 20
570.8730775153929926
 30
0.0
 11
4517.6239510135574164
 21
573.2496460643304772
 31
0.0
  0
ARC
  5
24389
  8
0
 10
4510.4053111525481654
 20
573.2439401858400743
 30
0.0
 40
0.0826573140842531
 50
98.7882941876517862
 51
176.0416938207403064
  0
LINE
  5
2438A
  8
0
 10
4510.3926824430000124
 20
573.3256270713651475
 30
0.0
 11
4517.5404208020008809
 21
573.3256256151653361
 31
0.0
  0
ARC
  5
2438B
  8
0
 10
4517.5278048006921381
 20
573.2439584817431069
 30
0.0
 40
0.0826358528148742
 50
3.9639699068329799
 51
81.2183212518676072
  0
LINE
  5
2438C
  8
0
 10
4517.6102429653210493
 20
573.2496710278479668
 30
0.0
 11
4517.6102524800417086
 21
570.8731056936730965
 31
0.0
  0
ARC
  5
2438D
  8
0
 10
4517.5277745000394134
 20
570.8788279701462898
 30
0.0
 40
0.0826762458821125
 50
278.7987771596182256
 51
356.0312104063303877
  0
LINE
  5
2438E
  8
0
 10
4517.5404210509013865
 20
570.7971246875652014
 30
0.0
 11
4510.3926826949000315
 21
570.797375799765291
 31
0.0
  0
ARC
  5
2438F
  8
0
 10
4510.4047528484179566
 20
570.8785589779424754
 30
0.0
 40
0.0820755568051146
 50
183.8293813992376045
 51
261.5433263201658178
  0
LINE
  5
24390
  8
0
 10
4510.3228605374642939
 20
570.8730775153929926
 30
0.0
 11
4510.3228510135568285
 21
573.2496460643304772
 31
0.0
  0
ARC
  5
24391
  8
0
 10
4532.3084192838859963
 20
593.6285165290546502
 30
0.0
 40
0.0824538872278029
 50
98.6752550162744484
 51
176.1547205045253861
  0
LINE
  5
24392
  8
0
 10
4532.2959824430008666
 20
593.710027071365289
 30
0.0
 11
4538.9940367150202292
 21
593.7097753946195553
 31
0.0
  0
LINE
  5
24393
  8
0
 10
4538.9940367352846806
 20
591.1817758085874175
 30
0.0
 11
4532.2959826948999762
 21
591.1817757997653189
 31
0.0
  0
ARC
  5
24394
  8
0
 10
4532.3076267852893579
 20
591.2625660057731238
 30
0.0
 40
0.0816250098177938
 50
183.5741281445181983
 51
261.7985800050805096
  0
LINE
  5
24395
  8
0
 10
4532.2261605377725573
 20
591.2574775144876185
 30
0.0
 11
4532.2261510183298014
 21
593.6340460861431438
 31
0.0
  0
ARC
  5
24396
  8
0
 10
4540.4439526925671089
 20
591.5494601767193217
 30
0.0
 40
1.48214524480013
 50
180.6836061534017972
 51
191.0796124920007912
  0
LINE
  5
24397
  8
0
 10
4538.9619129404345585
 20
591.5317768572916748
 30
0.0
 11
4538.9619234577330644
 21
593.359767549265257
 31
0.0
  0
ARC
  5
24398
  8
0
 10
4540.4722698231280447
 20
593.3392321327166883
 30
0.0
 40
1.5104859637853101
 50
169.0263617270144891
 51
179.2210262292830123
  0
LINE
  5
24399
  8
0
 10
4538.9940673683004206
 20
593.6515692032653533
 30
0.0
 11
4538.9894032907086512
 21
593.6267642071458113
 31
0.0
  0
LINE
  5
2439A
  8
0
 10
4538.9940673683004206
 20
591.2401018595653568
 30
0.0
 11
4538.9894329947001097
 21
591.2646322019651279
 31
0.0
  0
ARC
  5
2439B
  8
0
 10
4532.3084192838859963
 20
598.7246165290547424
 30
0.0
 40
0.0824538872278029
 50
98.6752550162744484
 51
176.1547205045253861
  0
LINE
  5
2439C
  8
0
 10
4532.2959824430008666
 20
598.8061270713653812
 30
0.0
 11
4538.2730755799111648
 21
598.7947077420133155
 31
0.0
  0
LINE
  5
2439D
  8
0
 10
4538.9940367352819521
 20
596.2778758085875097
 30
0.0
 11
4532.2959826948999762
 21
596.2778757997652974
 31
0.0
  0
ARC
  5
2439E
  8
0
 10
4532.3076267852893579
 20
596.3586660057731024
 30
0.0
 40
0.0816250098177938
 50
183.5741281445181983
 51
261.7985800050805096
  0
LINE
  5
2439F
  8
0
 10
4532.2261605377725573
 20
596.3535775144877107
 30
0.0
 11
4532.2261510183298014
 21
598.7301460861433497
 31
0.0
  0
ARC
  5
243A0
  8
0
 10
4540.4439526925671089
 20
596.6455601767194139
 30
0.0
 40
1.48214524480013
 50
180.6836061534017972
 51
191.0796124920007912
  0
LINE
  5
243A1
  8
0
 10
4538.9619129404345585
 20
596.6278768572916533
 30
0.0
 11
4538.9619234577330644
 21
598.4558675492653492
 31
0.0
  0
ARC
  5
243A2
  8
0
 10
4540.4722698231289542
 20
598.4353321327166668
 30
0.0
 40
1.510485963787308
 50
169.0932626300790957
 51
179.221026229279687
  0
LINE
  5
243A3
  8
0
 10
4538.9940673683004206
 20
598.7476692032653318
 30
0.0
 11
4538.9890685673972257
 21
598.721132555724239
 31
0.0
  0
LINE
  5
243A4
  8
0
 10
4538.9940673683004206
 20
596.3362018595653353
 30
0.0
 11
4538.9894329947001097
 21
596.3607322019651065
 31
0.0
  0
ARC
  5
243A5
  8
0
 10
4532.3084192838859963
 20
588.5324165290546716
 30
0.0
 40
0.0824538872278029
 50
98.6752550162744484
 51
176.1547205045253861
  0
LINE
  5
243A6
  8
0
 10
4532.2959824430008666
 20
588.6139270713653104
 30
0.0
 11
4538.9940367150238671
 21
588.6136753946195768
 31
0.0
  0
LINE
  5
243A7
  8
0
 10
4538.9940367352792236
 20
586.085675808587439
 30
0.0
 11
4532.2959826948999762
 21
586.0856757997653403
 31
0.0
  0
ARC
  5
243A8
  8
0
 10
4532.3076267852893579
 20
586.1664660057731453
 30
0.0
 40
0.0816250098177938
 50
183.5741281445181983
 51
261.7985800050805096
  0
LINE
  5
243A9
  8
0
 10
4532.2261605377725573
 20
586.1613775144876399
 30
0.0
 11
4532.2261510183298014
 21
588.5379460861431653
 31
0.0
  0
ARC
  5
243AA
  8
0
 10
4540.4439526925671089
 20
586.4533601767193431
 30
0.0
 40
1.48214524480013
 50
180.6836061534017972
 51
191.0796124920007912
  0
LINE
  5
243AB
  8
0
 10
4538.9619129404345585
 20
586.4356768572916963
 30
0.0
 11
4538.9619234577330644
 21
588.2636675492653922
 31
0.0
  0
ARC
  5
243AC
  8
0
 10
4540.4722698231280447
 20
588.2431321327167097
 30
0.0
 40
1.5104859637853101
 50
169.0263617270144891
 51
179.2210262292830123
  0
LINE
  5
243AD
  8
0
 10
4538.9940673683004206
 20
588.5554692032653747
 30
0.0
 11
4538.9894032907086512
 21
588.5306642071458327
 31
0.0
  0
LINE
  5
243AE
  8
0
 10
4538.9940673683004206
 20
586.1440018595652646
 30
0.0
 11
4538.9894329947001097
 21
586.1685322019651494
 31
0.0
  0
ARC
  5
243AF
  8
0
 10
4532.3084192838859963
 20
583.4363165290546931
 30
0.0
 40
0.0824538872278029
 50
98.6752550162744484
 51
176.1547205045253861
  0
LINE
  5
243B0
  8
0
 10
4532.2959824430008666
 20
583.5178270713653319
 30
0.0
 11
4538.9940367150238671
 21
583.5175753946194845
 31
0.0
  0
LINE
  5
243B1
  8
0
 10
4538.9940367352883186
 20
580.9895758085873467
 30
0.0
 11
4532.2959826948999762
 21
580.9895757997653618
 31
0.0
  0
ARC
  5
243B2
  8
0
 10
4532.3076267852893579
 20
581.0703660057730531
 30
0.0
 40
0.0816250098177938
 50
183.5741281445181983
 51
261.7985800050805096
  0
LINE
  5
243B3
  8
0
 10
4532.2261605377725573
 20
581.0652775144875477
 30
0.0
 11
4532.2261510183298014
 21
583.4418460861431868
 31
0.0
  0
ARC
  5
243B4
  8
0
 10
4540.4439526925671089
 20
581.3572601767193646
 30
0.0
 40
1.48214524480013
 50
180.6836061534017972
 51
191.0796124920007912
  0
LINE
  5
243B5
  8
0
 10
4538.9619129404345585
 20
581.339576857291604
 30
0.0
 11
4538.9619234577330644
 21
583.1675675492652999
 31
0.0
  0
ARC
  5
243B6
  8
0
 10
4540.4722698231280447
 20
583.1470321327167312
 30
0.0
 40
1.5104859637853101
 50
169.0263617270144891
 51
179.2210262292830123
  0
LINE
  5
243B7
  8
0
 10
4538.9940673683004206
 20
583.4593692032653962
 30
0.0
 11
4538.9894032907086512
 21
583.4345642071457405
 31
0.0
  0
LINE
  5
243B8
  8
0
 10
4538.9940673683004206
 20
581.047901859565286
 30
0.0
 11
4538.9894329947001097
 21
581.0724322019650572
 31
0.0
  0
ARC
  5
243B9
  8
0
 10
4532.3084192838859963
 20
578.3402165290547146
 30
0.0
 40
0.0824538872278029
 50
98.6752550162744484
 51
176.1547205045253861
  0
LINE
  5
243BA
  8
0
 10
4532.2959824430008666
 20
578.4217270713653534
 30
0.0
 11
4538.9940367150411475
 21
578.4214753946196197
 31
0.0
  0
LINE
  5
243BB
  8
0
 10
4538.9940367352128305
 20
575.8934758085873682
 30
0.0
 11
4532.2959826948999762
 21
575.8934757997652696
 31
0.0
  0
ARC
  5
243BC
  8
0
 10
4532.3076267852893579
 20
575.9742660057730745
 30
0.0
 40
0.0816250098177938
 50
183.5741281445181983
 51
261.7985800050805096
  0
LINE
  5
243BD
  8
0
 10
4532.2261605377725573
 20
575.9691775144876829
 30
0.0
 11
4532.2261510183298014
 21
578.3457460861433219
 31
0.0
  0
ARC
  5
243BE
  8
0
 10
4540.4439526925671089
 20
576.2611601767193861
 30
0.0
 40
1.48214524480013
 50
180.6836061534017972
 51
191.0796124920007912
  0
LINE
  5
243BF
  8
0
 10
4538.9619129404345585
 20
576.2434768572916255
 30
0.0
 11
4538.9619234577330644
 21
578.0714675492653214
 31
0.0
  0
ARC
  5
243C0
  8
0
 10
4540.4722698231280447
 20
578.0509321327167527
 30
0.0
 40
1.5104859637853101
 50
169.0263617270144891
 51
179.2210262292830123
  0
LINE
  5
243C1
  8
0
 10
4538.9940673683004206
 20
578.363269203265304
 30
0.0
 11
4538.9894032907086512
 21
578.338464207145762
 31
0.0
  0
LINE
  5
243C2
  8
0
 10
4538.9940673683004206
 20
575.9518018595651938
 30
0.0
 11
4538.9894329947001097
 21
575.976332201964965
 31
0.0
  0
ARC
  5
243C3
  8
0
 10
4532.3084192838859963
 20
573.244116529054736
 30
0.0
 40
0.0824538872278029
 50
98.6752550162744484
 51
176.1547205045253861
  0
LINE
  5
243C4
  8
0
 10
4532.2959824430008666
 20
573.3256270713653748
 30
0.0
 11
4538.9940367149492886
 21
573.3253753946196412
 31
0.0
  0
LINE
  5
243C5
  8
0
 10
4539.004078352900251
 20
570.797375808600691
 30
0.0
 11
4532.2959826948999762
 21
570.797375799765291
 31
0.0
  0
ARC
  5
243C6
  8
0
 10
4532.3076267852893579
 20
570.878166005773096
 30
0.0
 40
0.0816250098177938
 50
183.5741281445181983
 51
261.7985800050805096
  0
LINE
  5
243C7
  8
0
 10
4532.2261605377725573
 20
570.8730775144877043
 30
0.0
 11
4532.2261510183298014
 21
573.2496460861432297
 31
0.0
  0
ARC
  5
243C8
  8
0
 10
4540.4439526925671089
 20
571.1650601767192938
 30
0.0
 40
1.48214524480013
 50
180.6836061534017972
 51
191.0796124920007912
  0
LINE
  5
243C9
  8
0
 10
4538.9619129404345585
 20
571.147376857291647
 30
0.0
 11
4538.9619234577330644
 21
572.9753675492653429
 31
0.0
  0
ARC
  5
243CA
  8
0
 10
4540.4722698231280447
 20
572.9548321327166605
 30
0.0
 40
1.5104859637853101
 50
169.0263617270144891
 51
179.2210262292830123
  0
LINE
  5
243CB
  8
0
 10
4538.9940673683004206
 20
573.2671692032653255
 30
0.0
 11
4538.9894032907086512
 21
573.2423642071457834
 31
0.0
  0
LINE
  5
243CC
  8
0
 10
4539.004078352900251
 20
570.8000646780653824
 30
0.0
 11
4538.9894329947001097
 21
570.8802322019651001
 31
0.0
  0
ARC
  5
243CD
  8
0
 10
4540.4986591408251115
 20
595.8762420143773397
 30
0.0
 40
1.552264963746703
 50
165.7694696824613061
 51
178.8341249082600086
  0
LINE
  5
243CE
  8
0
 10
4538.9467155280790394
 20
595.9078258794653493
 30
0.0
 11
4538.9467155280035513
 21
594.079825879479813
 31
0.0
  0
ARC
  5
243CF
  8
0
 10
4540.4986620078871056
 20
594.1114099209376036
 30
0.0
 40
1.5522678338785421
 50
181.1658794470914984
 51
194.2305101639971099
  0
ARC
  5
243D0
  8
0
 10
4535.9527168125750904
 20
596.1830819318073509
 30
0.0
 40
0.0755817696212508
 50
90.8347771827843644
 51
184.2985242068660909
  0
LINE
  5
243D1
  8
0
 10
4535.9516156545996637
 20
596.2586556795653223
 30
0.0
 11
4538.9940262050022284
 21
596.2578258794848125
 31
0.0
  0
LINE
  5
243D2
  8
0
 10
4538.9940261557831036
 20
593.7298258795323136
 30
0.0
 11
4535.9582912202458829
 21
593.7263302293143852
 31
0.0
  0
ARC
  5
243D3
  8
0
 10
4535.9568982901755589
 20
593.8060506016380486
 30
0.0
 40
0.0797325405187388
 50
176.9293652561642034
 51
271.0010100502648243
  0
LINE
  5
243D4
  8
0
 10
4535.8772802251996836
 20
593.8103216374653357
 30
0.0
 11
4535.8773476496007788
 21
596.1774168482653522
 31
0.0
  0
ARC
  5
243D5
  8
0
 10
4540.4986591408287495
 20
590.7801420143773612
 30
0.0
 40
1.552264963746703
 50
165.7694696824613061
 51
178.8341249082600086
  0
LINE
  5
243D6
  8
0
 10
4538.9467155280835868
 20
590.8117258794652571
 30
0.0
 11
4538.9467155280090083
 21
588.9837258794798345
 31
0.0
  0
ARC
  5
243D7
  8
0
 10
4540.4986620078898341
 20
589.0153099209376251
 30
0.0
 40
1.5522678338785421
 50
181.1658794470914984
 51
194.2305101639971099
  0
ARC
  5
243D8
  8
0
 10
4535.9527168125787284
 20
591.086981931807145
 30
0.0
 40
0.0755817696212508
 50
90.8347771827843644
 51
184.2985242068660909
  0
LINE
  5
243D9
  8
0
 10
4535.9516156546051207
 20
591.1625556795653438
 30
0.0
 11
4538.9940262050058664
 21
591.161725879484834
 31
0.0
  0
LINE
  5
243DA
  8
0
 10
4538.9940261557858321
 20
588.6337258795322214
 30
0.0
 11
4535.9582912202513398
 21
588.6302302293144066
 31
0.0
  0
ARC
  5
243DB
  8
0
 10
4535.9568982901810159
 20
588.7099506016379564
 30
0.0
 40
0.0797325405187388
 50
176.9293652561642034
 51
271.0010100502648243
  0
LINE
  5
243DC
  8
0
 10
4535.8772802252051406
 20
588.7142216374653572
 30
0.0
 11
4535.8773476496053263
 21
591.08131684826526
 31
0.0
  0
ARC
  5
243DD
  8
0
 10
4540.4986591408287495
 20
585.684042014377269
 30
0.0
 40
1.552264963746703
 50
165.7694696824613061
 51
178.8341249082600086
  0
LINE
  5
243DE
  8
0
 10
4538.9467155280835868
 20
585.7156258794652786
 30
0.0
 11
4538.9467155280090083
 21
583.8876258794798559
 31
0.0
  0
ARC
  5
243DF
  8
0
 10
4540.4986620078898341
 20
583.9192099209376465
 30
0.0
 40
1.5522678338785421
 50
181.1658794470914984
 51
194.2305101639971099
  0
ARC
  5
243E0
  8
0
 10
4535.9527168125787284
 20
585.9908819318071664
 30
0.0
 40
0.0755817696212508
 50
90.8347771827843644
 51
184.2985242068660909
  0
LINE
  5
243E1
  8
0
 10
4535.9516156546051207
 20
586.0664556795652516
 30
0.0
 11
4538.9940262050058664
 21
586.0656258794847417
 31
0.0
  0
LINE
  5
243E2
  8
0
 10
4538.9940261557858321
 20
583.5376258795322428
 30
0.0
 11
4535.9582912202513398
 21
583.5341302293145418
 31
0.0
  0
ARC
  5
243E3
  8
0
 10
4535.9568982901810159
 20
583.6138506016378642
 30
0.0
 40
0.0797325405187388
 50
176.9293652561642034
 51
271.0010100502648243
  0
LINE
  5
243E4
  8
0
 10
4535.8772802252051406
 20
583.6181216374652649
 30
0.0
 11
4535.8773476496053263
 21
585.9852168482652814
 31
0.0
  0
ARC
  5
243E5
  8
0
 10
4540.4986591408287495
 20
580.5879420143772904
 30
0.0
 40
1.552264963746703
 50
165.7694696824613061
 51
178.8341249082600086
  0
LINE
  5
243E6
  8
0
 10
4538.9467155280835868
 20
580.6195258794653
 30
0.0
 11
4538.9467155280090083
 21
578.7915258794797637
 31
0.0
  0
ARC
  5
243E7
  8
0
 10
4540.4986620078898341
 20
578.8231099209375543
 30
0.0
 40
1.5522678338785421
 50
181.1658794470914984
 51
194.2305101639971099
  0
ARC
  5
243E8
  8
0
 10
4535.9527168125787284
 20
580.8947819318071879
 30
0.0
 40
0.0755817696212508
 50
90.8347771827843644
 51
184.2985242068660909
  0
LINE
  5
243E9
  8
0
 10
4535.9516156546051207
 20
580.9703556795651593
 30
0.0
 11
4538.9940262050058664
 21
580.9695258794846495
 31
0.0
  0
LINE
  5
243EA
  8
0
 10
4538.9940261557858321
 20
578.4415258795322643
 30
0.0
 11
4535.9582912202513398
 21
578.4380302293144496
 31
0.0
  0
ARC
  5
243EB
  8
0
 10
4535.9568982901810159
 20
578.5177506016378857
 30
0.0
 40
0.0797325405187388
 50
176.9293652561642034
 51
271.0010100502648243
  0
LINE
  5
243EC
  8
0
 10
4535.8772802252051406
 20
578.5220216374652864
 30
0.0
 11
4535.8773476496053263
 21
580.8891168482654166
 31
0.0
  0
ARC
  5
243ED
  8
0
 10
4540.4986591407296146
 20
575.4918420143773119
 30
0.0
 40
1.552264963746703
 50
165.7694696824613061
 51
178.8341249082600086
  0
LINE
  5
243EE
  8
0
 10
4538.9467155279844519
 20
575.5234258794653215
 30
0.0
 11
4538.9467155279089638
 21
573.6954258794797852
 31
0.0
  0
ARC
  5
243EF
  8
0
 10
4540.4986620077906991
 20
573.7270099209376895
 30
0.0
 40
1.5522678338785421
 50
181.1658794470914984
 51
194.2305101639971099
  0
ARC
  5
243F0
  8
0
 10
4535.9527168124795935
 20
575.7986819318073231
 30
0.0
 40
0.0755817696212508
 50
90.8347771827843644
 51
184.2985242068660909
  0
LINE
  5
243F1
  8
0
 10
4535.9516156545041667
 20
575.8742556795651808
 30
0.0
 11
4538.9940262049058219
 21
575.8734258794847847
 31
0.0
  0
LINE
  5
243F2
  8
0
 10
4538.9940261556866972
 20
573.3454258795321721
 30
0.0
 11
4535.9582912201512954
 21
573.341930229314471
 31
0.0
  0
ARC
  5
243F3
  8
0
 10
4535.9568982900809715
 20
573.4216506016379071
 30
0.0
 40
0.0797325405187388
 50
176.9293652561642034
 51
271.0010100502648243
  0
LINE
  5
243F4
  8
0
 10
4535.8772802251050962
 20
573.4259216374653079
 30
0.0
 11
4535.8773476495052819
 21
575.7930168482653244
 31
0.0
  0
LINE
  5
243F5
  8
0
 10
4538.9940673683004206
 20
573.2671692032653255
 30
0.0
 11
4538.9940261556866972
 21
573.3454258795321721
 31
0.0
  0
LINE
  5
243F6
  8
0
 10
4538.9940673683004206
 20
575.9518018595651938
 30
0.0
 11
4538.9940262049058219
 21
575.8734258794847847
 31
0.0
  0
LINE
  5
243F7
  8
0
 10
4538.99402615580766
 20
578.4415258795322643
 30
0.0
 11
4538.9940673683004206
 21
578.363269203265304
 31
0.0
  0
LINE
  5
243F8
  8
0
 10
4538.9940673683004206
 20
581.047901859565286
 30
0.0
 11
4538.9940262050058664
 21
580.9695258794846495
 31
0.0
  0
LINE
  5
243F9
  8
0
 10
4538.9940261557858321
 20
583.5376258795322428
 30
0.0
 11
4538.9940673683004206
 21
583.4593692032653962
 31
0.0
  0
LINE
  5
243FA
  8
0
 10
4538.9940673683004206
 20
586.1440018595652646
 30
0.0
 11
4538.9940262049949524
 21
586.0656258794847417
 31
0.0
  0
LINE
  5
243FB
  8
0
 10
4538.9940261557858321
 20
588.6337258795321077
 30
0.0
 11
4538.9940673683004206
 21
588.5554692032653747
 31
0.0
  0
LINE
  5
243FC
  8
0
 10
4538.9940262050031379
 20
591.1617258794894951
 30
0.0
 11
4538.9940673683004206
 21
591.2401018595653568
 31
0.0
  0
LINE
  5
243FD
  8
0
 10
4538.9940261557831036
 20
593.7298258795321999
 30
0.0
 11
4538.9940673683004206
 21
593.6515692032653533
 31
0.0
  0
LINE
  5
243FE
  8
0
 10
4538.9940673683004206
 20
596.3362018595653353
 30
0.0
 11
4538.9940262049985904
 21
596.257825879472648
 31
0.0
  0
ARC
  5
243FF
  8
0
 10
4538.6985008377350823
 20
598.8225015053861853
 30
0.0
 40
0.3048925178335519
 50
345.7922624657248889
 51
1.2637496254881551
  0
LINE
  5
24400
  8
0
 10
4538.5663094498204373
 20
598.8760333339977251
 30
0.0
 11
4482.0656913212187646
 21
598.8760333339977251
 31
0.0
  0
ARC
  5
24401
  8
0
 10
4540.5645957899178029
 20
616.2553404910581776
 30
0.0
 40
1.618225219196606
 50
166.0433771215161016
 51
178.6939023676048919
  0
LINE
  5
24402
  8
0
 10
4538.9467910031262363
 20
616.2922258794819754
 30
0.0
 11
4538.9467909753593631
 21
614.4642258794652889
 31
0.0
  0
ARC
  5
24403
  8
0
 10
4540.5645869827485512
 20
614.5011102169066817
 30
0.0
 40
1.6182164181199781
 50
181.3060675156316108
 51
193.9566620050970016
  0
ARC
  5
24404
  8
0
 10
4538.7402764155103796
 20
570.1616333265069443
 30
0.0
 40
0.0622799297156135
 50
173.1977761761718
 51
267.1881793452207035
  0
ARC
  5
24405
  8
0
 10
4538.8251900485811348
 20
570.2244320224209559
 30
0.0
 40
0.1250036442470351
 50
170.7935793664748019
 51
269.9917642786932106
  0
ARC
  5
24406
  8
0
 10
4540.2634302134893005
 20
569.9870637453626614
 30
0.0
 40
1.595404217641563
 50
159.8966152267518908
 51
173.4515163292954867
  0
ARC
  5
24407
  8
0
 10
4540.287681443326619
 20
569.9873887977895492
 30
0.0
 40
1.6065806992969269
 50
160.0547695640896961
 51
170.7934697040739991
  0
ARC
  5
24408
  8
0
 10
4538.9913498080977661
 20
570.4529641974809238
 30
0.0
 40
0.2406897594336453
 50
114.2045558551182012
 51
159.9636597905428061
  0
ARC
  5
24409
  8
0
 10
4539.0030306630342238
 20
570.4535904301721985
 30
0.0
 40
0.2399528833841081
 50
114.1778317577016963
 51
160.0586286530833888
  0
ARC
  5
2440A
  8
0
 10
4538.8110049259275911
 20
570.8583117732166556
 30
0.0
 40
0.2029704285257853
 50
293.7245533515441025
 51
332.2072198200982029
  0
ARC
  5
2440B
  8
0
 10
4538.8243932939703882
 20
570.8532715200373104
 30
0.0
 40
0.197833514560077
 50
293.9663059948496766
 51
333.0697711040775744
  0
LINE
  5
2440C
  8
0
 10
4538.9905606325201006
 20
570.7636717019653361
 30
0.0
 11
4481.6414401385200108
 21
570.7636717019653361
 31
0.0
  0
LINE
  5
2440D
  8
0
 10
4539.004078352900251
 20
570.8000646780653824
 30
0.0
 11
4539.004078352900251
 21
570.7773637514652592
 31
0.0
  0
ARC
  5
2440E
  8
0
 10
4538.9739557202001379
 20
570.7773896140206489
 30
0.0
 40
0.030122643800803
 50
332.9091988378118003
 51
359.9508071867920762
  0
ARC
  5
2440F
  8
0
 10
4538.2176245662521978
 20
584.3329761737995796
 30
0.0
 40
14.4618378764934992
 50
86.9009795169141483
 51
89.780310299137895
  0
ARC
  5
24410
  8
0
 10
4482.157125389679095
 20
568.7143694568217143
 30
0.0
 40
0.6323766085258528
 50
181.8227499170859005
 51
269.2181125183557242
  0
ARC
  5
24411
  8
0
 10
4481.3551431466275972
 20
569.9743545188653115
 30
0.0
 40
0.125154397011138
 50
1.3885425263817881
 51
87.9444214544952558
  0
LINE
  5
24412
  8
0
 10
4481.4802607927413192
 20
569.9773872935946883
 30
0.0
 11
4481.5250687576526616
 21
568.6942550609340969
 31
0.0
  0
ARC
  5
24413
  8
0
 10
4480.3534990241851119
 20
628.347597316183851
 30
0.0
 40
0.0624999999534858
 50
359.9999999829794888
 51
87.0000001002877354
  0
CIRCLE
  5
24414
  8
0
 10
4481.0659990241392734
 20
627.9215043794653184
 30
0.0
 40
0.09375
  0
CIRCLE
  5
24415
  8
0
 10
4481.8159990241392734
 20
627.9215043794653184
 30
0.0
 40
0.09375
  0
CIRCLE
  5
24416
  8
0
 10
4482.5659990241392734
 20
627.9215043794653184
 30
0.0
 40
0.09375
  0
CIRCLE
  5
24417
  8
0
 10
4483.3159990241392734
 20
627.9215043794653184
 30
0.0
 40
0.09375
  0
CIRCLE
  5
24418
  8
0
 10
4484.0659990241392734
 20
627.9215043794653184
 30
0.0
 40
0.09375
  0
CIRCLE
  5
24419
  8
0
 10
4484.8159990241392734
 20
627.9215043794653184
 30
0.0
 40
0.09375
  0
CIRCLE
  5
2441A
  8
0
 10
4485.5659990241392734
 20
627.9215043794653184
 30
0.0
 40
0.09375
  0
CIRCLE
  5
2441B
  8
0
 10
4486.3159990241392734
 20
627.9215043794653184
 30
0.0
 40
0.09375
  0
CIRCLE
  5
2441C
  8
0
 10
4487.0659990241392734
 20
627.9215043794653184
 30
0.0
 40
0.09375
  0
CIRCLE
  5
2441D
  8
0
 10
4487.8159990241392734
 20
627.9215043794653184
 30
0.0
 40
0.09375
  0
CIRCLE
  5
2441E
  8
0
 10
4488.5659990241392734
 20
627.9215043794653184
 30
0.0
 40
0.09375
  0
CIRCLE
  5
2441F
  8
0
 10
4489.3159990241392734
 20
627.9215043794653184
 30
0.0
 40
0.09375
  0
CIRCLE
  5
24420
  8
0
 10
4490.0659990241392734
 20
627.9215043794653184
 30
0.0
 40
0.09375
  0
CIRCLE
  5
24421
  8
0
 10
4490.8159990241392734
 20
627.9215043794653184
 30
0.0
 40
0.09375
  0
CIRCLE
  5
24422
  8
0
 10
4491.5659990241392734
 20
627.9215043794653184
 30
0.0
 40
0.09375
  0
CIRCLE
  5
24423
  8
0
 10
4492.3159990241392734
 20
627.9215043794653184
 30
0.0
 40
0.09375
  0
CIRCLE
  5
24424
  8
0
 10
4493.0659990241392734
 20
627.9215043794653184
 30
0.0
 40
0.09375
  0
CIRCLE
  5
24425
  8
0
 10
4493.8159990241392734
 20
627.9215043794653184
 30
0.0
 40
0.09375
  0
CIRCLE
  5
24426
  8
0
 10
4494.5659990241392734
 20
627.9215043794653184
 30
0.0
 40
0.09375
  0
CIRCLE
  5
24427
  8
0
 10
4495.3159990241392734
 20
627.9215043794653184
 30
0.0
 40
0.09375
  0
CIRCLE
  5
24428
  8
0
 10
4496.0659990241392734
 20
627.9215043794653184
 30
0.0
 40
0.09375
  0
CIRCLE
  5
24429
  8
0
 10
4496.8159990241392734
 20
627.9215043794653184
 30
0.0
 40
0.09375
  0
CIRCLE
  5
2442A
  8
0
 10
4497.5659990241392734
 20
627.9215043794653184
 30
0.0
 40
0.09375
  0
CIRCLE
  5
2442B
  8
0
 10
4498.3159990241392734
 20
627.9215043794653184
 30
0.0
 40
0.09375
  0
CIRCLE
  5
2442C
  8
0
 10
4499.0659990241383639
 20
627.9215043794653184
 30
0.0
 40
0.09375
  0
CIRCLE
  5
2442D
  8
0
 10
4499.8159990241383639
 20
627.9215043794653184
 30
0.0
 40
0.09375
  0
CIRCLE
  5
2442E
  8
0
 10
4500.5659990241383639
 20
627.9215043794653184
 30
0.0
 40
0.09375
  0
CIRCLE
  5
2442F
  8
0
 10
4501.3159990241383639
 20
627.9215043794653184
 30
0.0
 40
0.09375
  0
CIRCLE
  5
24430
  8
0
 10
4509.565999024039229
 20
627.9215043794653184
 30
0.0
 40
0.09375
  0
CIRCLE
  5
24431
  8
0
 10
4508.815999024039229
 20
627.9215043794653184
 30
0.0
 40
0.09375
  0
CIRCLE
  5
24432
  8
0
 10
4508.065999024039229
 20
627.9215043794653184
 30
0.0
 40
0.09375
  0
CIRCLE
  5
24433
  8
0
 10
4507.315999024039229
 20
627.9215043794653184
 30
0.0
 40
0.09375
  0
CIRCLE
  5
24434
  8
0
 10
4506.565999024039229
 20
627.9215043794653184
 30
0.0
 40
0.09375
  0
CIRCLE
  5
24435
  8
0
 10
4505.815999024039229
 20
627.9215043794653184
 30
0.0
 40
0.09375
  0
CIRCLE
  5
24436
  8
0
 10
4505.065999024039229
 20
627.9215043794653184
 30
0.0
 40
0.09375
  0
CIRCLE
  5
24437
  8
0
 10
4504.315999024039229
 20
627.9215043794653184
 30
0.0
 40
0.09375
  0
CIRCLE
  5
24438
  8
0
 10
4503.565999024039229
 20
627.9215043794653184
 30
0.0
 40
0.09375
  0
CIRCLE
  5
24439
  8
0
 10
4502.815999024039229
 20
627.9215043794653184
 30
0.0
 40
0.09375
  0
CIRCLE
  5
2443A
  8
0
 10
4502.065999024039229
 20
627.9215043794653184
 30
0.0
 40
0.09375
  0
ARC
  5
2443B
  8
0
 10
4480.8560793761580499
 20
615.1304809494530446
 30
0.0
 40
13.2924619577110192
 50
90.9490273167754424
 51
91.5913717002701446
  0
ARC
  5
2443C
  8
0
 10
4480.4940925877190239
 20
628.352945445471164
 30
0.0
 40
0.0652645652224314
 50
96.2980609704425206
 51
106.839801671930104
  0
ARC
  5
2443D
  8
0
 10
4480.4761751781807106
 20
628.4120887973109575
 30
0.0
 40
0.0034667890539801
 50
106.5845051380293995
 51
156.1948510659316867
  0
LINE
  5
2443E
  8
0
 10
4480.4730033317546258
 20
628.4134880887736472
 30
0.0
 11
4480.4159990241059859
 21
628.3179684919338115
 31
0.0
  0
ARC
  5
2443F
  8
0
 10
4480.4787423099951411
 20
627.2151057577325446
 30
0.0
 40
0.0631070482025065
 50
186.1548244795978917
 51
266.806417493453182
  0
LINE
  5
24440
  8
0
 10
4480.4752266369778226
 20
627.1520967140472749
 30
0.0
 11
4481.2356174685546648
 21
627.1122358684647224
 31
0.0
  0
ARC
  5
24441
  8
0
 10
4481.2220393269726628
 20
626.8544307693307474
 30
0.0
 40
0.2581624199379199
 50
359.9994696005675223
 51
86.9851176132203108
  0
LINE
  5
24442
  8
0
 10
4481.480201746900093
 20
626.8544283794652756
 30
0.0
 11
4481.4801990241394378
 21
570.2244283794651665
 31
0.0
  0
ARC
  5
24443
  8
0
 10
4481.3550587821473528
 20
570.2244850318929821
 30
0.0
 40
0.1251402548152468
 50
272.0944627187492983
 51
359.9740615430495723
  0
ARC
  5
24444
  8
0
 10
4480.0690607404303591
 20
626.4477620538774545
 30
0.0
 40
1.6165649126030699
 50
1.2996828926257891
 51
13.9631559315515705
  0
LINE
  5
24445
  8
0
 10
4481.6852097672526725
 20
626.4844286566060418
 30
0.0
 11
4481.6852097679384315
 21
624.656425879465246
 31
0.0
  0
ARC
  5
24446
  8
0
 10
4480.0674159613436132
 20
624.6933097986905068
 30
0.0
 40
1.618214208364283
 50
346.0433338061126847
 51
358.6939455121008109
  0
ARC
  5
24447
  8
0
 10
4491.9739972733195827
 20
626.753046246348049
 30
0.0
 40
0.082590736034968
 50
3.942111706236497
 51
81.2913706712686945
  0
LINE
  5
24448
  8
0
 10
4491.9865023115389704
 20
626.834684801565345
 30
0.0
 11
4484.8453923796378149
 21
626.8371673531652277
 31
0.0
  0
ARC
  5
24449
  8
0
 10
4484.8546603306886027
 20
626.7517209843830415
 30
0.0
 40
0.0859475238429649
 50
96.1903935601906568
 51
175.3450164775254052
  0
LINE
  5
2444A
  8
0
 10
4484.7689963084376359
 20
626.7586960934653462
 30
0.0
 11
4484.7690054535378295
 21
624.3821274982542491
 31
0.0
  0
ARC
  5
2444B
  8
0
 10
4484.8512397646609315
 20
624.3876573637086267
 30
0.0
 40
0.0824200299533133
 50
183.8470763153692076
 51
261.3864160044975051
  0
LINE
  5
2444C
  8
0
 10
4484.8388957366387331
 20
624.306166957465166
 30
0.0
 11
4491.9800056614376444
 21
624.3036844057653525
 31
0.0
  0
ARC
  5
2444D
  8
0
 10
4491.9707435879117838
 20
624.3891250594720077
 30
0.0
 40
0.0859412084614658
 50
276.1869088070799876
 51
355.3485027668336897
  0
LINE
  5
2444E
  8
0
 10
4492.0564017398392025
 20
624.382155674965361
 30
0.0
 11
4492.0563926012391676
 21
626.7587242403653818
 31
0.0
  0
ARC
  5
2444F
  8
0
 10
4484.6751341069193586
 20
626.7581977786965126
 30
0.0
 40
0.0796300539901669
 50
356.9903457378719054
 51
90.9176753424951443
  0
LINE
  5
24450
  8
0
 10
4484.6738587701756842
 20
626.8378176192808269
 30
0.0
 11
4481.6378579277388781
 21
626.8378357671058438
 31
0.0
  0
LINE
  5
24451
  8
0
 10
4481.6378579271240596
 20
624.3030159910655357
 30
0.0
 11
4484.6737105264910497
 21
624.3028820136238437
 31
0.0
  0
ARC
  5
24452
  8
0
 10
4484.6749499855977774
 20
624.3827518640332528
 30
0.0
 40
0.0798794670943839
 50
269.1109276478640027
 51
2.9922440426863441
  0
LINE
  5
24453
  8
0
 10
4484.7547205458386088
 20
624.3869216340652883
 30
0.0
 11
4484.7546543273392672
 21
626.7540168645653011
 31
0.0
  0
LINE
  5
24454
  8
0
 10
4480.4159990241378182
 20
628.3475973161653201
 30
0.0
 11
4480.4159990229163668
 21
627.2083397057484717
 31
0.0
  0
ARC
  5
24455
  8
0
 10
4487.2946287610948275
 20
556.6602572851015793
 30
0.0
 40
1.2956674695888071
 50
199.9400426659364882
 51
262.7028950746379792
  0
ARC
  5
24456
  8
0
 10
4509.7682895092830222
 20
567.4183292698296555
 30
0.0
 40
26.205593333657049
 50
182.6631769526632922
 51
205.3018758214516026
  0
LINE
  5
24457
  8
0
 10
4480.3159990241383639
 20
628.4121483794652931
 30
0.0
 11
4480.3159990241383639
 21
570.6497839278653146
 31
0.0
  0
ARC
  5
24458
  8
0
 10
4482.4911029310751474
 20
601.4038781332747021
 30
0.0
 40
0.7885450019640446
 50
183.6435038812531957
 51
265.5337334520377794
  0
ARC
  5
24459
  8
0
 10
4482.0504188633221929
 20
595.5730679886962662
 30
0.0
 40
3.3030006539860381
 50
89.73507407661765
 51
97.2517978588190886
  0
LINE
  5
2445A
  8
0
 10
4480.3567700244384469
 20
628.4100116618652692
 30
0.0
 11
4480.3159990241383639
 21
628.4121483794652931
 31
0.0
  0
ARC
  5
2445B
  8
0
 10
4484.4147173810952154
 20
651.0397779300576531
 30
0.0
 40
23.8808080705674399
 50
263.9089540979665003
 51
270.8323847087735885
  0
ARC
  5
2445C
  8
0
 10
4480.8519528813221768
 20
622.4064218887657489
 30
0.0
 40
4.9944754102965199
 50
78.1126399368662447
 51
86.9725204895640331
  0
ARC
  5
2445D
  8
0
 10
-4348.449852655396171
 20
-167529.5890567720925901
 30
0.0
 40
168388.6342796013050247
 50
86.9942807629816315
 51
86.9944453648086551
  0
ARC
  5
2445E
  8
0
 10
4480.6360039338405841
 20
627.4817500190131341
 30
0.0
 40
0.0625483017807696
 50
180.1467563129847917
 51
266.9232501539567011
  0
LINE
  5
2445F
  8
0
 10
4480.573455837237816
 20
627.4815898091652571
 30
0.0
 11
4480.573455837237816
 21
628.3516648624653271
 31
0.0
  0
ARC
  5
24460
  8
0
 10
4480.502602213316095
 20
628.347995746976494
 30
0.0
 40
0.0709485618690094
 50
2.9643821618284218
 51
83.3001860013321931
  0
LINE
  5
24461
  8
0
 10
4480.3598705279100614
 20
552.0994283794651665
 30
0.0
 11
4480.3598687744388371
 21
569.8994449928213726
 31
0.0
  0
ARC
  5
24462
  8
0
 10
4499.2750972733210801
 20
626.753046246348049
 30
0.0
 40
0.082590736034968
 50
3.942111706236497
 51
81.2913706712686945
  0
LINE
  5
24463
  8
0
 10
4499.2876023115386488
 20
626.834684801565345
 30
0.0
 11
4492.1464923796384028
 21
626.8371673531652277
 31
0.0
  0
ARC
  5
24464
  8
0
 10
4492.1557603306882811
 20
626.7517209843830415
 30
0.0
 40
0.0859475238429649
 50
96.1903935601906568
 51
175.3450164775254052
  0
LINE
  5
24465
  8
0
 10
4492.0700963084391333
 20
626.7586960934653462
 30
0.0
 11
4492.0701054535384174
 21
624.3821274982542491
 31
0.0
  0
ARC
  5
24466
  8
0
 10
4492.1523397646597004
 20
624.3876573637086267
 30
0.0
 40
0.0824200299533133
 50
183.8470763153692076
 51
261.3864160044975051
  0
LINE
  5
24467
  8
0
 10
4492.1399957366384115
 20
624.306166957465166
 30
0.0
 11
4499.2811056614391418
 21
624.3036844057653525
 31
0.0
  0
ARC
  5
24468
  8
0
 10
4499.2718435879123717
 20
624.3891250594720077
 30
0.0
 40
0.0859412084614658
 50
276.1869088070799876
 51
355.3485027668336897
  0
LINE
  5
24469
  8
0
 10
4499.3575017398388809
 20
624.382155674965361
 30
0.0
 11
4499.357492601238846
 21
626.7587242403653818
 31
0.0
  0
ARC
  5
2446A
  8
0
 10
4506.5761972733207585
 20
626.753046246348049
 30
0.0
 40
0.082590736034968
 50
3.942111706236497
 51
81.2913706712686945
  0
LINE
  5
2446B
  8
0
 10
4506.5887023115392367
 20
626.834684801565345
 30
0.0
 11
4499.4475923796389907
 21
626.8371673531652277
 31
0.0
  0
ARC
  5
2446C
  8
0
 10
4499.4568603306879595
 20
626.7517209843830415
 30
0.0
 40
0.0859475238429649
 50
96.1903935601906568
 51
175.3450164775254052
  0
LINE
  5
2446D
  8
0
 10
4499.3711963084379022
 20
626.7586960934653462
 30
0.0
 11
4499.3712054535371863
 21
624.3821274982542491
 31
0.0
  0
ARC
  5
2446E
  8
0
 10
4499.4534397646602883
 20
624.3876573637086267
 30
0.0
 40
0.0824200299533133
 50
183.8470763153692076
 51
261.3864160044975051
  0
LINE
  5
2446F
  8
0
 10
4499.4410957366380899
 20
624.306166957465166
 30
0.0
 11
4506.5822056614379107
 21
624.3036844057653525
 31
0.0
  0
ARC
  5
24470
  8
0
 10
4506.5729435879120501
 20
624.3891250594720077
 30
0.0
 40
0.0859412084614658
 50
276.1869088070799876
 51
355.3485027668336897
  0
LINE
  5
24471
  8
0
 10
4506.6586017398385593
 20
624.382155674965361
 30
0.0
 11
4506.6585926012394339
 21
626.7587242403653818
 31
0.0
  0
ARC
  5
24472
  8
0
 10
4510.226747273320143
 20
624.2049962463480597
 30
0.0
 40
0.082590736034968
 50
3.942111706236497
 51
81.2913706712686945
  0
LINE
  5
24473
  8
0
 10
4510.2392523115377116
 20
624.2866348015653557
 30
0.0
 11
4503.0981423796392846
 21
624.2891173531652385
 31
0.0
  0
ARC
  5
24474
  8
0
 10
4503.1074103306882535
 20
624.2036709843830522
 30
0.0
 40
0.0859475238429649
 50
96.1903935601906568
 51
175.3450164775254052
  0
LINE
  5
24475
  8
0
 10
4503.0217463084391056
 20
624.2106460934652432
 30
0.0
 11
4503.0217554535383897
 21
621.8340774982542598
 31
0.0
  0
ARC
  5
24476
  8
0
 10
4503.1039897646596728
 20
621.8396073637086374
 30
0.0
 40
0.0824200299533133
 50
183.8470763153692076
 51
261.3864160044975051
  0
LINE
  5
24477
  8
0
 10
4503.0916457366383838
 20
621.7581169574652904
 30
0.0
 11
4510.2327556614391142
 21
621.7556344057652495
 31
0.0
  0
ARC
  5
24478
  8
0
 10
4510.2234935879123441
 20
621.8410750594720184
 30
0.0
 40
0.0859412084614658
 50
276.1869088070799876
 51
355.3485027668336897
  0
LINE
  5
24479
  8
0
 10
4510.3091517398379438
 20
621.834105674965258
 30
0.0
 11
4510.3091426012388183
 21
624.2106742403651651
 31
0.0
  0
ARC
  5
2447A
  8
0
 10
4502.9256472733195551
 20
624.2049962463480597
 30
0.0
 40
0.082590736034968
 50
3.942111706236497
 51
81.2913706712686945
  0
LINE
  5
2447B
  8
0
 10
4502.9381523115380332
 20
624.2866348015653557
 30
0.0
 11
4495.7970423796377872
 21
624.2891173531652385
 31
0.0
  0
ARC
  5
2447C
  8
0
 10
4495.8063103306876656
 20
624.2036709843830522
 30
0.0
 40
0.0859475238429649
 50
96.1903935601906568
 51
175.3450164775254052
  0
LINE
  5
2447D
  8
0
 10
4495.7206463084376082
 20
624.2106460934652432
 30
0.0
 11
4495.7206554535378018
 21
621.8340774982542598
 31
0.0
  0
ARC
  5
2447E
  8
0
 10
4495.8028897646599944
 20
621.8396073637086374
 30
0.0
 40
0.0824200299533133
 50
183.8470763153692076
 51
261.3864160044975051
  0
LINE
  5
2447F
  8
0
 10
4495.7905457366377959
 20
621.7581169574652904
 30
0.0
 11
4502.9316556614376168
 21
621.7556344057652495
 31
0.0
  0
ARC
  5
24480
  8
0
 10
4502.9223935879126657
 20
621.8410750594720184
 30
0.0
 40
0.0859412084614658
 50
276.1869088070799876
 51
355.3485027668336897
  0
LINE
  5
24481
  8
0
 10
4503.0080517398391748
 20
621.834105674965258
 30
0.0
 11
4503.0080426012391399
 21
624.2106742403651651
 31
0.0
  0
ARC
  5
24482
  8
0
 10
4495.6245472733207862
 20
624.2049962463480597
 30
0.0
 40
0.082590736034968
 50
3.942111706236497
 51
81.2913706712686945
  0
LINE
  5
24483
  8
0
 10
4495.6370523115392643
 20
624.2866348015653557
 30
0.0
 11
4488.4959423796381088
 21
624.2891173531652385
 31
0.0
  0
ARC
  5
24484
  8
0
 10
4488.5052103306879872
 20
624.2036709843830522
 30
0.0
 40
0.0859475238429649
 50
96.1903935601906568
 51
175.3450164775254052
  0
LINE
  5
24485
  8
0
 10
4488.4195463084379298
 20
624.2106460934652432
 30
0.0
 11
4488.4195554535381234
 21
621.8340774982542598
 31
0.0
  0
ARC
  5
24486
  8
0
 10
4488.5017897646612255
 20
621.8396073637086374
 30
0.0
 40
0.0824200299533133
 50
183.8470763153692076
 51
261.3864160044975051
  0
LINE
  5
24487
  8
0
 10
4488.4894457366381175
 20
621.7581169574652904
 30
0.0
 11
4495.6305556614379384
 21
621.7556344057652495
 31
0.0
  0
ARC
  5
24488
  8
0
 10
4495.6212935879120778
 20
621.8410750594720184
 30
0.0
 40
0.0859412084614658
 50
276.1869088070799876
 51
355.3485027668336897
  0
LINE
  5
24489
  8
0
 10
4495.7069517398385869
 20
621.834105674965258
 30
0.0
 11
4495.706942601238552
 21
624.2106742403651651
 31
0.0
  0
ARC
  5
2448A
  8
0
 10
4506.5761972733207585
 20
621.6569462463479567
 30
0.0
 40
0.082590736034968
 50
3.942111706236497
 51
81.2913706712686945
  0
LINE
  5
2448B
  8
0
 10
4506.5887023115392367
 20
621.7385848015652527
 30
0.0
 11
4499.4475923796389907
 21
621.7410673531652492
 31
0.0
  0
ARC
  5
2448C
  8
0
 10
4499.4568603306879595
 20
621.6556209843829492
 30
0.0
 40
0.0859475238429649
 50
96.1903935601906568
 51
175.3450164775254052
  0
LINE
  5
2448D
  8
0
 10
4499.3711963084379022
 20
621.6625960934653676
 30
0.0
 11
4499.3712054535371863
 21
619.2860274982542705
 31
0.0
  0
ARC
  5
2448E
  8
0
 10
4499.4534397646602883
 20
619.2915573637086482
 30
0.0
 40
0.0824200299533133
 50
183.8470763153692076
 51
261.3864160044975051
  0
LINE
  5
2448F
  8
0
 10
4499.4410957366380899
 20
619.2100669574653011
 30
0.0
 11
4506.5822056614379107
 21
619.2075844057652603
 31
0.0
  0
ARC
  5
24490
  8
0
 10
4506.5729435879120501
 20
619.2930250594720292
 30
0.0
 40
0.0859412084614658
 50
276.1869088070799876
 51
355.3485027668336897
  0
LINE
  5
24491
  8
0
 10
4506.6586017398385593
 20
619.2860556749652687
 30
0.0
 11
4506.6585926012394339
 21
621.6626242403652896
 31
0.0
  0
ARC
  5
24492
  8
0
 10
4499.2750972733210801
 20
621.6569462463479567
 30
0.0
 40
0.082590736034968
 50
3.942111706236497
 51
81.2913706712686945
  0
LINE
  5
24493
  8
0
 10
4499.2876023115386488
 20
621.7385848015652527
 30
0.0
 11
4492.1464923796384028
 21
621.7410673531652492
 31
0.0
  0
ARC
  5
24494
  8
0
 10
4492.1557603306882811
 20
621.6556209843829492
 30
0.0
 40
0.0859475238429649
 50
96.1903935601906568
 51
175.3450164775254052
  0
LINE
  5
24495
  8
0
 10
4492.0700963084391333
 20
621.6625960934653676
 30
0.0
 11
4492.0701054535384174
 21
619.2860274982542705
 31
0.0
  0
ARC
  5
24496
  8
0
 10
4492.1523397646597004
 20
619.2915573637086482
 30
0.0
 40
0.0824200299533133
 50
183.8470763153692076
 51
261.3864160044975051
  0
LINE
  5
24497
  8
0
 10
4492.1399957366384115
 20
619.2100669574653011
 30
0.0
 11
4499.2811056614391418
 21
619.2075844057652603
 31
0.0
  0
ARC
  5
24498
  8
0
 10
4499.2718435879123717
 20
619.2930250594720292
 30
0.0
 40
0.0859412084614658
 50
276.1869088070799876
 51
355.3485027668336897
  0
LINE
  5
24499
  8
0
 10
4499.3575017398388809
 20
619.2860556749652687
 30
0.0
 11
4499.357492601238846
 21
621.6626242403652896
 31
0.0
  0
ARC
  5
2449A
  8
0
 10
4491.9739972733195827
 20
621.6569462463479567
 30
0.0
 40
0.082590736034968
 50
3.942111706236497
 51
81.2913706712686945
  0
LINE
  5
2449B
  8
0
 10
4491.9865023115389704
 20
621.7385848015652527
 30
0.0
 11
4484.8453923796378149
 21
621.7410673531652492
 31
0.0
  0
ARC
  5
2449C
  8
0
 10
4484.8546603306886027
 20
621.6556209843829492
 30
0.0
 40
0.0859475238429649
 50
96.1903935601906568
 51
175.3450164775254052
  0
LINE
  5
2449D
  8
0
 10
4484.7689963084376359
 20
621.6625960934653676
 30
0.0
 11
4484.7690054535378295
 21
619.2860274982542705
 31
0.0
  0
ARC
  5
2449E
  8
0
 10
4484.8512397646609315
 20
619.2915573637086482
 30
0.0
 40
0.0824200299533133
 50
183.8470763153692076
 51
261.3864160044975051
  0
LINE
  5
2449F
  8
0
 10
4484.8388957366387331
 20
619.2100669574653011
 30
0.0
 11
4491.9800056614376444
 21
619.2075844057652603
 31
0.0
  0
ARC
  5
244A0
  8
0
 10
4491.9707435879117838
 20
619.2930250594720292
 30
0.0
 40
0.0859412084614658
 50
276.1869088070799876
 51
355.3485027668336897
  0
LINE
  5
244A1
  8
0
 10
4492.0564017398392025
 20
619.2860556749652687
 30
0.0
 11
4492.0563926012391676
 21
621.6626242403652896
 31
0.0
  0
ARC
  5
244A2
  8
0
 10
4495.6245472733207862
 20
619.1088962463480811
 30
0.0
 40
0.082590736034968
 50
3.942111706236497
 51
81.2913706712686945
  0
LINE
  5
244A3
  8
0
 10
4495.6370523115392643
 20
619.1905348015652635
 30
0.0
 11
4488.4959423796381088
 21
619.1930173531651462
 31
0.0
  0
ARC
  5
244A4
  8
0
 10
4488.5052103306879872
 20
619.10757098438296
 30
0.0
 40
0.0859475238429649
 50
96.1903935601906568
 51
175.3450164775254052
  0
LINE
  5
244A5
  8
0
 10
4488.4195463084379298
 20
619.1145460934652647
 30
0.0
 11
4488.4195554535381234
 21
616.737977498254395
 31
0.0
  0
ARC
  5
244A6
  8
0
 10
4488.5017897646612255
 20
616.7435073637085452
 30
0.0
 40
0.0824200299533133
 50
183.8470763153692076
 51
261.3864160044975051
  0
LINE
  5
244A7
  8
0
 10
4488.4894457366381175
 20
616.6620169574651982
 30
0.0
 11
4495.6305556614379384
 21
616.6595344057653847
 31
0.0
  0
ARC
  5
244A8
  8
0
 10
4495.6212935879120778
 20
616.7449750594719262
 30
0.0
 40
0.0859412084614658
 50
276.1869088070799876
 51
355.3485027668336897
  0
LINE
  5
244A9
  8
0
 10
4495.7069517398385869
 20
616.7380056749651658
 30
0.0
 11
4495.706942601238552
 21
619.1145742403651866
 31
0.0
  0
ARC
  5
244AA
  8
0
 10
4502.9256472733195551
 20
619.1088962463480811
 30
0.0
 40
0.082590736034968
 50
3.942111706236497
 51
81.2913706712686945
  0
LINE
  5
244AB
  8
0
 10
4502.9381523115380332
 20
619.1905348015652635
 30
0.0
 11
4495.7970423796377872
 21
619.1930173531651462
 31
0.0
  0
ARC
  5
244AC
  8
0
 10
4495.8063103306876656
 20
619.10757098438296
 30
0.0
 40
0.0859475238429649
 50
96.1903935601906568
 51
175.3450164775254052
  0
LINE
  5
244AD
  8
0
 10
4495.7206463084376082
 20
619.1145460934652647
 30
0.0
 11
4495.7206554535378018
 21
616.737977498254395
 31
0.0
  0
ARC
  5
244AE
  8
0
 10
4495.8028897646599944
 20
616.7435073637085452
 30
0.0
 40
0.0824200299533133
 50
183.8470763153692076
 51
261.3864160044975051
  0
LINE
  5
244AF
  8
0
 10
4495.7905457366377959
 20
616.6620169574651982
 30
0.0
 11
4502.9316556614376168
 21
616.6595344057653847
 31
0.0
  0
ARC
  5
244B0
  8
0
 10
4502.9223935879126657
 20
616.7449750594719262
 30
0.0
 40
0.0859412084614658
 50
276.1869088070799876
 51
355.3485027668336897
  0
LINE
  5
244B1
  8
0
 10
4503.0080517398391748
 20
616.7380056749651658
 30
0.0
 11
4503.0080426012391399
 21
619.1145742403651866
 31
0.0
  0
ARC
  5
244B2
  8
0
 10
4510.226747273320143
 20
619.1088962463480811
 30
0.0
 40
0.082590736034968
 50
3.942111706236497
 51
81.2913706712686945
  0
LINE
  5
244B3
  8
0
 10
4510.2392523115377116
 20
619.1905348015652635
 30
0.0
 11
4503.0981423796392846
 21
619.1930173531651462
 31
0.0
  0
ARC
  5
244B4
  8
0
 10
4503.1074103306882535
 20
619.10757098438296
 30
0.0
 40
0.0859475238429649
 50
96.1903935601906568
 51
175.3450164775254052
  0
LINE
  5
244B5
  8
0
 10
4503.0217463084391056
 20
619.1145460934652647
 30
0.0
 11
4503.0217554535383897
 21
616.737977498254395
 31
0.0
  0
ARC
  5
244B6
  8
0
 10
4503.1039897646596728
 20
616.7435073637085452
 30
0.0
 40
0.0824200299533133
 50
183.8470763153692076
 51
261.3864160044975051
  0
LINE
  5
244B7
  8
0
 10
4503.0916457366383838
 20
616.6620169574651982
 30
0.0
 11
4510.2327556614391142
 21
616.6595344057653847
 31
0.0
  0
ARC
  5
244B8
  8
0
 10
4510.2234935879123441
 20
616.7449750594719262
 30
0.0
 40
0.0859412084614658
 50
276.1869088070799876
 51
355.3485027668336897
  0
LINE
  5
244B9
  8
0
 10
4510.3091517398379438
 20
616.7380056749651658
 30
0.0
 11
4510.3091426012388183
 21
619.1145742403651866
 31
0.0
  0
ARC
  5
244BA
  8
0
 10
4506.5761972733207585
 20
616.5608462463480919
 30
0.0
 40
0.082590736034968
 50
3.942111706236497
 51
81.2913706712686945
  0
LINE
  5
244BB
  8
0
 10
4506.5887023115392367
 20
616.6424848015651605
 30
0.0
 11
4499.4475923796389907
 21
616.644967353165157
 31
0.0
  0
ARC
  5
244BC
  8
0
 10
4499.4568603306879595
 20
616.5595209843829707
 30
0.0
 40
0.0859475238429649
 50
96.1903935601906568
 51
175.3450164775254052
  0
LINE
  5
244BD
  8
0
 10
4499.3711963084379022
 20
616.5664960934653891
 30
0.0
 11
4499.3712054535371863
 21
614.189927498254292
 31
0.0
  0
ARC
  5
244BE
  8
0
 10
4499.4534397646602883
 20
614.1954573637085559
 30
0.0
 40
0.0824200299533133
 50
183.8470763153692076
 51
261.3864160044975051
  0
LINE
  5
244BF
  8
0
 10
4499.4410957366380899
 20
614.1139669574652089
 30
0.0
 11
4506.5822056614379107
 21
614.1114844057652817
 31
0.0
  0
ARC
  5
244C0
  8
0
 10
4506.5729435879120501
 20
614.1969250594719369
 30
0.0
 40
0.0859412084614658
 50
276.1869088070799876
 51
355.3485027668336897
  0
LINE
  5
244C1
  8
0
 10
4506.6586017398385593
 20
614.1899556749652902
 30
0.0
 11
4506.6585926012394339
 21
616.566524240365311
 31
0.0
  0
ARC
  5
244C2
  8
0
 10
4499.2750972733210801
 20
616.5608462463480919
 30
0.0
 40
0.082590736034968
 50
3.942111706236497
 51
81.2913706712686945
  0
LINE
  5
244C3
  8
0
 10
4499.2876023115386488
 20
616.6424848015651605
 30
0.0
 11
4492.1464923796384028
 21
616.644967353165157
 31
0.0
  0
ARC
  5
244C4
  8
0
 10
4492.1557603306882811
 20
616.5595209843829707
 30
0.0
 40
0.0859475238429649
 50
96.1903935601906568
 51
175.3450164775254052
  0
LINE
  5
244C5
  8
0
 10
4492.0700963084391333
 20
616.5664960934653891
 30
0.0
 11
4492.0701054535384174
 21
614.189927498254292
 31
0.0
  0
ARC
  5
244C6
  8
0
 10
4492.1523397646597004
 20
614.1954573637085559
 30
0.0
 40
0.0824200299533133
 50
183.8470763153692076
 51
261.3864160044975051
  0
LINE
  5
244C7
  8
0
 10
4492.1399957366384115
 20
614.1139669574652089
 30
0.0
 11
4499.2811056614391418
 21
614.1114844057652817
 31
0.0
  0
ARC
  5
244C8
  8
0
 10
4499.2718435879123717
 20
614.1969250594719369
 30
0.0
 40
0.0859412084614658
 50
276.1869088070799876
 51
355.3485027668336897
  0
LINE
  5
244C9
  8
0
 10
4499.3575017398388809
 20
614.1899556749652902
 30
0.0
 11
4499.357492601238846
 21
616.566524240365311
 31
0.0
  0
ARC
  5
244CA
  8
0
 10
4491.9739972733195827
 20
616.5608462463480919
 30
0.0
 40
0.082590736034968
 50
3.942111706236497
 51
81.2913706712686945
  0
LINE
  5
244CB
  8
0
 10
4491.9865023115389704
 20
616.6424848015651605
 30
0.0
 11
4484.8453923796378149
 21
616.644967353165157
 31
0.0
  0
ARC
  5
244CC
  8
0
 10
4484.8546603306886027
 20
616.5595209843829707
 30
0.0
 40
0.0859475238429649
 50
96.1903935601906568
 51
175.3450164775254052
  0
LINE
  5
244CD
  8
0
 10
4484.7689963084376359
 20
616.5664960934653891
 30
0.0
 11
4484.7690054535378295
 21
614.189927498254292
 31
0.0
  0
ARC
  5
244CE
  8
0
 10
4484.8512397646609315
 20
614.1954573637085559
 30
0.0
 40
0.0824200299533133
 50
183.8470763153692076
 51
261.3864160044975051
  0
LINE
  5
244CF
  8
0
 10
4484.8388957366387331
 20
614.1139669574652089
 30
0.0
 11
4491.9800056614376444
 21
614.1114844057652817
 31
0.0
  0
ARC
  5
244D0
  8
0
 10
4491.9707435879117838
 20
614.1969250594719369
 30
0.0
 40
0.0859412084614658
 50
276.1869088070799876
 51
355.3485027668336897
  0
LINE
  5
244D1
  8
0
 10
4492.0564017398392025
 20
614.1899556749652902
 30
0.0
 11
4492.0563926012391676
 21
616.566524240365311
 31
0.0
  0
ARC
  5
244D2
  8
0
 10
4495.6245472733207862
 20
614.0127962463481026
 30
0.0
 40
0.082590736034968
 50
3.942111706236497
 51
81.2913706712686945
  0
LINE
  5
244D3
  8
0
 10
4495.6370523115392643
 20
614.0944348015651713
 30
0.0
 11
4488.4959423796381088
 21
614.0969173531652814
 31
0.0
  0
ARC
  5
244D4
  8
0
 10
4488.5052103306879872
 20
614.0114709843830951
 30
0.0
 40
0.0859475238429649
 50
96.1903935601906568
 51
175.3450164775254052
  0
LINE
  5
244D5
  8
0
 10
4488.4195463084379298
 20
614.0184460934651725
 30
0.0
 11
4488.4195554535381234
 21
611.6418774982544164
 31
0.0
  0
ARC
  5
244D6
  8
0
 10
4488.5017897646612255
 20
611.6474073637085667
 30
0.0
 40
0.0824200299533133
 50
183.8470763153692076
 51
261.3864160044975051
  0
LINE
  5
244D7
  8
0
 10
4488.4894457366381175
 20
611.5659169574652196
 30
0.0
 11
4495.6305556614379384
 21
611.5634344057652925
 31
0.0
  0
ARC
  5
244D8
  8
0
 10
4495.6212935879120778
 20
611.6488750594719477
 30
0.0
 40
0.0859412084614658
 50
276.1869088070799876
 51
355.3485027668336897
  0
LINE
  5
244D9
  8
0
 10
4495.7069517398385869
 20
611.6419056749653009
 30
0.0
 11
4495.706942601238552
 21
614.0184742403653217
 31
0.0
  0
ARC
  5
244DA
  8
0
 10
4502.9256472733195551
 20
614.0127962463481026
 30
0.0
 40
0.082590736034968
 50
3.942111706236497
 51
81.2913706712686945
  0
LINE
  5
244DB
  8
0
 10
4502.9381523115380332
 20
614.0944348015651713
 30
0.0
 11
4495.7970423796377872
 21
614.0969173531652814
 31
0.0
  0
ARC
  5
244DC
  8
0
 10
4495.8063103306876656
 20
614.0114709843830951
 30
0.0
 40
0.0859475238429649
 50
96.1903935601906568
 51
175.3450164775254052
  0
LINE
  5
244DD
  8
0
 10
4495.7206463084376082
 20
614.0184460934651725
 30
0.0
 11
4495.7206554535378018
 21
611.6418774982544164
 31
0.0
  0
ARC
  5
244DE
  8
0
 10
4495.8028897646599944
 20
611.6474073637085667
 30
0.0
 40
0.0824200299533133
 50
183.8470763153692076
 51
261.3864160044975051
  0
LINE
  5
244DF
  8
0
 10
4495.7905457366377959
 20
611.5659169574652196
 30
0.0
 11
4502.9316556614376168
 21
611.5634344057652925
 31
0.0
  0
ARC
  5
244E0
  8
0
 10
4502.9223935879126657
 20
611.6488750594719477
 30
0.0
 40
0.0859412084614658
 50
276.1869088070799876
 51
355.3485027668336897
  0
LINE
  5
244E1
  8
0
 10
4503.0080517398391748
 20
611.6419056749653009
 30
0.0
 11
4503.0080426012391399
 21
614.0184742403653217
 31
0.0
  0
ARC
  5
244E2
  8
0
 10
4510.226747273320143
 20
614.0127962463481026
 30
0.0
 40
0.082590736034968
 50
3.942111706236497
 51
81.2913706712686945
  0
LINE
  5
244E3
  8
0
 10
4510.2392523115377116
 20
614.0944348015651713
 30
0.0
 11
4503.0981423796392846
 21
614.0969173531652814
 31
0.0
  0
ARC
  5
244E4
  8
0
 10
4503.1074103306882535
 20
614.0114709843830951
 30
0.0
 40
0.0859475238429649
 50
96.1903935601906568
 51
175.3450164775254052
  0
LINE
  5
244E5
  8
0
 10
4503.0217463084391056
 20
614.0184460934651725
 30
0.0
 11
4503.0217554535383897
 21
611.6418774982544164
 31
0.0
  0
ARC
  5
244E6
  8
0
 10
4503.1039897646596728
 20
611.6474073637085667
 30
0.0
 40
0.0824200299533133
 50
183.8470763153692076
 51
261.3864160044975051
  0
LINE
  5
244E7
  8
0
 10
4503.0916457366383838
 20
611.5659169574652196
 30
0.0
 11
4510.2327556614391142
 21
611.5634344057652925
 31
0.0
  0
ARC
  5
244E8
  8
0
 10
4510.2234935879123441
 20
611.6488750594719477
 30
0.0
 40
0.0859412084614658
 50
276.1869088070799876
 51
355.3485027668336897
  0
LINE
  5
244E9
  8
0
 10
4510.3091517398379438
 20
611.6419056749653009
 30
0.0
 11
4510.3091426012388183
 21
614.0184742403653217
 31
0.0
  0
ARC
  5
244EA
  8
0
 10
4506.5761972733207585
 20
611.4647462463481133
 30
0.0
 40
0.082590736034968
 50
3.942111706236497
 51
81.2913706712686945
  0
LINE
  5
244EB
  8
0
 10
4506.5887023115392367
 20
611.5463848015652957
 30
0.0
 11
4499.4475923796389907
 21
611.5488673531651784
 31
0.0
  0
ARC
  5
244EC
  8
0
 10
4499.4568603306879595
 20
611.4634209843829922
 30
0.0
 40
0.0859475238429649
 50
96.1903935601906568
 51
175.3450164775254052
  0
LINE
  5
244ED
  8
0
 10
4499.3711963084379022
 20
611.4703960934652969
 30
0.0
 11
4499.3712054535371863
 21
609.0938274982544272
 31
0.0
  0
ARC
  5
244EE
  8
0
 10
4499.4534397646602883
 20
609.0993573637086911
 30
0.0
 40
0.0824200299533133
 50
183.8470763153692076
 51
261.3864160044975051
  0
LINE
  5
244EF
  8
0
 10
4499.4410957366380899
 20
609.0178669574652304
 30
0.0
 11
4506.5822056614379107
 21
609.0153844057653032
 31
0.0
  0
ARC
  5
244F0
  8
0
 10
4506.5729435879120501
 20
609.1008250594718447
 30
0.0
 40
0.0859412084614658
 50
276.1869088070799876
 51
355.3485027668336897
  0
LINE
  5
244F1
  8
0
 10
4506.6586017398385593
 20
609.0938556749653117
 30
0.0
 11
4506.6585926012394339
 21
611.4704242403653325
 31
0.0
  0
ARC
  5
244F2
  8
0
 10
4499.2750972733210801
 20
611.4647462463481133
 30
0.0
 40
0.082590736034968
 50
3.942111706236497
 51
81.2913706712686945
  0
LINE
  5
244F3
  8
0
 10
4499.2876023115386488
 20
611.5463848015652957
 30
0.0
 11
4492.1464923796384028
 21
611.5488673531651784
 31
0.0
  0
ARC
  5
244F4
  8
0
 10
4492.1557603306882811
 20
611.4634209843829922
 30
0.0
 40
0.0859475238429649
 50
96.1903935601906568
 51
175.3450164775254052
  0
LINE
  5
244F5
  8
0
 10
4492.0700963084391333
 20
611.4703960934652969
 30
0.0
 11
4492.0701054535384174
 21
609.0938274982544272
 31
0.0
  0
ARC
  5
244F6
  8
0
 10
4492.1523397646597004
 20
609.0993573637086911
 30
0.0
 40
0.0824200299533133
 50
183.8470763153692076
 51
261.3864160044975051
  0
LINE
  5
244F7
  8
0
 10
4492.1399957366384115
 20
609.0178669574652304
 30
0.0
 11
4499.2811056614391418
 21
609.0153844057653032
 31
0.0
  0
ARC
  5
244F8
  8
0
 10
4499.2718435879123717
 20
609.1008250594718447
 30
0.0
 40
0.0859412084614658
 50
276.1869088070799876
 51
355.3485027668336897
  0
LINE
  5
244F9
  8
0
 10
4499.3575017398388809
 20
609.0938556749653117
 30
0.0
 11
4499.357492601238846
 21
611.4704242403653325
 31
0.0
  0
ARC
  5
244FA
  8
0
 10
4491.9739972733195827
 20
611.4647462463481133
 30
0.0
 40
0.082590736034968
 50
3.942111706236497
 51
81.2913706712686945
  0
LINE
  5
244FB
  8
0
 10
4491.9865023115389704
 20
611.5463848015652957
 30
0.0
 11
4484.8453923796378149
 21
611.5488673531651784
 31
0.0
  0
ARC
  5
244FC
  8
0
 10
4484.8546603306886027
 20
611.4634209843829922
 30
0.0
 40
0.0859475238429649
 50
96.1903935601906568
 51
175.3450164775254052
  0
LINE
  5
244FD
  8
0
 10
4484.7689963084376359
 20
611.4703960934652969
 30
0.0
 11
4484.7690054535378295
 21
609.0938274982544272
 31
0.0
  0
ARC
  5
244FE
  8
0
 10
4484.8512397646609315
 20
609.0993573637086911
 30
0.0
 40
0.0824200299533133
 50
183.8470763153692076
 51
261.3864160044975051
  0
LINE
  5
244FF
  8
0
 10
4484.8388957366387331
 20
609.0178669574652304
 30
0.0
 11
4491.9800056614376444
 21
609.0153844057653032
 31
0.0
  0
ARC
  5
24500
  8
0
 10
4491.9707435879117838
 20
609.1008250594718447
 30
0.0
 40
0.0859412084614658
 50
276.1869088070799876
 51
355.3485027668336897
  0
LINE
  5
24501
  8
0
 10
4492.0564017398392025
 20
609.0938556749653117
 30
0.0
 11
4492.0563926012391676
 21
611.4704242403653325
 31
0.0
  0
ARC
  5
24502
  8
0
 10
4495.624223181043817
 20
608.9166304018931442
 30
0.0
 40
0.082590736034968
 50
3.942111706236497
 51
81.2913706712686945
  0
LINE
  5
24503
  8
0
 10
4495.6367282192622952
 20
608.9982689571103265
 30
0.0
 11
4488.4956182873620492
 21
609.0007515087103229
 31
0.0
  0
ARC
  5
24504
  8
0
 10
4488.5048862384119275
 20
608.9153051399279093
 30
0.0
 40
0.0859475238429649
 50
96.1903935601906568
 51
175.3450164775254052
  0
LINE
  5
24505
  8
0
 10
4488.4192222161627797
 20
608.9222802490103277
 30
0.0
 11
4488.4192313612620637
 21
606.5457116537993443
 31
0.0
  0
ARC
  5
24506
  8
0
 10
4488.5014656723842563
 20
606.5512415192537219
 30
0.0
 40
0.0824200299533133
 50
183.8470763153692076
 51
261.3864160044975051
  0
LINE
  5
24507
  8
0
 10
4488.4891216443620579
 20
606.4697511130101475
 30
0.0
 11
4495.6302315691627882
 21
606.467268561310334
 31
0.0
  0
ARC
  5
24508
  8
0
 10
4495.6209694956360181
 20
606.5527092150168755
 30
0.0
 40
0.0859412084614658
 50
276.1869088070799876
 51
355.3485027668336897
  0
LINE
  5
24509
  8
0
 10
4495.7066276475634368
 20
606.5457398305103425
 30
0.0
 11
4495.7066185089615828
 21
608.9223083959103633
 31
0.0
  0
ARC
  5
2450A
  8
0
 10
4502.9256472733195551
 20
608.9166962463480104
 30
0.0
 40
0.082590736034968
 50
3.942111706236497
 51
81.2913706712686945
  0
LINE
  5
2450B
  8
0
 10
4502.9381523115380332
 20
608.9983348015651927
 30
0.0
 11
4495.7970423796377872
 21
609.0008173531653028
 31
0.0
  0
ARC
  5
2450C
  8
0
 10
4495.8063103306876656
 20
608.9153709843830029
 30
0.0
 40
0.0859475238429649
 50
96.1903935601906568
 51
175.3450164775254052
  0
LINE
  5
2450D
  8
0
 10
4495.7206463084376082
 20
608.9223460934653076
 30
0.0
 11
4495.7206554535378018
 21
606.5457774982544379
 31
0.0
  0
ARC
  5
2450E
  8
0
 10
4495.8028897646599944
 20
606.5513073637085881
 30
0.0
 40
0.0824200299533133
 50
183.8470763153692076
 51
261.3864160044975051
  0
LINE
  5
2450F
  8
0
 10
4495.7905457366377959
 20
606.4698169574652411
 30
0.0
 11
4502.9316556614376168
 21
606.4673344057653139
 31
0.0
  0
ARC
  5
24510
  8
0
 10
4502.9223935879126657
 20
606.5527750594719691
 30
0.0
 40
0.0859412084614658
 50
276.1869088070799876
 51
355.3485027668336897
  0
LINE
  5
24511
  8
0
 10
4503.0080517398391748
 20
606.5458056749653224
 30
0.0
 11
4503.0080426012391399
 21
608.9223742403653432
 31
0.0
  0
ARC
  5
24512
  8
0
 10
4510.226747273320143
 20
608.9166962463480104
 30
0.0
 40
0.082590736034968
 50
3.942111706236497
 51
81.2913706712686945
  0
LINE
  5
24513
  8
0
 10
4510.2392523115377116
 20
608.9983348015651927
 30
0.0
 11
4503.0981423796392846
 21
609.0008173531653028
 31
0.0
  0
ARC
  5
24514
  8
0
 10
4503.1074103306882535
 20
608.9153709843830029
 30
0.0
 40
0.0859475238429649
 50
96.1903935601906568
 51
175.3450164775254052
  0
LINE
  5
24515
  8
0
 10
4503.0217463084391056
 20
608.9223460934653076
 30
0.0
 11
4503.0217554535383897
 21
606.5457774982544379
 31
0.0
  0
ARC
  5
24516
  8
0
 10
4503.1039897646596728
 20
606.5513073637085881
 30
0.0
 40
0.0824200299533133
 50
183.8470763153692076
 51
261.3864160044975051
  0
LINE
  5
24517
  8
0
 10
4503.0916457366383838
 20
606.4698169574652411
 30
0.0
 11
4510.2327556614391142
 21
606.4673344057653139
 31
0.0
  0
ARC
  5
24518
  8
0
 10
4510.2234935879123441
 20
606.5527750594719691
 30
0.0
 40
0.0859412084614658
 50
276.1869088070799876
 51
355.3485027668336897
  0
LINE
  5
24519
  8
0
 10
4510.3091517398379438
 20
606.5458056749653224
 30
0.0
 11
4510.3091426012388183
 21
608.9223742403653432
 31
0.0
  0
ARC
  5
2451A
  8
0
 10
4506.5761972733207585
 20
606.3686462463481348
 30
0.0
 40
0.082590736034968
 50
3.942111706236497
 51
81.2913706712686945
  0
LINE
  5
2451B
  8
0
 10
4506.5887023115392367
 20
606.4502848015653171
 30
0.0
 11
4499.4475923796389907
 21
606.4527673531653136
 31
0.0
  0
ARC
  5
2451C
  8
0
 10
4499.4568603306879595
 20
606.3673209843829
 30
0.0
 40
0.0859475238429649
 50
96.1903935601906568
 51
175.3450164775254052
  0
LINE
  5
2451D
  8
0
 10
4499.3711963084379022
 20
606.3742960934653183
 30
0.0
 11
4499.3712054535371863
 21
603.9977274982544486
 31
0.0
  0
ARC
  5
2451E
  8
0
 10
4499.4534397646602883
 20
604.0032573637087125
 30
0.0
 40
0.0824200299533133
 50
183.8470763153692076
 51
261.3864160044975051
  0
LINE
  5
2451F
  8
0
 10
4499.4410957366380899
 20
603.9217669574652518
 30
0.0
 11
4506.5822056614379107
 21
603.919284405765211
 31
0.0
  0
ARC
  5
24520
  8
0
 10
4506.5729435879120501
 20
604.0047250594718662
 30
0.0
 40
0.0859412084614658
 50
276.1869088070799876
 51
355.3485027668336897
  0
LINE
  5
24521
  8
0
 10
4506.6586017398385593
 20
603.9977556749653331
 30
0.0
 11
4506.6585926012394339
 21
606.3743242403653539
 31
0.0
  0
ARC
  5
24522
  8
0
 10
4499.2750972733210801
 20
606.3686462463481348
 30
0.0
 40
0.082590736034968
 50
3.942111706236497
 51
81.2913706712686945
  0
LINE
  5
24523
  8
0
 10
4499.2876023115386488
 20
606.4502848015653171
 30
0.0
 11
4492.1464923796384028
 21
606.4527673531653136
 31
0.0
  0
ARC
  5
24524
  8
0
 10
4492.1557603306882811
 20
606.3673209843829
 30
0.0
 40
0.0859475238429649
 50
96.1903935601906568
 51
175.3450164775254052
  0
LINE
  5
24525
  8
0
 10
4492.0700963084391333
 20
606.3742960934653183
 30
0.0
 11
4492.0701054535384174
 21
603.9977274982544486
 31
0.0
  0
ARC
  5
24526
  8
0
 10
4492.1523397646597004
 20
604.0032573637087125
 30
0.0
 40
0.0824200299533133
 50
183.8470763153692076
 51
261.3864160044975051
  0
LINE
  5
24527
  8
0
 10
4492.1399957366384115
 20
603.9217669574652518
 30
0.0
 11
4499.2811056614391418
 21
603.919284405765211
 31
0.0
  0
ARC
  5
24528
  8
0
 10
4499.2718435879123717
 20
604.0047250594718662
 30
0.0
 40
0.0859412084614658
 50
276.1869088070799876
 51
355.3485027668336897
  0
LINE
  5
24529
  8
0
 10
4499.3575017398388809
 20
603.9977556749653331
 30
0.0
 11
4499.357492601238846
 21
606.3743242403653539
 31
0.0
  0
ARC
  5
2452A
  8
0
 10
4491.9739972733195827
 20
606.3686462463481348
 30
0.0
 40
0.082590736034968
 50
3.942111706236497
 51
81.2913706712686945
  0
LINE
  5
2452B
  8
0
 10
4491.9865023115389704
 20
606.4502848015653171
 30
0.0
 11
4484.8453923796378149
 21
606.4527673531653136
 31
0.0
  0
ARC
  5
2452C
  8
0
 10
4484.8546603306886027
 20
606.3673209843829
 30
0.0
 40
0.0859475238429649
 50
96.1903935601906568
 51
175.3450164775254052
  0
LINE
  5
2452D
  8
0
 10
4484.7689963084376359
 20
606.3742960934653183
 30
0.0
 11
4484.7690054535378295
 21
603.9977274982544486
 31
0.0
  0
ARC
  5
2452E
  8
0
 10
4484.8512397646609315
 20
604.0032573637087125
 30
0.0
 40
0.0824200299533133
 50
183.8470763153692076
 51
261.3864160044975051
  0
LINE
  5
2452F
  8
0
 10
4484.8388957366387331
 20
603.9217669574652518
 30
0.0
 11
4491.9800056614376444
 21
603.919284405765211
 31
0.0
  0
ARC
  5
24530
  8
0
 10
4491.9707435879117838
 20
604.0047250594718662
 30
0.0
 40
0.0859412084614658
 50
276.1869088070799876
 51
355.3485027668336897
  0
LINE
  5
24531
  8
0
 10
4492.0564017398392025
 20
603.9977556749653331
 30
0.0
 11
4492.0563926012391676
 21
606.3743242403653539
 31
0.0
  0
ARC
  5
24532
  8
0
 10
4495.6245472733207862
 20
603.8205962463481455
 30
0.0
 40
0.082590736034968
 50
3.942111706236497
 51
81.2913706712686945
  0
LINE
  5
24533
  8
0
 10
4495.6370523115392643
 20
603.9022348015653279
 30
0.0
 11
4488.4959423796381088
 21
603.9047173531653243
 31
0.0
  0
ARC
  5
24534
  8
0
 10
4488.5052103306879872
 20
603.8192709843830244
 30
0.0
 40
0.0859475238429649
 50
96.1903935601906568
 51
175.3450164775254052
  0
LINE
  5
24535
  8
0
 10
4488.4195463084379298
 20
603.8262460934653291
 30
0.0
 11
4488.4195554535381234
 21
601.4496774982544594
 31
0.0
  0
ARC
  5
24536
  8
0
 10
4488.5017897646612255
 20
601.4552073637084959
 30
0.0
 40
0.0824200299533133
 50
183.8470763153692076
 51
261.3864160044975051
  0
LINE
  5
24537
  8
0
 10
4488.4894457366381175
 20
601.3737169574651489
 30
0.0
 11
4495.6305556614379384
 21
601.3712344057653354
 31
0.0
  0
ARC
  5
24538
  8
0
 10
4495.6212935879120778
 20
601.4566750594719906
 30
0.0
 40
0.0859412084614658
 50
276.1869088070799876
 51
355.3485027668336897
  0
LINE
  5
24539
  8
0
 10
4495.7069517398385869
 20
601.4497056749653439
 30
0.0
 11
4495.706942601238552
 21
603.826274240365251
 31
0.0
  0
ARC
  5
2453A
  8
0
 10
4502.9256472733195551
 20
603.8205962463481455
 30
0.0
 40
0.082590736034968
 50
3.942111706236497
 51
81.2913706712686945
  0
LINE
  5
2453B
  8
0
 10
4502.9381523115380332
 20
603.9022348015653279
 30
0.0
 11
4495.7970423796377872
 21
603.9047173531653243
 31
0.0
  0
ARC
  5
2453C
  8
0
 10
4495.8063103306876656
 20
603.8192709843830244
 30
0.0
 40
0.0859475238429649
 50
96.1903935601906568
 51
175.3450164775254052
  0
LINE
  5
2453D
  8
0
 10
4495.7206463084376082
 20
603.8262460934653291
 30
0.0
 11
4495.7206554535378018
 21
601.4496774982544594
 31
0.0
  0
ARC
  5
2453E
  8
0
 10
4495.8028897646599944
 20
601.4552073637084959
 30
0.0
 40
0.0824200299533133
 50
183.8470763153692076
 51
261.3864160044975051
  0
LINE
  5
2453F
  8
0
 10
4495.7905457366377959
 20
601.3737169574651489
 30
0.0
 11
4502.9316556614376168
 21
601.3712344057653354
 31
0.0
  0
ARC
  5
24540
  8
0
 10
4502.9223935879126657
 20
601.4566750594719906
 30
0.0
 40
0.0859412084614658
 50
276.1869088070799876
 51
355.3485027668336897
  0
LINE
  5
24541
  8
0
 10
4503.0080517398391748
 20
601.4497056749653439
 30
0.0
 11
4503.0080426012391399
 21
603.826274240365251
 31
0.0
  0
ARC
  5
24542
  8
0
 10
4510.226747273320143
 20
603.8205962463481455
 30
0.0
 40
0.082590736034968
 50
3.942111706236497
 51
81.2913706712686945
  0
LINE
  5
24543
  8
0
 10
4510.2392523115377116
 20
603.9022348015653279
 30
0.0
 11
4503.0981423796392846
 21
603.9047173531653243
 31
0.0
  0
ARC
  5
24544
  8
0
 10
4503.1074103306882535
 20
603.8192709843830244
 30
0.0
 40
0.0859475238429649
 50
96.1903935601906568
 51
175.3450164775254052
  0
LINE
  5
24545
  8
0
 10
4503.0217463084391056
 20
603.8262460934653291
 30
0.0
 11
4503.0217554535383897
 21
601.4496774982544594
 31
0.0
  0
ARC
  5
24546
  8
0
 10
4503.1039897646596728
 20
601.4552073637084959
 30
0.0
 40
0.0824200299533133
 50
183.8470763153692076
 51
261.3864160044975051
  0
LINE
  5
24547
  8
0
 10
4503.0916457366383838
 20
601.3737169574651489
 30
0.0
 11
4510.2327556614391142
 21
601.3712344057653354
 31
0.0
  0
ARC
  5
24548
  8
0
 10
4510.2234935879123441
 20
601.4566750594719906
 30
0.0
 40
0.0859412084614658
 50
276.1869088070799876
 51
355.3485027668336897
  0
LINE
  5
24549
  8
0
 10
4510.3091517398379438
 20
601.4497056749653439
 30
0.0
 11
4510.3091426012388183
 21
603.826274240365251
 31
0.0
  0
ARC
  5
2454A
  8
0
 10
4480.0690607404303591
 20
621.3516620538782718
 30
0.0
 40
1.6165649126030699
 50
1.2996828926257891
 51
13.9631559315515705
  0
LINE
  5
2454B
  8
0
 10
4481.6852097672526725
 20
621.3883286566067454
 30
0.0
 11
4481.6852097679384315
 21
619.560325879466177
 31
0.0
  0
ARC
  5
2454C
  8
0
 10
4480.0674159613436132
 20
619.5972097986913241
 30
0.0
 40
1.618214208364283
 50
346.0433338061126847
 51
358.6939455121008109
  0
ARC
  5
2454D
  8
0
 10
4484.6751341069193586
 20
621.6620977786972162
 30
0.0
 40
0.0796300539901669
 50
356.9903457378719054
 51
90.9176753424951443
  0
LINE
  5
2454E
  8
0
 10
4484.6738587701756842
 20
621.7417176192815305
 30
0.0
 11
4481.6378579277388781
 21
621.7417357671066611
 31
0.0
  0
LINE
  5
2454F
  8
0
 10
4481.6378579271240596
 20
619.2069159910662393
 30
0.0
 11
4484.6737105264910497
 21
619.206782013624661
 31
0.0
  0
ARC
  5
24550
  8
0
 10
4484.6749499855977774
 20
619.2866518640339564
 30
0.0
 40
0.0798794670943839
 50
269.1109276478640027
 51
2.9922440426863441
  0
LINE
  5
24551
  8
0
 10
4484.7547205458386088
 20
619.2908216340661056
 30
0.0
 11
4484.7546543273392672
 21
621.6579168645661184
 31
0.0
  0
ARC
  5
24552
  8
0
 10
4484.6751341069193586
 20
616.5659977786973514
 30
0.0
 40
0.0796300539901669
 50
356.9903457378719054
 51
90.9176753424951443
  0
LINE
  5
24553
  8
0
 10
4484.6738587701756842
 20
616.6456176192816656
 30
0.0
 11
4481.6378579277388781
 21
616.6456357671067963
 31
0.0
  0
LINE
  5
24554
  8
0
 10
4481.6378579271240596
 20
614.1108159910664881
 30
0.0
 11
4484.6737105264910497
 21
614.1106820136249098
 31
0.0
  0
ARC
  5
24555
  8
0
 10
4484.6749499855977774
 20
614.1905518640343189
 30
0.0
 40
0.0798794670943839
 50
269.1109276478640027
 51
2.9922440426863441
  0
LINE
  5
24556
  8
0
 10
4484.7547205458386088
 20
614.1947216340662408
 30
0.0
 11
4484.7546543273392672
 21
616.5618168645662536
 31
0.0
  0
ARC
  5
24557
  8
0
 10
4480.0690726336461012
 20
611.1594620529872373
 30
0.0
 40
1.6165649126030699
 50
1.2996828926257891
 51
13.9631559315515705
  0
LINE
  5
24558
  8
0
 10
4481.685221660471143
 20
611.1961286557158246
 30
0.0
 11
4481.685221661155083
 21
609.3681258785751425
 31
0.0
  0
ARC
  5
24559
  8
0
 10
4480.0674278545611742
 20
609.4050097978001759
 30
0.0
 40
1.618214208364283
 50
346.0433338061126847
 51
358.6939455121008109
  0
ARC
  5
2455A
  8
0
 10
4484.6751460001369196
 20
611.4698977778061817
 30
0.0
 40
0.0796300539901669
 50
356.9903457378719054
 51
90.9176753424951443
  0
LINE
  5
2455B
  8
0
 10
4484.6738706633932452
 20
611.5495176183903823
 30
0.0
 11
4481.6378698209546201
 21
611.5495357662156266
 31
0.0
  0
LINE
  5
2455C
  8
0
 10
4481.6378698203407112
 20
609.0147159901753184
 30
0.0
 11
4484.6737224197077012
 21
609.0145820127337402
 31
0.0
  0
ARC
  5
2455D
  8
0
 10
4484.6749618788144289
 20
609.0944518631430356
 30
0.0
 40
0.0798794670943839
 50
269.1109276478640027
 51
2.9922440426863441
  0
LINE
  5
2455E
  8
0
 10
4484.7547324390561698
 20
609.0986216331749574
 30
0.0
 11
4484.7546662205550092
 21
611.4657168636750839
 31
0.0
  0
ARC
  5
2455F
  8
0
 10
4480.0690604151541265
 20
606.063362011414938
 30
0.0
 40
1.616565238696688
 50
1.299683531895597
 51
13.9631546363517796
  0
LINE
  5
24560
  8
0
 10
4481.6852097675791811
 20
606.1000286395717467
 30
0.0
 11
4481.6852097682640306
 21
604.2720258624311782
 31
0.0
  0
ARC
  5
24561
  8
0
 10
4480.0674163257554028
 20
604.3089097532023288
 30
0.0
 40
1.6182138437253071
 50
346.0433322594868741
 51
358.6939462254795217
  0
ARC
  5
24562
  8
0
 10
4484.6751340766113572
 20
606.3737977514362001
 30
0.0
 40
0.0796300831407492
 50
356.9903662663987234
 51
90.9176531959950438
  0
LINE
  5
24563
  8
0
 10
4484.6738587701756842
 20
606.4534176216602646
 30
0.0
 11
4481.6378579277388781
 21
606.4534357678652441
 31
0.0
  0
LINE
  5
24564
  8
0
 10
4481.6378579271240596
 20
603.9186159911320146
 30
0.0
 11
4484.6737080794609938
 21
603.9184819749219741
 31
0.0
  0
ARC
  5
24565
  8
0
 10
4484.6749504905355934
 20
603.9983504384352955
 30
0.0
 40
0.0798781262253188
 50
269.1087950493950984
 51
2.9933279778973221
  0
LINE
  5
24566
  8
0
 10
4484.754719632839624
 20
604.0025216475653451
 30
0.0
 11
4484.7546543276375814
 21
606.3696168642658222
 31
0.0
  0
ARC
  5
24567
  8
0
 10
4488.3234472733192888
 20
624.2049962463480597
 30
0.0
 40
0.082590736034968
 50
3.942111706236497
 51
81.2913706712686945
  0
LINE
  5
24568
  8
0
 10
4488.3359523115386764
 20
624.2866348015653557
 30
0.0
 11
4481.6378579301126592
 21
624.2889633422378211
 31
0.0
  0
LINE
  5
24569
  8
0
 10
4481.6378579277388781
 20
621.7579606880245819
 30
0.0
 11
4488.32945566143826
 21
621.7556344057652495
 31
0.0
  0
ARC
  5
2456A
  8
0
 10
4488.3201935879123994
 20
621.8410750594720184
 30
0.0
 40
0.0859412084614658
 50
276.1869088070799876
 51
355.3485027668336897
  0
LINE
  5
2456B
  8
0
 10
4488.405851739837999
 20
621.834105674965258
 30
0.0
 11
4488.4058426012379641
 21
624.2106742403652788
 31
0.0
  0
ARC
  5
2456C
  8
0
 10
4480.1716364537796835
 20
622.1277450697714357
 30
0.0
 40
1.4985765344588109
 50
348.9364325403482781
 51
359.2597315836163716
  0
LINE
  5
2456D
  8
0
 10
4481.6700879116397118
 20
622.108383817968388
 30
0.0
 11
4481.6700769778708491
 21
623.9363902985186314
 31
0.0
  0
ARC
  5
2456E
  8
0
 10
4480.1419546632605488
 20
623.9140592283132492
 30
0.0
 40
1.528285472385513
 50
0.8372268346296142
 51
10.9127617160909303
  0
ARC
  5
2456F
  8
0
 10
4488.3234472733192888
 20
619.1088962463480811
 30
0.0
 40
0.082590736034968
 50
3.942111706236497
 51
81.2913706712686945
  0
LINE
  5
24570
  8
0
 10
4488.3359523115386764
 20
619.1905348015652635
 30
0.0
 11
4481.6378579272377465
 21
619.1928633422388657
 31
0.0
  0
LINE
  5
24571
  8
0
 10
4481.6378579272586649
 20
616.6618606880247171
 30
0.0
 11
4488.32945566143826
 21
616.6595344057653847
 31
0.0
  0
ARC
  5
24572
  8
0
 10
4488.3201935879123994
 20
616.7449750594720399
 30
0.0
 40
0.0859412084614658
 50
276.1869088070799876
 51
355.3485027668336897
  0
LINE
  5
24573
  8
0
 10
4488.405851739837999
 20
616.7380056749653932
 30
0.0
 11
4488.4058426012379641
 21
619.1145742403651866
 31
0.0
  0
ARC
  5
24574
  8
0
 10
4480.1716364537796835
 20
617.0316450697713435
 30
0.0
 40
1.4985765344588109
 50
348.9364325403482781
 51
359.2597315836163716
  0
LINE
  5
24575
  8
0
 10
4481.6700879116397118
 20
617.0122838179685232
 30
0.0
 11
4481.6700769778708491
 21
618.8402902985186529
 31
0.0
  0
ARC
  5
24576
  8
0
 10
4480.1419546632605488
 20
618.8179592283130432
 30
0.0
 40
1.5282854723856489
 50
0.8372268346328707
 51
10.9127617160909303
  0
ARC
  5
24577
  8
0
 10
4488.3234472733192888
 20
614.0127962463481026
 30
0.0
 40
0.082590736034968
 50
3.942111706236497
 51
81.2913706712686945
  0
LINE
  5
24578
  8
0
 10
4488.3359523115386764
 20
614.0944348015652849
 30
0.0
 11
4481.6378579272395655
 21
614.0967633422387735
 31
0.0
  0
LINE
  5
24579
  8
0
 10
4481.6378672333057693
 20
611.5657606847895522
 30
0.0
 11
4488.32945566143826
 21
611.5634344057654062
 31
0.0
  0
ARC
  5
2457A
  8
0
 10
4488.3201935879123994
 20
611.6488750594719477
 30
0.0
 40
0.0859412084614658
 50
276.1869088070799876
 51
355.3485027668336897
  0
LINE
  5
2457B
  8
0
 10
4488.405851739837999
 20
611.6419056749653009
 30
0.0
 11
4488.4058426012379641
 21
614.0184742403653217
 31
0.0
  0
ARC
  5
2457C
  8
0
 10
4480.1716364537796835
 20
611.9355450697714787
 30
0.0
 40
1.4985765344588109
 50
348.9364325403482781
 51
359.2597315836163716
  0
LINE
  5
2457D
  8
0
 10
4481.6700879116397118
 20
611.9161838179685446
 30
0.0
 11
4481.6700769778708491
 21
613.7441902985185607
 31
0.0
  0
ARC
  5
2457E
  8
0
 10
4480.1419546632605488
 20
613.7218592283130647
 30
0.0
 40
1.5282854723856301
 50
0.8372268346296142
 51
10.9127617160909303
  0
ARC
  5
2457F
  8
0
 10
4488.3234472733192888
 20
608.9166962463480104
 30
0.0
 40
0.082590736034968
 50
3.942111706236497
 51
81.2913706712686945
  0
LINE
  5
24580
  8
0
 10
4488.3359523115386764
 20
608.9983348015651927
 30
0.0
 11
4481.6378675756195662
 21
609.0006633388845785
 31
0.0
  0
LINE
  5
24581
  8
0
 10
4481.6378579277388781
 20
606.4696606880245326
 30
0.0
 11
4488.32945566143826
 21
606.4673344057653139
 31
0.0
  0
ARC
  5
24582
  8
0
 10
4488.3201935879123994
 20
606.5527750594719691
 30
0.0
 40
0.0859412084614658
 50
276.1869088070799876
 51
355.3485027668336897
  0
LINE
  5
24583
  8
0
 10
4488.405851739837999
 20
606.5458056749653224
 30
0.0
 11
4488.4058426012379641
 21
608.9223742403653432
 31
0.0
  0
ARC
  5
24584
  8
0
 10
4480.1716364537796835
 20
606.8394450697715001
 30
0.0
 40
1.4985765344588109
 50
348.9364325403482781
 51
359.2597315836163716
  0
LINE
  5
24585
  8
0
 10
4481.6700879116397118
 20
606.8200838179684524
 30
0.0
 11
4481.6700769778708491
 21
608.6480902985185821
 31
0.0
  0
ARC
  5
24586
  8
0
 10
4480.1419546632605488
 20
608.6257592283131999
 30
0.0
 40
1.528285472385652
 50
0.8372268346328707
 51
10.9127617160909303
  0
ARC
  5
24587
  8
0
 10
4488.3234472733192888
 20
603.8205962463481455
 30
0.0
 40
0.082590736034968
 50
3.942111706236497
 51
81.2913706712686945
  0
LINE
  5
24588
  8
0
 10
4488.3359523115386764
 20
603.9022348015653279
 30
0.0
 11
4481.6378579259753678
 21
603.9045633422391575
 31
0.0
  0
LINE
  5
24589
  8
0
 10
4481.6378577007217245
 20
601.3735606881034528
 30
0.0
 11
4488.32945566143826
 21
601.3712344057653354
 31
0.0
  0
ARC
  5
2458A
  8
0
 10
4488.3201935879123994
 20
601.4566750594719906
 30
0.0
 40
0.0859412084614658
 50
276.1869088070799876
 51
355.3485027668336897
  0
LINE
  5
2458B
  8
0
 10
4488.405851739837999
 20
601.4497056749653439
 30
0.0
 11
4488.4058426012379641
 21
603.826274240365251
 31
0.0
  0
ARC
  5
2458C
  8
0
 10
4480.1716364537796835
 20
601.7433450697715216
 30
0.0
 40
1.4985765344588109
 50
348.9364325403482781
 51
359.2597315836163716
  0
LINE
  5
2458D
  8
0
 10
4481.6700879116397118
 20
601.7239838179683602
 30
0.0
 11
4481.6700769778708491
 21
603.5519902985186036
 31
0.0
  0
ARC
  5
2458E
  8
0
 10
4480.1419546632605488
 20
603.5296592283132213
 30
0.0
 40
1.528285472385559
 50
0.8372268346296142
 51
10.9127617160909303
  0
LINE
  5
2458F
  8
0
 10
4481.637857930667451
 20
624.3030159910651946
 30
0.0
 11
4481.6378579277388781
 21
624.2285647510389026
 31
0.0
  0
LINE
  5
24590
  8
0
 10
4481.6378579277388781
 20
624.2285647510389026
 30
0.0
 11
4481.6426034928390436
 21
624.2033852993653227
 31
0.0
  0
LINE
  5
24591
  8
0
 10
4481.6378579277388781
 20
621.7417357671066611
 30
0.0
 11
4481.6378579277388781
 21
621.8163078751651938
 31
0.0
  0
LINE
  5
24592
  8
0
 10
4481.6378579277388781
 20
621.8163078751651938
 30
0.0
 11
4481.6423617696891597
 21
621.8401712970151038
 31
0.0
  0
LINE
  5
24593
  8
0
 10
4481.6378579271222407
 20
619.2069159910579401
 30
0.0
 11
4481.6378579277388781
 21
619.1324645914653502
 31
0.0
  0
LINE
  5
24594
  8
0
 10
4481.6378579277388781
 20
619.1324645914653502
 30
0.0
 11
4481.6426034928390436
 21
619.1072852993653441
 31
0.0
  0
LINE
  5
24595
  8
0
 10
4481.6378579271240596
 20
616.6456357670060697
 30
0.0
 11
4481.6378579277388781
 21
616.7202078751653289
 31
0.0
  0
LINE
  5
24596
  8
0
 10
4481.6378579277388781
 20
616.7202078751653289
 30
0.0
 11
4481.6423617696882502
 21
616.7440712970144432
 31
0.0
  0
LINE
  5
24597
  8
0
 10
4481.6378579271240596
 20
614.1108159911275379
 30
0.0
 11
4481.6378579277388781
 21
614.0363645914653716
 31
0.0
  0
LINE
  5
24598
  8
0
 10
4481.6378579277388781
 20
614.0363645914653716
 30
0.0
 11
4481.6426034928390436
 21
614.0111852993652519
 31
0.0
  0
LINE
  5
24599
  8
0
 10
4481.6378698209546201
 20
611.5495357662156266
 30
0.0
 11
4481.6378579277388781
 21
611.6241078751653504
 31
0.0
  0
LINE
  5
2459A
  8
0
 10
4481.6378579277388781
 20
611.6241078751653504
 30
0.0
 11
4481.6423617696891597
 21
611.6479712970144647
 31
0.0
  0
LINE
  5
2459B
  8
0
 10
4481.6378698203407112
 20
609.0147159901750911
 30
0.0
 11
4481.6378579277388781
 21
608.9402645914652794
 31
0.0
  0
LINE
  5
2459C
  8
0
 10
4481.6378579277388781
 20
608.9402645914652794
 30
0.0
 11
4481.6426034928390436
 21
608.9150852993651597
 31
0.0
  0
LINE
  5
2459D
  8
0
 10
4481.6378579277388781
 20
606.4534357678652441
 30
0.0
 11
4481.6378579277388781
 21
606.5280078751652582
 31
0.0
  0
LINE
  5
2459E
  8
0
 10
4481.6378579277388781
 20
606.5280078751652582
 30
0.0
 11
4481.6423617702948832
 21
606.5518713001164315
 31
0.0
  0
LINE
  5
2459F
  8
0
 10
4481.6378579271240596
 20
603.9186159911320146
 30
0.0
 11
4481.6378579210386306
 21
603.844164626265183
 31
0.0
  0
LINE
  5
245A0
  8
0
 10
4481.6378579210386306
 20
603.844164626265183
 30
0.0
 11
4481.6426034928390436
 21
603.8189852993652948
 31
0.0
  0
LINE
  5
245A1
  8
0
 10
4481.6428295706136851
 20
601.284597727472601
 30
0.0
 11
4481.6378576949409762
 21
601.3089056058023516
 31
0.0
  0
LINE
  5
245A2
  8
0
 10
4481.6378576949409762
 20
601.3089056058023516
 30
0.0
 11
4481.6378577059385862
 21
601.4319067175653117
 31
0.0
  0
LINE
  5
245A3
  8
0
 10
4481.6378577059385862
 20
601.4319067175653117
 30
0.0
 11
4481.6423617696882502
 21
601.4557712970140528
 31
0.0
  0
ARC
  5
245A4
  8
0
 10
4480.2255505005568921
 20
600.9907392339353009
 30
0.0
 40
1.447422805074277
 50
0.5219727126525583
 51
11.7137260136696799
  0
LINE
  5
245A5
  8
0
 10
4481.6729132418386143
 20
601.0039252794653066
 30
0.0
 11
4481.6729132418386143
 21
599.1759252794653321
 31
0.0
  0
ARC
  5
245A6
  8
0
 10
4480.0889839639194179
 20
599.2018306072511677
 30
0.0
 40
1.584141105917636
 50
346.3960380263504248
 51
359.0630051169919739
  0
ARC
  5
245A7
  8
0
 10
4481.8128777819947572
 20
599.786304565959199
 30
0.0
 40
1.5712292105843659
 50
90.2063085999914875
 51
93.9679279216225041
  0
ARC
  5
245A8
  8
0
 10
4482.2518280332624272
 20
553.0794606474203192
 30
0.0
 40
45.8125990487561694
 50
90.518727870877342
 51
90.7630485284395547
  0
ARC
  5
245A9
  8
0
 10
4510.226689618491946
 20
598.7244401858401943
 30
0.0
 40
0.0826573140842531
 50
3.9583061792597301
 51
81.2117058123482281
  0
LINE
  5
245AA
  8
0
 10
4510.23931832803828
 20
598.8061270713653812
 30
0.0
 11
4503.0915799690392305
 21
598.8061256151653424
 31
0.0
  0
ARC
  5
245AB
  8
0
 10
4503.1041959703470638
 20
598.7244584817431132
 30
0.0
 40
0.0826358528148742
 50
98.7816787481323928
 51
176.036030093163788
  0
LINE
  5
245AC
  8
0
 10
4503.0217578057190622
 20
598.7301710278480869
 30
0.0
 11
4503.0217482909956743
 21
596.3536056936732166
 31
0.0
  0
ARC
  5
245AD
  8
0
 10
4503.104226270998879
 20
596.3593279701462961
 30
0.0
 40
0.0826762458821125
 50
183.9687895936662869
 51
261.2012228403817744
  0
LINE
  5
245AE
  8
0
 10
4503.0915797201378155
 20
596.2776246875653214
 30
0.0
 11
4510.2393180761391704
 21
596.2778757997652974
 31
0.0
  0
ARC
  5
245AF
  8
0
 10
4510.2272479226212454
 20
596.3590589779424818
 30
0.0
 40
0.0820755568051146
 50
278.4566736798342959
 51
356.1706186007623955
  0
LINE
  5
245B0
  8
0
 10
4510.3091402335749081
 20
596.3535775153928853
 30
0.0
 11
4510.3091497574805544
 21
598.7301460643305973
 31
0.0
  0
ARC
  5
245B1
  8
0
 10
4502.9255896184913581
 20
598.7244401858401943
 30
0.0
 40
0.0826573140842531
 50
3.9583061792597301
 51
81.2117058123482281
  0
LINE
  5
245B2
  8
0
 10
4502.9382183280386016
 20
598.8061270713653812
 30
0.0
 11
4495.7904799690386426
 21
598.8061256151653424
 31
0.0
  0
ARC
  5
245B3
  8
0
 10
4495.8030959703482949
 20
598.7244584817431132
 30
0.0
 40
0.0826358528148742
 50
98.7816787481323928
 51
176.036030093163788
  0
LINE
  5
245B4
  8
0
 10
4495.7206578057193838
 20
598.7301710278480869
 30
0.0
 11
4495.7206482909969054
 21
596.3536056936732166
 31
0.0
  0
ARC
  5
245B5
  8
0
 10
4495.8031262709992006
 20
596.3593279701462961
 30
0.0
 40
0.0826762458821125
 50
183.9687895936662869
 51
261.2012228403817744
  0
LINE
  5
245B6
  8
0
 10
4495.7904797201390465
 20
596.2776246875653214
 30
0.0
 11
4502.9382180761385825
 21
596.2778757997652974
 31
0.0
  0
ARC
  5
245B7
  8
0
 10
4502.9261479226206575
 20
596.3590589779424818
 30
0.0
 40
0.0820755568051146
 50
278.4566736798342959
 51
356.1706186007623955
  0
LINE
  5
245B8
  8
0
 10
4503.0080402335752296
 20
596.3535775153928853
 30
0.0
 11
4503.0080497574817855
 21
598.7301460643305973
 31
0.0
  0
ARC
  5
245B9
  8
0
 10
4495.6244896184907702
 20
598.7244401858401943
 30
0.0
 40
0.0826573140842531
 50
3.9583061792597301
 51
81.2117058123482281
  0
LINE
  5
245BA
  8
0
 10
4495.6371183280389232
 20
598.8061270713653812
 30
0.0
 11
4488.4893799690380547
 21
598.8061256151653424
 31
0.0
  0
ARC
  5
245BB
  8
0
 10
4488.501995970347707
 20
598.7244584817431132
 30
0.0
 40
0.0826358528148742
 50
98.7816787481323928
 51
176.036030093163788
  0
LINE
  5
245BC
  8
0
 10
4488.4195578057187959
 20
598.7301710278480869
 30
0.0
 11
4488.419548290997227
 21
596.3536056936732166
 31
0.0
  0
ARC
  5
245BD
  8
0
 10
4488.5020262709986127
 20
596.3593279701462961
 30
0.0
 40
0.0826762458821125
 50
183.9687895936662869
 51
261.2012228403817744
  0
LINE
  5
245BE
  8
0
 10
4488.4893797201393681
 20
596.2776246875653214
 30
0.0
 11
4495.6371180761379946
 21
596.2778757997652974
 31
0.0
  0
ARC
  5
245BF
  8
0
 10
4495.6250479226209791
 20
596.3590589779424818
 30
0.0
 40
0.0820755568051146
 50
278.4566736798342959
 51
356.1706186007623955
  0
LINE
  5
245C0
  8
0
 10
4495.7069402335737323
 20
596.3535775153928853
 30
0.0
 11
4495.7069497574821071
 21
598.7301460643305973
 31
0.0
  0
ARC
  5
245C1
  8
0
 10
4491.9739396184922953
 20
596.176390185840205
 30
0.0
 40
0.0826573140842531
 50
3.9583061792597301
 51
81.2117058123482281
  0
LINE
  5
245C2
  8
0
 10
4491.9865683280377198
 20
596.2580770713652782
 30
0.0
 11
4484.8388299690377607
 21
596.2580756151653532
 31
0.0
  0
ARC
  5
245C3
  8
0
 10
4484.8514459703483226
 20
596.1764084817430103
 30
0.0
 40
0.0826358528148742
 50
98.7816787481323928
 51
176.036030093163788
  0
LINE
  5
245C4
  8
0
 10
4484.7690078057194114
 20
596.1821210278482113
 30
0.0
 11
4484.7689982909969331
 21
593.8055556936732273
 31
0.0
  0
ARC
  5
245C5
  8
0
 10
4484.8514762709992283
 20
593.8112779701461932
 30
0.0
 40
0.0826762458821125
 50
183.9687895936662869
 51
261.2012228403817744
  0
LINE
  5
245C6
  8
0
 10
4484.8388297201381647
 20
593.7295746875653322
 30
0.0
 11
4491.9865680761386102
 21
593.7298257997651945
 31
0.0
  0
ARC
  5
245C7
  8
0
 10
4491.9744979226215946
 20
593.8110089779423788
 30
0.0
 40
0.0820755568051146
 50
278.4566736798342959
 51
356.1706186007623955
  0
LINE
  5
245C8
  8
0
 10
4492.0563902335752573
 20
593.8055275153930097
 30
0.0
 11
4492.0563997574818131
 21
596.182096064330608
 31
0.0
  0
ARC
  5
245C9
  8
0
 10
4499.2750396184919737
 20
596.176390185840205
 30
0.0
 40
0.0826573140842531
 50
3.9583061792597301
 51
81.2117058123482281
  0
LINE
  5
245CA
  8
0
 10
4499.2876683280392172
 20
596.2580770713652782
 30
0.0
 11
4492.1399299690392581
 21
596.2580756151653532
 31
0.0
  0
ARC
  5
245CB
  8
0
 10
4492.1525459703470915
 20
596.1764084817430103
 30
0.0
 40
0.0826358528148742
 50
98.7816787481323928
 51
176.036030093163788
  0
LINE
  5
245CC
  8
0
 10
4492.0701078057190898
 20
596.1821210278482113
 30
0.0
 11
4492.0700982909966115
 21
593.8055556936732273
 31
0.0
  0
ARC
  5
245CD
  8
0
 10
4492.1525762709989067
 20
593.8112779701461932
 30
0.0
 40
0.0826762458821125
 50
183.9687895936662869
 51
261.2012228403817744
  0
LINE
  5
245CE
  8
0
 10
4492.1399297201378431
 20
593.7295746875653322
 30
0.0
 11
4499.2876680761391981
 21
593.7298257997651945
 31
0.0
  0
ARC
  5
245CF
  8
0
 10
4499.275597922621273
 20
593.8110089779423788
 30
0.0
 40
0.0820755568051146
 50
278.4566736798342959
 51
356.1706186007623955
  0
LINE
  5
245D0
  8
0
 10
4499.3574902335749357
 20
593.8055275153930097
 30
0.0
 11
4499.357499757482401
 21
596.182096064330608
 31
0.0
  0
ARC
  5
245D1
  8
0
 10
4506.5761396184907426
 20
596.176390185840205
 30
0.0
 40
0.0826573140842531
 50
3.9583061792597301
 51
81.2117058123482281
  0
LINE
  5
245D2
  8
0
 10
4506.5887683280388956
 20
596.2580770713652782
 30
0.0
 11
4499.4410299690389365
 21
596.2580756151653532
 31
0.0
  0
ARC
  5
245D3
  8
0
 10
4499.4536459703467699
 20
596.1764084817430103
 30
0.0
 40
0.0826358528148742
 50
98.7816787481323928
 51
176.036030093163788
  0
LINE
  5
245D4
  8
0
 10
4499.3712078057178587
 20
596.1821210278482113
 30
0.0
 11
4499.3711982909962899
 21
593.8055556936732273
 31
0.0
  0
ARC
  5
245D5
  8
0
 10
4499.4536762710004041
 20
593.8112779701461932
 30
0.0
 40
0.0826762458821125
 50
183.9687895936662869
 51
261.2012228403817744
  0
LINE
  5
245D6
  8
0
 10
4499.4410297201393405
 20
593.7295746875653322
 30
0.0
 11
4506.5887680761388765
 21
593.7298257997651945
 31
0.0
  0
ARC
  5
245D7
  8
0
 10
4506.5766979226209514
 20
593.8110089779423788
 30
0.0
 40
0.0820755568051146
 50
278.4566736798342959
 51
356.1706186007623955
  0
LINE
  5
245D8
  8
0
 10
4506.6585902335737046
 20
593.8055275153930097
 30
0.0
 11
4506.6585997574811699
 21
596.182096064330608
 31
0.0
  0
ARC
  5
245D9
  8
0
 10
4510.226689618491946
 20
593.6283401858402158
 30
0.0
 40
0.0826573140842531
 50
3.9583061792597301
 51
81.2117058123482281
  0
LINE
  5
245DA
  8
0
 10
4510.23931832803828
 20
593.710027071365289
 30
0.0
 11
4503.0915799690392305
 21
593.7100256151652502
 31
0.0
  0
ARC
  5
245DB
  8
0
 10
4503.1041959703470638
 20
593.6283584817431347
 30
0.0
 40
0.0826358528148742
 50
98.7816787481323928
 51
176.036030093163788
  0
LINE
  5
245DC
  8
0
 10
4503.0217578057190622
 20
593.6340710278479946
 30
0.0
 11
4503.0217482909956743
 21
591.2575056936732381
 31
0.0
  0
ARC
  5
245DD
  8
0
 10
4503.104226270998879
 20
591.2632279701463176
 30
0.0
 40
0.0826762458821125
 50
183.9687895936662869
 51
261.2012228403817744
  0
LINE
  5
245DE
  8
0
 10
4503.0915797201378155
 20
591.1815246875653429
 30
0.0
 11
4510.2393180761391704
 21
591.1817757997653189
 31
0.0
  0
ARC
  5
245DF
  8
0
 10
4510.2272479226212454
 20
591.2629589779425032
 30
0.0
 40
0.0820755568051146
 50
278.4566736798342959
 51
356.1706186007623955
  0
LINE
  5
245E0
  8
0
 10
4510.3091402335749081
 20
591.2574775153930204
 30
0.0
 11
4510.3091497574805544
 21
593.634046064330505
 31
0.0
  0
ARC
  5
245E1
  8
0
 10
4502.9255896184913581
 20
593.6283401858402158
 30
0.0
 40
0.0826573140842531
 50
3.9583061792597301
 51
81.2117058123482281
  0
LINE
  5
245E2
  8
0
 10
4502.9382183280386016
 20
593.710027071365289
 30
0.0
 11
4495.7904799690386426
 21
593.7100256151652502
 31
0.0
  0
ARC
  5
245E3
  8
0
 10
4495.8030959703482949
 20
593.6283584817431347
 30
0.0
 40
0.0826358528148742
 50
98.7816787481323928
 51
176.036030093163788
  0
LINE
  5
245E4
  8
0
 10
4495.7206578057193838
 20
593.6340710278479946
 30
0.0
 11
4495.7206482909969054
 21
591.2575056936732381
 31
0.0
  0
ARC
  5
245E5
  8
0
 10
4495.8031262709992006
 20
591.2632279701463176
 30
0.0
 40
0.0826762458821125
 50
183.9687895936662869
 51
261.2012228403817744
  0
LINE
  5
245E6
  8
0
 10
4495.7904797201390465
 20
591.1815246875653429
 30
0.0
 11
4502.9382180761385825
 21
591.1817757997653189
 31
0.0
  0
ARC
  5
245E7
  8
0
 10
4502.9261479226206575
 20
591.2629589779425032
 30
0.0
 40
0.0820755568051146
 50
278.4566736798342959
 51
356.1706186007623955
  0
LINE
  5
245E8
  8
0
 10
4503.0080402335752296
 20
591.2574775153930204
 30
0.0
 11
4503.0080497574817855
 21
593.634046064330505
 31
0.0
  0
ARC
  5
245E9
  8
0
 10
4495.6244896184907702
 20
593.6283401858402158
 30
0.0
 40
0.0826573140842531
 50
3.9583061792597301
 51
81.2117058123482281
  0
LINE
  5
245EA
  8
0
 10
4495.6371183280389232
 20
593.710027071365289
 30
0.0
 11
4488.4893799690380547
 21
593.7100256151652502
 31
0.0
  0
ARC
  5
245EB
  8
0
 10
4488.501995970347707
 20
593.6283584817431347
 30
0.0
 40
0.0826358528148742
 50
98.7816787481323928
 51
176.036030093163788
  0
LINE
  5
245EC
  8
0
 10
4488.4195578057187959
 20
593.6340710278479946
 30
0.0
 11
4488.419548290997227
 21
591.2575056936732381
 31
0.0
  0
ARC
  5
245ED
  8
0
 10
4488.5020262709986127
 20
591.2632279701463176
 30
0.0
 40
0.0826762458821125
 50
183.9687895936662869
 51
261.2012228403817744
  0
LINE
  5
245EE
  8
0
 10
4488.4893797201393681
 20
591.1815246875653429
 30
0.0
 11
4495.6371180761379946
 21
591.1817757997653189
 31
0.0
  0
ARC
  5
245EF
  8
0
 10
4495.6250479226209791
 20
591.2629589779425032
 30
0.0
 40
0.0820755568051146
 50
278.4566736798342959
 51
356.1706186007623955
  0
LINE
  5
245F0
  8
0
 10
4495.7069402335737323
 20
591.2574775153930204
 30
0.0
 11
4495.7069497574821071
 21
593.634046064330505
 31
0.0
  0
ARC
  5
245F1
  8
0
 10
4506.5761396184907426
 20
591.0802901858402265
 30
0.0
 40
0.0826573140842531
 50
3.9583061792597301
 51
81.2117058123482281
  0
LINE
  5
245F2
  8
0
 10
4506.5887683280388956
 20
591.161977071365186
 30
0.0
 11
4499.4410299690389365
 21
591.1619756151653746
 31
0.0
  0
ARC
  5
245F3
  8
0
 10
4499.4536459703467699
 20
591.0803084817431454
 30
0.0
 40
0.0826358528148742
 50
98.7816787481323928
 51
176.036030093163788
  0
LINE
  5
245F4
  8
0
 10
4499.3712078057178587
 20
591.086021027848119
 30
0.0
 11
4499.3711982909962899
 21
588.7094556936732488
 31
0.0
  0
ARC
  5
245F5
  8
0
 10
4499.4536762710004041
 20
588.7151779701463283
 30
0.0
 40
0.0826762458821125
 50
183.9687895936662869
 51
261.2012228403817744
  0
LINE
  5
245F6
  8
0
 10
4499.4410297201393405
 20
588.6334746875653536
 30
0.0
 11
4506.5887680761388765
 21
588.6337257997653296
 31
0.0
  0
ARC
  5
245F7
  8
0
 10
4506.5766979226209514
 20
588.714908977942514
 30
0.0
 40
0.0820755568051146
 50
278.4566736798342959
 51
356.1706186007623955
  0
LINE
  5
245F8
  8
0
 10
4506.6585902335737046
 20
588.7094275153930312
 30
0.0
 11
4506.6585997574811699
 21
591.0859960643305158
 31
0.0
  0
ARC
  5
245F9
  8
0
 10
4499.2750396184919737
 20
591.0802901858402265
 30
0.0
 40
0.0826573140842531
 50
3.9583061792597301
 51
81.2117058123482281
  0
LINE
  5
245FA
  8
0
 10
4499.2876683280392172
 20
591.161977071365186
 30
0.0
 11
4492.1399299690392581
 21
591.1619756151653746
 31
0.0
  0
ARC
  5
245FB
  8
0
 10
4492.1525459703470915
 20
591.0803084817431454
 30
0.0
 40
0.0826358528148742
 50
98.7816787481323928
 51
176.036030093163788
  0
LINE
  5
245FC
  8
0
 10
4492.0701078057190898
 20
591.086021027848119
 30
0.0
 11
4492.0700982909966115
 21
588.7094556936732488
 31
0.0
  0
ARC
  5
245FD
  8
0
 10
4492.1525762709989067
 20
588.7151779701463283
 30
0.0
 40
0.0826762458821125
 50
183.9687895936662869
 51
261.2012228403817744
  0
LINE
  5
245FE
  8
0
 10
4492.1399297201378431
 20
588.6334746875653536
 30
0.0
 11
4499.2876680761391981
 21
588.6337257997653296
 31
0.0
  0
ARC
  5
245FF
  8
0
 10
4499.275597922621273
 20
588.714908977942514
 30
0.0
 40
0.0820755568051146
 50
278.4566736798342959
 51
356.1706186007623955
  0
LINE
  5
24600
  8
0
 10
4499.3574902335749357
 20
588.7094275153930312
 30
0.0
 11
4499.357499757482401
 21
591.0859960643305158
 31
0.0
  0
ARC
  5
24601
  8
0
 10
4491.9739396184922953
 20
591.0802901858402265
 30
0.0
 40
0.0826573140842531
 50
3.9583061792597301
 51
81.2117058123482281
  0
LINE
  5
24602
  8
0
 10
4491.9865683280377198
 20
591.161977071365186
 30
0.0
 11
4484.8388299690377607
 21
591.1619756151653746
 31
0.0
  0
ARC
  5
24603
  8
0
 10
4484.8514459703483226
 20
591.0803084817431454
 30
0.0
 40
0.0826358528148742
 50
98.7816787481323928
 51
176.036030093163788
  0
LINE
  5
24604
  8
0
 10
4484.7690078057194114
 20
591.086021027848119
 30
0.0
 11
4484.7689982909969331
 21
588.7094556936732488
 31
0.0
  0
ARC
  5
24605
  8
0
 10
4484.8514762709992283
 20
588.7151779701463283
 30
0.0
 40
0.0826762458821125
 50
183.9687895936662869
 51
261.2012228403817744
  0
LINE
  5
24606
  8
0
 10
4484.8388297201381647
 20
588.6334746875653536
 30
0.0
 11
4491.9865680761386102
 21
588.6337257997653296
 31
0.0
  0
ARC
  5
24607
  8
0
 10
4491.9744979226215946
 20
588.714908977942514
 30
0.0
 40
0.0820755568051146
 50
278.4566736798342959
 51
356.1706186007623955
  0
LINE
  5
24608
  8
0
 10
4492.0563902335752573
 20
588.7094275153930312
 30
0.0
 11
4492.0563997574818131
 21
591.0859960643305158
 31
0.0
  0
ARC
  5
24609
  8
0
 10
4510.226689618491946
 20
588.5322401858402372
 30
0.0
 40
0.0826573140842531
 50
3.9583061792597301
 51
81.2117058123482281
  0
LINE
  5
2460A
  8
0
 10
4510.23931832803828
 20
588.6139270713653104
 30
0.0
 11
4503.0915799690392305
 21
588.613925615165158
 31
0.0
  0
ARC
  5
2460B
  8
0
 10
4503.1041959703470638
 20
588.5322584817431562
 30
0.0
 40
0.0826358528148742
 50
98.7816787481323928
 51
176.036030093163788
  0
LINE
  5
2460C
  8
0
 10
4503.0217578057190622
 20
588.5379710278481298
 30
0.0
 11
4503.0217482909956743
 21
586.1614056936731458
 31
0.0
  0
ARC
  5
2460D
  8
0
 10
4503.104226270998879
 20
586.1671279701463391
 30
0.0
 40
0.0826762458821125
 50
183.9687895936662869
 51
261.2012228403817744
  0
LINE
  5
2460E
  8
0
 10
4503.0915797201378155
 20
586.0854246875652507
 30
0.0
 11
4510.2393180761391704
 21
586.0856757997653403
 31
0.0
  0
ARC
  5
2460F
  8
0
 10
4510.2272479226212454
 20
586.166858977942411
 30
0.0
 40
0.0820755568051146
 50
278.4566736798342959
 51
356.1706186007623955
  0
LINE
  5
24610
  8
0
 10
4510.3091402335749081
 20
586.1613775153930419
 30
0.0
 11
4510.3091497574805544
 21
588.5379460643305265
 31
0.0
  0
ARC
  5
24611
  8
0
 10
4502.9255896184913581
 20
588.5322401858402372
 30
0.0
 40
0.0826573140842531
 50
3.9583061792597301
 51
81.2117058123482281
  0
LINE
  5
24612
  8
0
 10
4502.9382183280386016
 20
588.6139270713653104
 30
0.0
 11
4495.7904799690386426
 21
588.613925615165158
 31
0.0
  0
ARC
  5
24613
  8
0
 10
4495.8030959703482949
 20
588.5322584817431562
 30
0.0
 40
0.0826358528148742
 50
98.7816787481323928
 51
176.036030093163788
  0
LINE
  5
24614
  8
0
 10
4495.7206578057193838
 20
588.5379710278481298
 30
0.0
 11
4495.7206482909969054
 21
586.1614056936731458
 31
0.0
  0
ARC
  5
24615
  8
0
 10
4495.8031262709992006
 20
586.1671279701463391
 30
0.0
 40
0.0826762458821125
 50
183.9687895936662869
 51
261.2012228403817744
  0
LINE
  5
24616
  8
0
 10
4495.7904797201390465
 20
586.0854246875652507
 30
0.0
 11
4502.9382180761385825
 21
586.0856757997653403
 31
0.0
  0
ARC
  5
24617
  8
0
 10
4502.9261479226206575
 20
586.166858977942411
 30
0.0
 40
0.0820755568051146
 50
278.4566736798342959
 51
356.1706186007623955
  0
LINE
  5
24618
  8
0
 10
4503.0080402335752296
 20
586.1613775153930419
 30
0.0
 11
4503.0080497574817855
 21
588.5379460643305265
 31
0.0
  0
ARC
  5
24619
  8
0
 10
4495.6244896184907702
 20
588.5322401858402372
 30
0.0
 40
0.0826573140842531
 50
3.9583061792597301
 51
81.2117058123482281
  0
LINE
  5
2461A
  8
0
 10
4495.6371183280389232
 20
588.6139270713653104
 30
0.0
 11
4488.4893799690380547
 21
588.613925615165158
 31
0.0
  0
ARC
  5
2461B
  8
0
 10
4488.501995970347707
 20
588.5322584817431562
 30
0.0
 40
0.0826358528148742
 50
98.7816787481323928
 51
176.036030093163788
  0
LINE
  5
2461C
  8
0
 10
4488.4195578057187959
 20
588.5379710278481298
 30
0.0
 11
4488.419548290997227
 21
586.1614056936731458
 31
0.0
  0
ARC
  5
2461D
  8
0
 10
4488.5020262709986127
 20
586.1671279701463391
 30
0.0
 40
0.0826762458821125
 50
183.9687895936662869
 51
261.2012228403817744
  0
LINE
  5
2461E
  8
0
 10
4488.4893797201393681
 20
586.0854246875652507
 30
0.0
 11
4495.6371180761379946
 21
586.0856757997653403
 31
0.0
  0
ARC
  5
2461F
  8
0
 10
4495.6250479226209791
 20
586.166858977942411
 30
0.0
 40
0.0820755568051146
 50
278.4566736798342959
 51
356.1706186007623955
  0
LINE
  5
24620
  8
0
 10
4495.7069402335737323
 20
586.1613775153930419
 30
0.0
 11
4495.7069497574821071
 21
588.5379460643305265
 31
0.0
  0
ARC
  5
24621
  8
0
 10
4506.5761396184907426
 20
585.984190185840248
 30
0.0
 40
0.0826573140842531
 50
3.9583061792597301
 51
81.2117058123482281
  0
LINE
  5
24622
  8
0
 10
4506.5887683280388956
 20
586.0658770713653212
 30
0.0
 11
4499.4410299690389365
 21
586.0658756151652824
 31
0.0
  0
ARC
  5
24623
  8
0
 10
4499.4536459703467699
 20
585.9842084817430532
 30
0.0
 40
0.0826358528148742
 50
98.7816787481323928
 51
176.036030093163788
  0
LINE
  5
24624
  8
0
 10
4499.3712078057178587
 20
585.9899210278481405
 30
0.0
 11
4499.3711982909962899
 21
583.6133556936731566
 31
0.0
  0
ARC
  5
24625
  8
0
 10
4499.4536762710004041
 20
583.6190779701463498
 30
0.0
 40
0.0826762458821125
 50
183.9687895936662869
 51
261.2012228403817744
  0
LINE
  5
24626
  8
0
 10
4499.4410297201393405
 20
583.5373746875651477
 30
0.0
 11
4506.5887680761388765
 21
583.5376257997652374
 31
0.0
  0
ARC
  5
24627
  8
0
 10
4506.5766979226209514
 20
583.6188089779424217
 30
0.0
 40
0.0820755568051146
 50
278.4566736798342959
 51
356.1706186007623955
  0
LINE
  5
24628
  8
0
 10
4506.6585902335737046
 20
583.6133275153930526
 30
0.0
 11
4506.6585997574811699
 21
585.9898960643305372
 31
0.0
  0
ARC
  5
24629
  8
0
 10
4499.2750396184919737
 20
585.984190185840248
 30
0.0
 40
0.0826573140842531
 50
3.9583061792597301
 51
81.2117058123482281
  0
LINE
  5
2462A
  8
0
 10
4499.2876683280392172
 20
586.0658770713653212
 30
0.0
 11
4492.1399299690392581
 21
586.0658756151652824
 31
0.0
  0
ARC
  5
2462B
  8
0
 10
4492.1525459703470915
 20
585.9842084817430532
 30
0.0
 40
0.0826358528148742
 50
98.7816787481323928
 51
176.036030093163788
  0
LINE
  5
2462C
  8
0
 10
4492.0701078057190898
 20
585.9899210278481405
 30
0.0
 11
4492.0700982909966115
 21
583.6133556936731566
 31
0.0
  0
ARC
  5
2462D
  8
0
 10
4492.1525762709989067
 20
583.6190779701463498
 30
0.0
 40
0.0826762458821125
 50
183.9687895936662869
 51
261.2012228403817744
  0
LINE
  5
2462E
  8
0
 10
4492.1399297201378431
 20
583.5373746875651477
 30
0.0
 11
4499.2876680761391981
 21
583.5376257997652374
 31
0.0
  0
ARC
  5
2462F
  8
0
 10
4499.275597922621273
 20
583.6188089779424217
 30
0.0
 40
0.0820755568051146
 50
278.4566736798342959
 51
356.1706186007623955
  0
LINE
  5
24630
  8
0
 10
4499.3574902335749357
 20
583.6133275153930526
 30
0.0
 11
4499.357499757482401
 21
585.9898960643305372
 31
0.0
  0
ARC
  5
24631
  8
0
 10
4491.9739396184922953
 20
585.984190185840248
 30
0.0
 40
0.0826573140842531
 50
3.9583061792597301
 51
81.2117058123482281
  0
LINE
  5
24632
  8
0
 10
4491.9865683280377198
 20
586.0658770713653212
 30
0.0
 11
4484.8388299690377607
 21
586.0658756151652824
 31
0.0
  0
ARC
  5
24633
  8
0
 10
4484.8514459703483226
 20
585.9842084817430532
 30
0.0
 40
0.0826358528148742
 50
98.7816787481323928
 51
176.036030093163788
  0
LINE
  5
24634
  8
0
 10
4484.7690078057194114
 20
585.9899210278481405
 30
0.0
 11
4484.7689982909969331
 21
583.6133556936731566
 31
0.0
  0
ARC
  5
24635
  8
0
 10
4484.8514762709992283
 20
583.6190779701463498
 30
0.0
 40
0.0826762458821125
 50
183.9687895936662869
 51
261.2012228403817744
  0
LINE
  5
24636
  8
0
 10
4484.8388297201381647
 20
583.5373746875651477
 30
0.0
 11
4491.9865680761386102
 21
583.5376257997652374
 31
0.0
  0
ARC
  5
24637
  8
0
 10
4491.9744979226215946
 20
583.6188089779424217
 30
0.0
 40
0.0820755568051146
 50
278.4566736798342959
 51
356.1706186007623955
  0
LINE
  5
24638
  8
0
 10
4492.0563902335752573
 20
583.6133275153930526
 30
0.0
 11
4492.0563997574818131
 21
585.9898960643305372
 31
0.0
  0
ARC
  5
24639
  8
0
 10
4495.6244896184907702
 20
583.436140185840145
 30
0.0
 40
0.0826573140842531
 50
3.9583061792597301
 51
81.2117058123482281
  0
LINE
  5
2463A
  8
0
 10
4495.6371183280389232
 20
583.5178270713653319
 30
0.0
 11
4488.4893799690380547
 21
583.5178256151651794
 31
0.0
  0
ARC
  5
2463B
  8
0
 10
4488.501995970347707
 20
583.4361584817431776
 30
0.0
 40
0.0826358528148742
 50
98.7816787481323928
 51
176.036030093163788
  0
LINE
  5
2463C
  8
0
 10
4488.4195578057187959
 20
583.4418710278481512
 30
0.0
 11
4488.419548290997227
 21
581.0653056936731673
 31
0.0
  0
ARC
  5
2463D
  8
0
 10
4488.5020262709986127
 20
581.0710279701463605
 30
0.0
 40
0.0826762458821125
 50
183.9687895936662869
 51
261.2012228403817744
  0
LINE
  5
2463E
  8
0
 10
4488.4893797201393681
 20
580.9893246875652721
 30
0.0
 11
4495.6371180761379946
 21
580.9895757997652481
 31
0.0
  0
ARC
  5
2463F
  8
0
 10
4495.6250479226209791
 20
581.0707589779424325
 30
0.0
 40
0.0820755568051146
 50
278.4566736798342959
 51
356.1706186007623955
  0
LINE
  5
24640
  8
0
 10
4495.7069402335737323
 20
581.0652775153929497
 30
0.0
 11
4495.7069497574821071
 21
583.441846064330548
 31
0.0
  0
ARC
  5
24641
  8
0
 10
4502.9255896184913581
 20
583.436140185840145
 30
0.0
 40
0.0826573140842531
 50
3.9583061792597301
 51
81.2117058123482281
  0
LINE
  5
24642
  8
0
 10
4502.9382183280386016
 20
583.5178270713653319
 30
0.0
 11
4495.7904799690386426
 21
583.5178256151651794
 31
0.0
  0
ARC
  5
24643
  8
0
 10
4495.8030959703482949
 20
583.4361584817431776
 30
0.0
 40
0.0826358528148742
 50
98.7816787481323928
 51
176.036030093163788
  0
LINE
  5
24644
  8
0
 10
4495.7206578057193838
 20
583.4418710278481512
 30
0.0
 11
4495.7206482909969054
 21
581.0653056936731673
 31
0.0
  0
ARC
  5
24645
  8
0
 10
4495.8031262709992006
 20
581.0710279701463605
 30
0.0
 40
0.0826762458821125
 50
183.9687895936662869
 51
261.2012228403817744
  0
LINE
  5
24646
  8
0
 10
4495.7904797201390465
 20
580.9893246875652721
 30
0.0
 11
4502.9382180761385825
 21
580.9895757997652481
 31
0.0
  0
ARC
  5
24647
  8
0
 10
4502.9261479226206575
 20
581.0707589779424325
 30
0.0
 40
0.0820755568051146
 50
278.4566736798342959
 51
356.1706186007623955
  0
LINE
  5
24648
  8
0
 10
4503.0080402335752296
 20
581.0652775153929497
 30
0.0
 11
4503.0080497574817855
 21
583.441846064330548
 31
0.0
  0
ARC
  5
24649
  8
0
 10
4510.226689618491946
 20
583.436140185840145
 30
0.0
 40
0.0826573140842531
 50
3.9583061792597301
 51
81.2117058123482281
  0
LINE
  5
2464A
  8
0
 10
4510.23931832803828
 20
583.5178270713653319
 30
0.0
 11
4503.0915799690392305
 21
583.5178256151651794
 31
0.0
  0
ARC
  5
2464B
  8
0
 10
4503.1041959703470638
 20
583.4361584817431776
 30
0.0
 40
0.0826358528148742
 50
98.7816787481323928
 51
176.036030093163788
  0
LINE
  5
2464C
  8
0
 10
4503.0217578057190622
 20
583.4418710278481512
 30
0.0
 11
4503.0217482909956743
 21
581.0653056936731673
 31
0.0
  0
ARC
  5
2464D
  8
0
 10
4503.104226270998879
 20
581.0710279701463605
 30
0.0
 40
0.0826762458821125
 50
183.9687895936662869
 51
261.2012228403817744
  0
LINE
  5
2464E
  8
0
 10
4503.0915797201378155
 20
580.9893246875652721
 30
0.0
 11
4510.2393180761391704
 21
580.9895757997652481
 31
0.0
  0
ARC
  5
2464F
  8
0
 10
4510.2272479226212454
 20
581.0707589779424325
 30
0.0
 40
0.0820755568051146
 50
278.4566736798342959
 51
356.1706186007623955
  0
LINE
  5
24650
  8
0
 10
4510.3091402335749081
 20
581.0652775153929497
 30
0.0
 11
4510.3091497574805544
 21
583.441846064330548
 31
0.0
  0
ARC
  5
24651
  8
0
 10
4506.5761396184907426
 20
580.8880901858401558
 30
0.0
 40
0.0826573140842531
 50
3.9583061792597301
 51
81.2117058123482281
  0
LINE
  5
24652
  8
0
 10
4506.5887683280388956
 20
580.9697770713653426
 30
0.0
 11
4499.4410299690389365
 21
580.9697756151653039
 31
0.0
  0
ARC
  5
24653
  8
0
 10
4499.4536459703467699
 20
580.888108481742961
 30
0.0
 40
0.0826358528148742
 50
98.7816787481323928
 51
176.0360300931669997
  0
LINE
  5
24654
  8
0
 10
4499.3712078057178587
 20
580.893821027848162
 30
0.0
 11
4499.3711982909962899
 21
578.5172556936730643
 31
0.0
  0
ARC
  5
24655
  8
0
 10
4499.4536762710004041
 20
578.5229779701461439
 30
0.0
 40
0.0826762458821125
 50
183.9687895936662869
 51
261.2012228403817744
  0
LINE
  5
24656
  8
0
 10
4499.4410297201393405
 20
578.4412746875651692
 30
0.0
 11
4506.5887680761388765
 21
578.4415257997651452
 31
0.0
  0
ARC
  5
24657
  8
0
 10
4506.5766979226209514
 20
578.5227089779424432
 30
0.0
 40
0.0820755568051146
 50
278.4566736798342959
 51
356.1706186007623955
  0
LINE
  5
24658
  8
0
 10
4506.6585902335737046
 20
578.5172275153929604
 30
0.0
 11
4506.6585997574811699
 21
580.893796064330445
 31
0.0
  0
ARC
  5
24659
  8
0
 10
4499.2750396184919737
 20
580.8880901858401558
 30
0.0
 40
0.0826573140842531
 50
3.9583061792597301
 51
81.2117058123482281
  0
LINE
  5
2465A
  8
0
 10
4499.2876683280392172
 20
580.9697770713653426
 30
0.0
 11
4492.1399299690392581
 21
580.9697756151653039
 31
0.0
  0
ARC
  5
2465B
  8
0
 10
4492.1525459703470915
 20
580.888108481742961
 30
0.0
 40
0.0826358528148742
 50
98.7816787481323928
 51
176.0360300931669997
  0
LINE
  5
2465C
  8
0
 10
4492.0701078057190898
 20
580.893821027848162
 30
0.0
 11
4492.0700982909966115
 21
578.5172556936730643
 31
0.0
  0
ARC
  5
2465D
  8
0
 10
4492.1525762709989067
 20
578.5229779701461439
 30
0.0
 40
0.0826762458821125
 50
183.9687895936662869
 51
261.2012228403817744
  0
LINE
  5
2465E
  8
0
 10
4492.1399297201378431
 20
578.4412746875651692
 30
0.0
 11
4499.2876680761391981
 21
578.4415257997651452
 31
0.0
  0
ARC
  5
2465F
  8
0
 10
4499.275597922621273
 20
578.5227089779424432
 30
0.0
 40
0.0820755568051146
 50
278.4566736798342959
 51
356.1706186007623955
  0
LINE
  5
24660
  8
0
 10
4499.3574902335749357
 20
578.5172275153929604
 30
0.0
 11
4499.357499757482401
 21
580.893796064330445
 31
0.0
  0
ARC
  5
24661
  8
0
 10
4491.9739396184922953
 20
580.8880901858401558
 30
0.0
 40
0.0826573140842531
 50
3.9583061792597301
 51
81.2117058123482281
  0
LINE
  5
24662
  8
0
 10
4491.9865683280377198
 20
580.9697770713653426
 30
0.0
 11
4484.8388299690377607
 21
580.9697756151653039
 31
0.0
  0
ARC
  5
24663
  8
0
 10
4484.8514459703483226
 20
580.888108481742961
 30
0.0
 40
0.0826358528148742
 50
98.7816787481323928
 51
176.0360300931669997
  0
LINE
  5
24664
  8
0
 10
4484.7690078057194114
 20
580.893821027848162
 30
0.0
 11
4484.7689982909969331
 21
578.5172556936730643
 31
0.0
  0
ARC
  5
24665
  8
0
 10
4484.8514762709992283
 20
578.5229779701461439
 30
0.0
 40
0.0826762458821125
 50
183.9687895936662869
 51
261.2012228403817744
  0
LINE
  5
24666
  8
0
 10
4484.8388297201381647
 20
578.4412746875651692
 30
0.0
 11
4491.9865680761386102
 21
578.4415257997651452
 31
0.0
  0
ARC
  5
24667
  8
0
 10
4491.9744979226215946
 20
578.5227089779424432
 30
0.0
 40
0.0820755568051146
 50
278.4566736798342959
 51
356.1706186007623955
  0
LINE
  5
24668
  8
0
 10
4492.0563902335752573
 20
578.5172275153929604
 30
0.0
 11
4492.0563997574818131
 21
580.893796064330445
 31
0.0
  0
ARC
  5
24669
  8
0
 10
4495.6244896184907702
 20
578.3400401858401665
 30
0.0
 40
0.0826573140842531
 50
3.9583061792597301
 51
81.2117058123482281
  0
LINE
  5
2466A
  8
0
 10
4495.6371183280389232
 20
578.4217270713653534
 30
0.0
 11
4488.4893799690380547
 21
578.4217256151653146
 31
0.0
  0
ARC
  5
2466B
  8
0
 10
4488.501995970347707
 20
578.3400584817430854
 30
0.0
 40
0.0826358528148742
 50
98.7816787481323928
 51
176.0360300931669997
  0
LINE
  5
2466C
  8
0
 10
4488.4195578057187959
 20
578.345771027848059
 30
0.0
 11
4488.419548290997227
 21
575.9692056936731888
 31
0.0
  0
ARC
  5
2466D
  8
0
 10
4488.5020262709986127
 20
575.9749279701462683
 30
0.0
 40
0.0826762458821125
 50
183.9687895936662869
 51
261.2012228403817744
  0
LINE
  5
2466E
  8
0
 10
4488.4893797201393681
 20
575.8932246875651799
 30
0.0
 11
4495.6371180761379946
 21
575.8934757997652696
 31
0.0
  0
ARC
  5
2466F
  8
0
 10
4495.6250479226209791
 20
575.9746589779424539
 30
0.0
 40
0.0820755568051146
 50
278.4566736798342959
 51
356.1706186007623955
  0
LINE
  5
24670
  8
0
 10
4495.7069402335737323
 20
575.9691775153930848
 30
0.0
 11
4495.7069497574821071
 21
578.3457460643305694
 31
0.0
  0
ARC
  5
24671
  8
0
 10
4502.9255896184913581
 20
578.3400401858401665
 30
0.0
 40
0.0826573140842531
 50
3.9583061792597301
 51
81.2117058123482281
  0
LINE
  5
24672
  8
0
 10
4502.9382183280386016
 20
578.4217270713653534
 30
0.0
 11
4495.7904799690386426
 21
578.4217256151653146
 31
0.0
  0
ARC
  5
24673
  8
0
 10
4495.8030959703482949
 20
578.3400584817430854
 30
0.0
 40
0.0826358528148742
 50
98.7816787481323928
 51
176.0360300931669997
  0
LINE
  5
24674
  8
0
 10
4495.7206578057193838
 20
578.345771027848059
 30
0.0
 11
4495.7206482909969054
 21
575.9692056936731888
 31
0.0
  0
ARC
  5
24675
  8
0
 10
4495.8031262709992006
 20
575.9749279701462683
 30
0.0
 40
0.0826762458821125
 50
183.9687895936662869
 51
261.2012228403817744
  0
LINE
  5
24676
  8
0
 10
4495.7904797201390465
 20
575.8932246875651799
 30
0.0
 11
4502.9382180761385825
 21
575.8934757997652696
 31
0.0
  0
ARC
  5
24677
  8
0
 10
4502.9261479226206575
 20
575.9746589779424539
 30
0.0
 40
0.0820755568051146
 50
278.4566736798342959
 51
356.1706186007623955
  0
LINE
  5
24678
  8
0
 10
4503.0080402335752296
 20
575.9691775153930848
 30
0.0
 11
4503.0080497574817855
 21
578.3457460643305694
 31
0.0
  0
ARC
  5
24679
  8
0
 10
4510.226689618491946
 20
578.3400401858401665
 30
0.0
 40
0.0826573140842531
 50
3.9583061792597301
 51
81.2117058123482281
  0
LINE
  5
2467A
  8
0
 10
4510.23931832803828
 20
578.4217270713653534
 30
0.0
 11
4503.0915799690392305
 21
578.4217256151653146
 31
0.0
  0
ARC
  5
2467B
  8
0
 10
4503.1041959703470638
 20
578.3400584817430854
 30
0.0
 40
0.0826358528148742
 50
98.7816787481323928
 51
176.0360300931669997
  0
LINE
  5
2467C
  8
0
 10
4503.0217578057190622
 20
578.345771027848059
 30
0.0
 11
4503.0217482909956743
 21
575.9692056936731888
 31
0.0
  0
ARC
  5
2467D
  8
0
 10
4503.104226270998879
 20
575.9749279701462683
 30
0.0
 40
0.0826762458821125
 50
183.9687895936662869
 51
261.2012228403817744
  0
LINE
  5
2467E
  8
0
 10
4503.0915797201378155
 20
575.8932246875651799
 30
0.0
 11
4510.2393180761391704
 21
575.8934757997652696
 31
0.0
  0
ARC
  5
2467F
  8
0
 10
4510.2272479226212454
 20
575.9746589779424539
 30
0.0
 40
0.0820755568051146
 50
278.4566736798342959
 51
356.1706186007623955
  0
LINE
  5
24680
  8
0
 10
4510.3091402335749081
 20
575.9691775153930848
 30
0.0
 11
4510.3091497574805544
 21
578.3457460643305694
 31
0.0
  0
ARC
  5
24681
  8
0
 10
4506.5761396184907426
 20
575.7919901858400635
 30
0.0
 40
0.0826573140842531
 50
3.9583061792597301
 51
81.2117058123482281
  0
LINE
  5
24682
  8
0
 10
4506.5887683280388956
 20
575.8736770713652504
 30
0.0
 11
4499.4410299690389365
 21
575.8736756151653253
 31
0.0
  0
ARC
  5
24683
  8
0
 10
4499.4536459703467699
 20
575.7920084817429824
 30
0.0
 40
0.0826358528148742
 50
98.7816787481323928
 51
176.0360300931669997
  0
LINE
  5
24684
  8
0
 10
4499.3712078057178587
 20
575.7977210278481834
 30
0.0
 11
4499.3711982909962899
 21
573.4211556936731995
 31
0.0
  0
ARC
  5
24685
  8
0
 10
4499.4536762710004041
 20
573.4268779701461654
 30
0.0
 40
0.0826762458821125
 50
183.9687895936662869
 51
261.2012228403817744
  0
LINE
  5
24686
  8
0
 10
4499.4410297201393405
 20
573.3451746875653043
 30
0.0
 11
4506.5887680761388765
 21
573.3454257997651666
 31
0.0
  0
ARC
  5
24687
  8
0
 10
4506.5766979226209514
 20
573.426608977942351
 30
0.0
 40
0.0820755568051146
 50
278.4566736798342959
 51
356.1706186007623955
  0
LINE
  5
24688
  8
0
 10
4506.6585902335737046
 20
573.4211275153929819
 30
0.0
 11
4506.6585997574811699
 21
575.7976960643304665
 31
0.0
  0
ARC
  5
24689
  8
0
 10
4499.2750396184919737
 20
575.7919901858400635
 30
0.0
 40
0.0826573140842531
 50
3.9583061792597301
 51
81.2117058123482281
  0
LINE
  5
2468A
  8
0
 10
4499.2876683280392172
 20
575.8736770713652504
 30
0.0
 11
4492.1399299690392581
 21
575.8736756151653253
 31
0.0
  0
ARC
  5
2468B
  8
0
 10
4492.1525459703470915
 20
575.7920084817429824
 30
0.0
 40
0.0826358528148742
 50
98.7816787481323928
 51
176.0360300931669997
  0
LINE
  5
2468C
  8
0
 10
4492.0701078057190898
 20
575.7977210278481834
 30
0.0
 11
4492.0700982909966115
 21
573.4211556936731995
 31
0.0
  0
ARC
  5
2468D
  8
0
 10
4492.1525762709989067
 20
573.4268779701461654
 30
0.0
 40
0.0826762458821125
 50
183.9687895936662869
 51
261.2012228403817744
  0
LINE
  5
2468E
  8
0
 10
4492.1399297201378431
 20
573.3451746875653043
 30
0.0
 11
4499.2876680761391981
 21
573.3454257997651666
 31
0.0
  0
ARC
  5
2468F
  8
0
 10
4499.275597922621273
 20
573.426608977942351
 30
0.0
 40
0.0820755568051146
 50
278.4566736798342959
 51
356.1706186007623955
  0
LINE
  5
24690
  8
0
 10
4499.3574902335749357
 20
573.4211275153929819
 30
0.0
 11
4499.357499757482401
 21
575.7976960643304665
 31
0.0
  0
ARC
  5
24691
  8
0
 10
4491.9739396184922953
 20
575.7919901858400635
 30
0.0
 40
0.0826573140842531
 50
3.9583061792597301
 51
81.2117058123482281
  0
LINE
  5
24692
  8
0
 10
4491.9865683280377198
 20
575.8736770713652504
 30
0.0
 11
4484.8388299690377607
 21
575.8736756151653253
 31
0.0
  0
ARC
  5
24693
  8
0
 10
4484.8514459703483226
 20
575.7920084817429824
 30
0.0
 40
0.0826358528148742
 50
98.7816787481323928
 51
176.0360300931669997
  0
LINE
  5
24694
  8
0
 10
4484.7690078057194114
 20
575.7977210278481834
 30
0.0
 11
4484.7689982909969331
 21
573.4211556936731995
 31
0.0
  0
ARC
  5
24695
  8
0
 10
4484.8514762709992283
 20
573.4268779701461654
 30
0.0
 40
0.0826762458821125
 50
183.9687895936662869
 51
261.2012228403817744
  0
LINE
  5
24696
  8
0
 10
4484.8388297201381647
 20
573.3451746875653043
 30
0.0
 11
4491.9865680761386102
 21
573.3454257997651666
 31
0.0
  0
ARC
  5
24697
  8
0
 10
4491.9744979226215946
 20
573.426608977942351
 30
0.0
 40
0.0820755568051146
 50
278.4566736798342959
 51
356.1706186007623955
  0
LINE
  5
24698
  8
0
 10
4492.0563902335752573
 20
573.4211275153929819
 30
0.0
 11
4492.0563997574818131
 21
575.7976960643304665
 31
0.0
  0
ARC
  5
24699
  8
0
 10
4495.6244896184907702
 20
573.2439401858400743
 30
0.0
 40
0.0826573140842531
 50
3.9583061792597301
 51
81.2117058123482281
  0
LINE
  5
2469A
  8
0
 10
4495.6371183280389232
 20
573.3256270713651475
 30
0.0
 11
4488.4893799690380547
 21
573.3256256151653361
 31
0.0
  0
ARC
  5
2469B
  8
0
 10
4488.501995970347707
 20
573.2439584817431069
 30
0.0
 40
0.0826358528148742
 50
98.7816787481323928
 51
176.0360300931669997
  0
LINE
  5
2469C
  8
0
 10
4488.4195578057187959
 20
573.2496710278479668
 30
0.0
 11
4488.419548290997227
 21
570.8731056936730965
 31
0.0
  0
ARC
  5
2469D
  8
0
 10
4488.5020262709986127
 20
570.8788279701462898
 30
0.0
 40
0.0826762458821125
 50
183.9687895936662869
 51
261.2012228403817744
  0
LINE
  5
2469E
  8
0
 10
4488.4893797201393681
 20
570.7971246875652014
 30
0.0
 11
4495.6371180761379946
 21
570.797375799765291
 31
0.0
  0
ARC
  5
2469F
  8
0
 10
4495.6250479226209791
 20
570.8785589779424754
 30
0.0
 40
0.0820755568051146
 50
278.4566736798342959
 51
356.1706186007623955
  0
LINE
  5
246A0
  8
0
 10
4495.7069402335737323
 20
570.8730775153929926
 30
0.0
 11
4495.7069497574821071
 21
573.2496460643304772
 31
0.0
  0
ARC
  5
246A1
  8
0
 10
4502.9255896184913581
 20
573.2439401858400743
 30
0.0
 40
0.0826573140842531
 50
3.9583061792597301
 51
81.2117058123482281
  0
LINE
  5
246A2
  8
0
 10
4502.9382183280386016
 20
573.3256270713651475
 30
0.0
 11
4495.7904799690386426
 21
573.3256256151653361
 31
0.0
  0
ARC
  5
246A3
  8
0
 10
4495.8030959703482949
 20
573.2439584817431069
 30
0.0
 40
0.0826358528148742
 50
98.7816787481323928
 51
176.0360300931669997
  0
LINE
  5
246A4
  8
0
 10
4495.7206578057193838
 20
573.2496710278479668
 30
0.0
 11
4495.7206482909969054
 21
570.8731056936730965
 31
0.0
  0
ARC
  5
246A5
  8
0
 10
4495.8031262709992006
 20
570.8788279701462898
 30
0.0
 40
0.0826762458821125
 50
183.9687895936662869
 51
261.2012228403817744
  0
LINE
  5
246A6
  8
0
 10
4495.7904797201390465
 20
570.7971246875652014
 30
0.0
 11
4502.9382180761385825
 21
570.797375799765291
 31
0.0
  0
ARC
  5
246A7
  8
0
 10
4502.9261479226206575
 20
570.8785589779424754
 30
0.0
 40
0.0820755568051146
 50
278.4566736798342959
 51
356.1706186007623955
  0
LINE
  5
246A8
  8
0
 10
4503.0080402335752296
 20
570.8730775153929926
 30
0.0
 11
4503.0080497574817855
 21
573.2496460643304772
 31
0.0
  0
ARC
  5
246A9
  8
0
 10
4510.226689618491946
 20
573.2439401858400743
 30
0.0
 40
0.0826573140842531
 50
3.9583061792597301
 51
81.2117058123482281
  0
LINE
  5
246AA
  8
0
 10
4510.23931832803828
 20
573.3256270713651475
 30
0.0
 11
4503.0915799690392305
 21
573.3256256151653361
 31
0.0
  0
ARC
  5
246AB
  8
0
 10
4503.1041959703470638
 20
573.2439584817431069
 30
0.0
 40
0.0826358528148742
 50
98.7816787481323928
 51
176.0360300931669997
  0
LINE
  5
246AC
  8
0
 10
4503.0217578057190622
 20
573.2496710278479668
 30
0.0
 11
4503.0217482909956743
 21
570.8731056936730965
 31
0.0
  0
ARC
  5
246AD
  8
0
 10
4503.104226270998879
 20
570.8788279701462898
 30
0.0
 40
0.0826762458821125
 50
183.9687895936662869
 51
261.2012228403817744
  0
LINE
  5
246AE
  8
0
 10
4503.0915797201378155
 20
570.7971246875652014
 30
0.0
 11
4510.2393180761391704
 21
570.797375799765291
 31
0.0
  0
ARC
  5
246AF
  8
0
 10
4510.2272479226212454
 20
570.8785589779424754
 30
0.0
 40
0.0820755568051146
 50
278.4566736798342959
 51
356.1706186007623955
  0
LINE
  5
246B0
  8
0
 10
4510.3091402335749081
 20
570.8730775153929926
 30
0.0
 11
4510.3091497574805544
 21
573.2496460643304772
 31
0.0
  0
ARC
  5
246B1
  8
0
 10
4488.3235814871532057
 20
593.6285165290546502
 30
0.0
 40
0.0824538872278029
 50
3.845279495474609
 51
81.3247449837255516
  0
LINE
  5
246B2
  8
0
 10
4488.3360183280392448
 20
593.710027071365289
 30
0.0
 11
4481.6379640560180633
 21
593.7097753946195553
 31
0.0
  0
LINE
  5
246B3
  8
0
 10
4481.6379640357536118
 20
591.1817758085874175
 30
0.0
 11
4488.3360180761392257
 21
591.1817757997653189
 31
0.0
  0
ARC
  5
246B4
  8
0
 10
4488.324373985749844
 20
591.2625660057731238
 30
0.0
 40
0.0816250098177938
 50
278.2014199949196041
 51
356.4258718554817165
  0
LINE
  5
246B5
  8
0
 10
4488.4058402332648257
 20
591.2574775144876185
 30
0.0
 11
4488.4058497527075815
 21
593.6340460861431438
 31
0.0
  0
ARC
  5
246B6
  8
0
 10
4480.1880480784730025
 20
591.5494601767193217
 30
0.0
 40
1.48214524480013
 50
348.9203875079991235
 51
359.3163938465949059
  0
LINE
  5
246B7
  8
0
 10
4481.6700878306028244
 20
591.5317768572916748
 30
0.0
 11
4481.6700773133061375
 21
593.359767549265257
 31
0.0
  0
ARC
  5
246B8
  8
0
 10
4480.1597309479111573
 20
593.3392321327166883
 30
0.0
 40
1.5104859637853101
 50
0.7789737707169913
 51
10.9736382729854096
  0
LINE
  5
246B9
  8
0
 10
4481.6379334027387813
 20
593.6515692032653533
 30
0.0
 11
4481.6425974803296413
 21
593.6267642071458113
 31
0.0
  0
LINE
  5
246BA
  8
0
 10
4481.6379334027387813
 20
591.2401018595653568
 30
0.0
 11
4481.6425677763390922
 21
591.2646322019651279
 31
0.0
  0
ARC
  5
246BB
  8
0
 10
4488.3235814871532057
 20
598.7246165290547424
 30
0.0
 40
0.0824538872278029
 50
3.845279495474609
 51
81.3247449837255516
  0
LINE
  5
246BC
  8
0
 10
4488.3360183280392448
 20
598.8061270713653812
 30
0.0
 11
4482.3589251911271276
 21
598.7947077420133155
 31
0.0
  0
LINE
  5
246BD
  8
0
 10
4481.6379640357572498
 20
596.2778758085875097
 30
0.0
 11
4488.3360180761392257
 21
596.2778757997652974
 31
0.0
  0
ARC
  5
246BE
  8
0
 10
4488.324373985749844
 20
596.3586660057731024
 30
0.0
 40
0.0816250098177938
 50
278.2014199949196041
 51
356.4258718554817165
  0
LINE
  5
246BF
  8
0
 10
4488.4058402332648257
 20
596.3535775144877107
 30
0.0
 11
4488.4058497527075815
 21
598.7301460861433497
 31
0.0
  0
ARC
  5
246C0
  8
0
 10
4480.1880480784730025
 20
596.6455601767194139
 30
0.0
 40
1.48214524480013
 50
348.9203875079991235
 51
359.3163938465949059
  0
LINE
  5
246C1
  8
0
 10
4481.6700878306028244
 20
596.6278768572916533
 30
0.0
 11
4481.6700773133061375
 21
598.4558675492653492
 31
0.0
  0
ARC
  5
246C2
  8
0
 10
4480.1597309479093383
 20
598.4353321327166668
 30
0.0
 40
1.510485963787308
 50
0.7789737707202481
 51
10.90673736992089
  0
LINE
  5
246C3
  8
0
 10
4481.6379334027387813
 20
598.7476692032653318
 30
0.0
 11
4481.6429322036419762
 21
598.721132555724239
 31
0.0
  0
LINE
  5
246C4
  8
0
 10
4481.6379334027387813
 20
596.3362018595653353
 30
0.0
 11
4481.6425677763390922
 21
596.3607322019651065
 31
0.0
  0
ARC
  5
246C5
  8
0
 10
4488.3235814871532057
 20
588.5324165290546716
 30
0.0
 40
0.0824538872278029
 50
3.845279495474609
 51
81.3247449837255516
  0
LINE
  5
246C6
  8
0
 10
4488.3360183280392448
 20
588.6139270713653104
 30
0.0
 11
4481.6379640560144253
 21
588.6136753946195768
 31
0.0
  0
LINE
  5
246C7
  8
0
 10
4481.6379640357599783
 20
586.085675808587439
 30
0.0
 11
4488.3360180761392257
 21
586.0856757997653403
 31
0.0
  0
ARC
  5
246C8
  8
0
 10
4488.324373985749844
 20
586.1664660057731453
 30
0.0
 40
0.0816250098177938
 50
278.2014199949196041
 51
356.4258718554817165
  0
LINE
  5
246C9
  8
0
 10
4488.4058402332648257
 20
586.1613775144876399
 30
0.0
 11
4488.4058497527075815
 21
588.5379460861431653
 31
0.0
  0
ARC
  5
246CA
  8
0
 10
4480.1880480784730025
 20
586.4533601767193431
 30
0.0
 40
1.48214524480013
 50
348.9203875079991235
 51
359.3163938465949059
  0
LINE
  5
246CB
  8
0
 10
4481.6700878306028244
 20
586.4356768572916963
 30
0.0
 11
4481.6700773133061375
 21
588.2636675492653922
 31
0.0
  0
ARC
  5
246CC
  8
0
 10
4480.1597309479111573
 20
588.2431321327167097
 30
0.0
 40
1.5104859637853101
 50
0.7789737707169913
 51
10.9736382729854096
  0
LINE
  5
246CD
  8
0
 10
4481.6379334027387813
 20
588.5554692032653747
 30
0.0
 11
4481.6425974803296413
 21
588.5306642071458327
 31
0.0
  0
LINE
  5
246CE
  8
0
 10
4481.6379334027387813
 20
586.1440018595652646
 30
0.0
 11
4481.6425677763390922
 21
586.1685322019651494
 31
0.0
  0
ARC
  5
246CF
  8
0
 10
4488.3235814871532057
 20
583.4363165290546931
 30
0.0
 40
0.0824538872278029
 50
3.845279495474609
 51
81.3247449837255516
  0
LINE
  5
246D0
  8
0
 10
4488.3360183280392448
 20
583.5178270713653319
 30
0.0
 11
4481.6379640560144253
 21
583.5175753946194845
 31
0.0
  0
LINE
  5
246D1
  8
0
 10
4481.6379640357508833
 20
580.9895758085873467
 30
0.0
 11
4488.3360180761392257
 21
580.9895757997653618
 31
0.0
  0
ARC
  5
246D2
  8
0
 10
4488.324373985749844
 20
581.0703660057730531
 30
0.0
 40
0.0816250098177938
 50
278.2014199949196041
 51
356.4258718554817165
  0
LINE
  5
246D3
  8
0
 10
4488.4058402332648257
 20
581.0652775144875477
 30
0.0
 11
4488.4058497527075815
 21
583.4418460861431868
 31
0.0
  0
ARC
  5
246D4
  8
0
 10
4480.1880480784730025
 20
581.3572601767193646
 30
0.0
 40
1.48214524480013
 50
348.9203875079991235
 51
359.3163938465949059
  0
LINE
  5
246D5
  8
0
 10
4481.6700878306028244
 20
581.339576857291604
 30
0.0
 11
4481.6700773133061375
 21
583.1675675492652999
 31
0.0
  0
ARC
  5
246D6
  8
0
 10
4480.1597309479111573
 20
583.1470321327167312
 30
0.0
 40
1.5104859637853101
 50
0.7789737707169913
 51
10.9736382729854096
  0
LINE
  5
246D7
  8
0
 10
4481.6379334027387813
 20
583.4593692032653962
 30
0.0
 11
4481.6425974803296413
 21
583.4345642071457405
 31
0.0
  0
LINE
  5
246D8
  8
0
 10
4481.6379334027387813
 20
581.047901859565286
 30
0.0
 11
4481.6425677763390922
 21
581.0724322019650572
 31
0.0
  0
ARC
  5
246D9
  8
0
 10
4488.3235814871532057
 20
578.3402165290547146
 30
0.0
 40
0.0824538872278029
 50
3.845279495474609
 51
81.3247449837255516
  0
LINE
  5
246DA
  8
0
 10
4488.3360183280392448
 20
578.4217270713653534
 30
0.0
 11
4481.6379640559971449
 21
578.4214753946196197
 31
0.0
  0
LINE
  5
246DB
  8
0
 10
4481.6379640358245524
 20
575.8934758085873682
 30
0.0
 11
4488.3360180761392257
 21
575.8934757997652696
 31
0.0
  0
ARC
  5
246DC
  8
0
 10
4488.324373985749844
 20
575.9742660057730745
 30
0.0
 40
0.0816250098177938
 50
278.2014199949196041
 51
356.4258718554817165
  0
LINE
  5
246DD
  8
0
 10
4488.4058402332648257
 20
575.9691775144876829
 30
0.0
 11
4488.4058497527075815
 21
578.3457460861433219
 31
0.0
  0
ARC
  5
246DE
  8
0
 10
4480.1880480784730025
 20
576.2611601767193861
 30
0.0
 40
1.48214524480013
 50
348.9203875079991235
 51
359.3163938465949059
  0
LINE
  5
246DF
  8
0
 10
4481.6700878306028244
 20
576.2434768572916255
 30
0.0
 11
4481.6700773133061375
 21
578.0714675492653214
 31
0.0
  0
ARC
  5
246E0
  8
0
 10
4480.1597309479111573
 20
578.0509321327167527
 30
0.0
 40
1.5104859637853101
 50
0.7789737707169913
 51
10.9736382729854096
  0
LINE
  5
246E1
  8
0
 10
4481.6379334027387813
 20
578.363269203265304
 30
0.0
 11
4481.6425974803296413
 21
578.338464207145762
 31
0.0
  0
LINE
  5
246E2
  8
0
 10
4481.6379334027387813
 20
575.9518018595651938
 30
0.0
 11
4481.6425677763390922
 21
575.976332201964965
 31
0.0
  0
ARC
  5
246E3
  8
0
 10
4488.3235814871532057
 20
573.244116529054736
 30
0.0
 40
0.0824538872278029
 50
3.845279495474609
 51
81.3247449837255516
  0
LINE
  5
246E4
  8
0
 10
4488.3360183280392448
 20
573.3256270713653748
 30
0.0
 11
4481.6379640560890039
 21
573.3253753946196412
 31
0.0
  0
LINE
  5
246E5
  8
0
 10
4481.6279224181389509
 20
570.797375808600691
 30
0.0
 11
4488.3360180761392257
 21
570.797375799765291
 31
0.0
  0
ARC
  5
246E6
  8
0
 10
4488.324373985749844
 20
570.878166005773096
 30
0.0
 40
0.0816250098177938
 50
278.2014199949196041
 51
356.4258718554817165
  0
LINE
  5
246E7
  8
0
 10
4488.4058402332648257
 20
570.8730775144877043
 30
0.0
 11
4488.4058497527075815
 21
573.2496460861432297
 31
0.0
  0
ARC
  5
246E8
  8
0
 10
4480.1880480784730025
 20
571.1650601767192938
 30
0.0
 40
1.48214524480013
 50
348.9203875079991235
 51
359.3163938465949059
  0
LINE
  5
246E9
  8
0
 10
4481.6700878306028244
 20
571.147376857291647
 30
0.0
 11
4481.6700773133061375
 21
572.9753675492653429
 31
0.0
  0
ARC
  5
246EA
  8
0
 10
4480.1597309479111573
 20
572.9548321327166605
 30
0.0
 40
1.5104859637853101
 50
0.7789737707169913
 51
10.9736382729854096
  0
LINE
  5
246EB
  8
0
 10
4481.6379334027387813
 20
573.2671692032653255
 30
0.0
 11
4481.6425974803296413
 21
573.2423642071457834
 31
0.0
  0
LINE
  5
246EC
  8
0
 10
4481.6279224181389509
 20
570.8000646780653824
 30
0.0
 11
4481.6425677763390922
 21
570.8802322019651001
 31
0.0
  0
ARC
  5
246ED
  8
0
 10
4480.1333416302140904
 20
595.8762420143773397
 30
0.0
 40
1.552264963746703
 50
1.1658750917399781
 51
14.2305303175386992
  0
LINE
  5
246EE
  8
0
 10
4481.6852852429592531
 20
595.9078258794653493
 30
0.0
 11
4481.6852852430347411
 21
594.079825879479813
 31
0.0
  0
ARC
  5
246EF
  8
0
 10
4480.1333387631530059
 20
594.1114099209376036
 30
0.0
 40
1.5522678338785421
 50
345.7694898360028901
 51
358.8341205529084732
  0
ARC
  5
246F0
  8
0
 10
4484.6792839584641115
 20
596.1830819318073509
 30
0.0
 40
0.0755817696212508
 50
355.7014757931337954
 51
89.1652228172156214
  0
LINE
  5
246F1
  8
0
 10
4484.6803851164386288
 20
596.2586556795653223
 30
0.0
 11
4481.6379745660360641
 21
596.2578258794848125
 31
0.0
  0
LINE
  5
246F2
  8
0
 10
4481.6379746152570078
 20
593.7298258795323136
 30
0.0
 11
4484.6737095507933191
 21
593.7263302293143852
 31
0.0
  0
ARC
  5
246F3
  8
0
 10
4484.6751024808627335
 20
593.8060506016380486
 30
0.0
 40
0.0797325405187388
 50
268.9989899497351757
 51
3.0706347438357979
  0
LINE
  5
246F4
  8
0
 10
4484.7547205458386088
 20
593.8103216374653357
 30
0.0
 11
4484.7546531214384231
 21
596.1774168482653522
 31
0.0
  0
ARC
  5
246F5
  8
0
 10
4480.1333416302086334
 20
590.7801420143773612
 30
0.0
 40
1.552264963746703
 50
1.1658750917399781
 51
14.2305303175386992
  0
LINE
  5
246F6
  8
0
 10
4481.6852852429547056
 20
590.8117258794652571
 30
0.0
 11
4481.6852852430301937
 21
588.9837258794798345
 31
0.0
  0
ARC
  5
246F7
  8
0
 10
4480.1333387631475489
 20
589.0153099209376251
 30
0.0
 40
1.5522678338785421
 50
345.7694898360028901
 51
358.8341205529084732
  0
ARC
  5
246F8
  8
0
 10
4484.6792839584586545
 20
591.086981931807145
 30
0.0
 40
0.0755817696212508
 50
355.7014757931337954
 51
89.1652228172156214
  0
LINE
  5
246F9
  8
0
 10
4484.6803851164349908
 20
591.1625556795653438
 30
0.0
 11
4481.6379745660333356
 21
591.161725879484834
 31
0.0
  0
LINE
  5
246FA
  8
0
 10
4481.6379746152515509
 20
588.6337258795322214
 30
0.0
 11
4484.6737095507887716
 21
588.6302302293144066
 31
0.0
  0
ARC
  5
246FB
  8
0
 10
4484.675102480858186
 20
588.7099506016379564
 30
0.0
 40
0.0797325405187388
 50
268.9989899497351757
 51
3.0706347438357979
  0
LINE
  5
246FC
  8
0
 10
4484.7547205458349708
 20
588.7142216374653572
 30
0.0
 11
4484.7546531214338756
 21
591.08131684826526
 31
0.0
  0
ARC
  5
246FD
  8
0
 10
4480.1333416302086334
 20
585.684042014377269
 30
0.0
 40
1.552264963746703
 50
1.1658750917399781
 51
14.2305303175386992
  0
LINE
  5
246FE
  8
0
 10
4481.6852852429547056
 20
585.7156258794652786
 30
0.0
 11
4481.6852852430301937
 21
583.8876258794798559
 31
0.0
  0
ARC
  5
246FF
  8
0
 10
4480.1333387631475489
 20
583.9192099209376465
 30
0.0
 40
1.5522678338785421
 50
345.7694898360028901
 51
358.8341205529084732
  0
ARC
  5
24700
  8
0
 10
4484.6792839584586545
 20
585.9908819318071664
 30
0.0
 40
0.0755817696212508
 50
355.7014757931337954
 51
89.1652228172156214
  0
LINE
  5
24701
  8
0
 10
4484.6803851164349908
 20
586.0664556795652516
 30
0.0
 11
4481.6379745660333356
 21
586.0656258794847417
 31
0.0
  0
LINE
  5
24702
  8
0
 10
4481.6379746152515509
 20
583.5376258795322428
 30
0.0
 11
4484.6737095507887716
 21
583.5341302293145418
 31
0.0
  0
ARC
  5
24703
  8
0
 10
4484.675102480858186
 20
583.6138506016378642
 30
0.0
 40
0.0797325405187388
 50
268.9989899497351757
 51
3.0706347438357979
  0
LINE
  5
24704
  8
0
 10
4484.7547205458349708
 20
583.6181216374652649
 30
0.0
 11
4484.7546531214338756
 21
585.9852168482652814
 31
0.0
  0
ARC
  5
24705
  8
0
 10
4480.1333416302086334
 20
580.5879420143772904
 30
0.0
 40
1.552264963746703
 50
1.1658750917399781
 51
14.2305303175386992
  0
LINE
  5
24706
  8
0
 10
4481.6852852429547056
 20
580.6195258794653
 30
0.0
 11
4481.6852852430301937
 21
578.7915258794797637
 31
0.0
  0
ARC
  5
24707
  8
0
 10
4480.1333387631475489
 20
578.8231099209375543
 30
0.0
 40
1.5522678338785421
 50
345.7694898360028901
 51
358.8341205529084732
  0
ARC
  5
24708
  8
0
 10
4484.6792839584586545
 20
580.8947819318071879
 30
0.0
 40
0.0755817696212508
 50
355.7014757931337954
 51
89.1652228172156214
  0
LINE
  5
24709
  8
0
 10
4484.6803851164349908
 20
580.9703556795651593
 30
0.0
 11
4481.6379745660333356
 21
580.9695258794846495
 31
0.0
  0
LINE
  5
2470A
  8
0
 10
4481.6379746152515509
 20
578.4415258795322643
 30
0.0
 11
4484.6737095507887716
 21
578.4380302293144496
 31
0.0
  0
ARC
  5
2470B
  8
0
 10
4484.675102480858186
 20
578.5177506016378857
 30
0.0
 40
0.0797325405187388
 50
268.9989899497351757
 51
3.0706347438357979
  0
LINE
  5
2470C
  8
0
 10
4484.7547205458349708
 20
578.5220216374652864
 30
0.0
 11
4484.7546531214338756
 21
580.8891168482654166
 31
0.0
  0
ARC
  5
2470D
  8
0
 10
4480.1333416303086778
 20
575.4918420143773119
 30
0.0
 40
1.552264963746703
 50
1.1658750917399781
 51
14.2305303175386992
  0
LINE
  5
2470E
  8
0
 10
4481.68528524305475
 20
575.5234258794653215
 30
0.0
 11
4481.6852852431302381
 21
573.6954258794797852
 31
0.0
  0
ARC
  5
2470F
  8
0
 10
4480.1333387632475933
 20
573.7270099209376895
 30
0.0
 40
1.5522678338785421
 50
345.7694898360028901
 51
358.8341205529084732
  0
ARC
  5
24710
  8
0
 10
4484.6792839585586989
 20
575.7986819318073231
 30
0.0
 40
0.0755817696212508
 50
355.7014757931337954
 51
89.1652228172156214
  0
LINE
  5
24711
  8
0
 10
4484.6803851165341257
 20
575.8742556795651808
 30
0.0
 11
4481.637974566131561
 21
575.8734258794847847
 31
0.0
  0
LINE
  5
24712
  8
0
 10
4481.6379746153515953
 20
573.3454258795321721
 30
0.0
 11
4484.673709550888816
 21
573.341930229314471
 31
0.0
  0
ARC
  5
24713
  8
0
 10
4484.6751024809591399
 20
573.4216506016379071
 30
0.0
 40
0.0797325405187388
 50
268.9989899497351757
 51
3.0706347438357979
  0
LINE
  5
24714
  8
0
 10
4484.7547205459341058
 20
573.4259216374653079
 30
0.0
 11
4484.7546531215348296
 21
575.7930168482653244
 31
0.0
  0
LINE
  5
24715
  8
0
 10
4481.6379334027387813
 20
573.2671692032653255
 30
0.0
 11
4481.6379746153515953
 21
573.3454258795321721
 31
0.0
  0
LINE
  5
24716
  8
0
 10
4481.6379334027387813
 20
575.9518018595651938
 30
0.0
 11
4481.637974566131561
 21
575.8734258794847847
 31
0.0
  0
LINE
  5
24717
  8
0
 10
4481.6379746152306325
 20
578.4415258795322643
 30
0.0
 11
4481.6379334027387813
 21
578.363269203265304
 31
0.0
  0
LINE
  5
24718
  8
0
 10
4481.6379334027387813
 20
581.047901859565286
 30
0.0
 11
4481.6379745660333356
 21
580.9695258794846495
 31
0.0
  0
LINE
  5
24719
  8
0
 10
4481.6379746152515509
 20
583.5376258795322428
 30
0.0
 11
4481.6379334027387813
 21
583.4593692032653962
 31
0.0
  0
LINE
  5
2471A
  8
0
 10
4481.6379334027387813
 20
586.1440018595652646
 30
0.0
 11
4481.63797456604334
 21
586.0656258794847417
 31
0.0
  0
LINE
  5
2471B
  8
0
 10
4481.6379746152515509
 20
588.6337258795321077
 30
0.0
 11
4481.6379334027387813
 21
588.5554692032653747
 31
0.0
  0
LINE
  5
2471C
  8
0
 10
4481.6379745660360641
 20
591.1617258794894951
 30
0.0
 11
4481.6379334027387813
 21
591.2401018595653568
 31
0.0
  0
LINE
  5
2471D
  8
0
 10
4481.6379746152570078
 20
593.7298258795321999
 30
0.0
 11
4481.6379334027387813
 21
593.6515692032653533
 31
0.0
  0
LINE
  5
2471E
  8
0
 10
4481.6379334027387813
 20
596.3362018595653353
 30
0.0
 11
4481.637974566039702
 21
596.257825879472648
 31
0.0
  0
ARC
  5
2471F
  8
0
 10
4481.9334999333041196
 20
598.8225015053861853
 30
0.0
 40
0.3048925178335519
 50
178.7362503745117976
 51
194.2077375342751111
  0
ARC
  5
24720
  8
0
 10
4480.0674049811223085
 20
616.2553404910581776
 30
0.0
 40
1.618225219196606
 50
1.306097632395111
 51
13.9566228784838593
  0
LINE
  5
24721
  8
0
 10
4481.6852097679120561
 20
616.2922258794819754
 30
0.0
 11
4481.6852097956798389
 21
614.4642258794652889
 31
0.0
  0
ARC
  5
24722
  8
0
 10
4480.0674137882897412
 20
614.5011102169066817
 30
0.0
 40
1.6182164181199781
 50
346.0433379949030268
 51
358.6939324843684176
  0
ARC
  5
24723
  8
0
 10
4481.8917243555288223
 20
570.1616333265069443
 30
0.0
 40
0.0622799297156135
 50
272.8118206547271143
 51
6.8022238238282027
  0
ARC
  5
24724
  8
0
 10
4481.8068107224580672
 20
570.2244320224209559
 30
0.0
 40
0.1250036442470351
 50
270.0082357213067894
 51
9.2064206335251537
  0
ARC
  5
24725
  8
0
 10
4480.3685705575499014
 20
569.9870637453626614
 30
0.0
 40
1.595404217641563
 50
6.5484836707045213
 51
20.1033847732480702
  0
ARC
  5
24726
  8
0
 10
4480.3443193277116734
 20
569.9873887977895492
 30
0.0
 40
1.6065806992969269
 50
9.2065302959259707
 51
19.9452304359102897
  0
ARC
  5
24727
  8
0
 10
4481.6406509629423454
 20
570.4529641974809238
 30
0.0
 40
0.2406897594336453
 50
20.0363402094571903
 51
65.795444144881742
  0
ARC
  5
24728
  8
0
 10
4481.6289701080058876
 20
570.4535904301721985
 30
0.0
 40
0.2399528833841081
 50
19.9413713469166005
 51
65.8221682422982468
  0
ARC
  5
24729
  8
0
 10
4481.8209958450179329
 20
570.8583117731177481
 30
0.0
 40
0.202970428398175
 50
207.7927801673226895
 51
246.2754466610352893
  0
ARC
  5
2472A
  8
0
 10
4481.8076074770679043
 20
570.8532715200373104
 30
0.0
 40
0.197833514560077
 50
206.9302288959223972
 51
246.033694005150295
  0
LINE
  5
2472B
  8
0
 10
4481.6279224181389509
 20
570.8000646780653824
 30
0.0
 11
4481.6279224181389509
 21
570.7773637514652592
 31
0.0
  0
ARC
  5
2472C
  8
0
 10
4481.6580450508399736
 20
570.7773896140206489
 30
0.0
 40
0.030122643800803
 50
180.0491928132078101
 51
207.090801162188086
  0
ARC
  5
2472D
  8
0
 10
4482.4143762047860946
 20
584.3329761737995796
 30
0.0
 40
14.4618378764934992
 50
90.219689700862105
 51
93.0990204830858374
  0
ARC
  5
2472E
  8
0
 10
4506.7547034977178555
 20
626.753046246348049
 30
0.0
 40
0.082590736034968
 50
98.7086293287313197
 51
176.0578882937635115
  0
LINE
  5
2472F
  8
0
 10
4506.7421984595002868
 20
626.834684801565345
 30
0.0
 11
4513.8833083914014423
 21
626.8371673531652277
 31
0.0
  0
ARC
  5
24730
  8
0
 10
4513.8740404403506545
 20
626.7517209843830415
 30
0.0
 40
0.0859475238429649
 50
4.6549835224746277
 51
83.8096064398093432
  0
LINE
  5
24731
  8
0
 10
4513.9597044625998024
 20
626.7586960934653462
 30
0.0
 11
4513.9596953175014278
 21
624.3821274982542491
 31
0.0
  0
ARC
  5
24732
  8
0
 10
4513.8774610063783257
 20
624.3876573637086267
 30
0.0
 40
0.0824200299533133
 50
278.6135839955026086
 51
356.1529236846308208
  0
LINE
  5
24733
  8
0
 10
4513.8898050343996147
 20
624.306166957465166
 30
0.0
 11
4506.7486951095997938
 21
624.3036844057653525
 31
0.0
  0
ARC
  5
24734
  8
0
 10
4506.7579571831265639
 20
624.3891250594720077
 30
0.0
 40
0.0859412084614658
 50
184.6514972331663103
 51
263.8130911929200124
  0
LINE
  5
24735
  8
0
 10
4506.6722990312000547
 20
624.382155674965361
 30
0.0
 11
4506.6723081697991802
 21
626.7587242403653818
 31
0.0
  0
ARC
  5
24736
  8
0
 10
4506.7547034977178555
 20
621.6569462463479567
 30
0.0
 40
0.082590736034968
 50
98.7086293287313197
 51
176.0578882937635115
  0
LINE
  5
24737
  8
0
 10
4506.7421984595002868
 20
621.7385848015652527
 30
0.0
 11
4513.8833083914014423
 21
621.7410673531652492
 31
0.0
  0
ARC
  5
24738
  8
0
 10
4513.8740404403506545
 20
621.6556209843829492
 30
0.0
 40
0.0859475238429649
 50
4.6549835224746277
 51
83.8096064398093432
  0
LINE
  5
24739
  8
0
 10
4513.9597044625998024
 20
621.6625960934653676
 30
0.0
 11
4513.9596953175014278
 21
619.2860274982542705
 31
0.0
  0
ARC
  5
2473A
  8
0
 10
4513.8774610063783257
 20
619.2915573637086482
 30
0.0
 40
0.0824200299533133
 50
278.6135839955026086
 51
356.1529236846308208
  0
LINE
  5
2473B
  8
0
 10
4513.8898050343996147
 20
619.2100669574653011
 30
0.0
 11
4506.7486951095997938
 21
619.2075844057652603
 31
0.0
  0
ARC
  5
2473C
  8
0
 10
4506.7579571831265639
 20
619.2930250594720292
 30
0.0
 40
0.0859412084614658
 50
184.6514972331663103
 51
263.8130911929200124
  0
LINE
  5
2473D
  8
0
 10
4506.6722990312000547
 20
619.2860556749652687
 30
0.0
 11
4506.6723081697991802
 21
621.6626242403652896
 31
0.0
  0
ARC
  5
2473E
  8
0
 10
4506.7547034977178555
 20
616.5608462463480919
 30
0.0
 40
0.082590736034968
 50
98.7086293287313197
 51
176.0578882937635115
  0
LINE
  5
2473F
  8
0
 10
4506.7421984595002868
 20
616.6424848015651605
 30
0.0
 11
4513.8833083914014423
 21
616.644967353165157
 31
0.0
  0
ARC
  5
24740
  8
0
 10
4513.8740404403506545
 20
616.5595209843829707
 30
0.0
 40
0.0859475238429649
 50
4.6549835224746277
 51
83.8096064398093432
  0
LINE
  5
24741
  8
0
 10
4513.9597044625998024
 20
616.5664960934653891
 30
0.0
 11
4513.9596953175014278
 21
614.189927498254292
 31
0.0
  0
ARC
  5
24742
  8
0
 10
4513.8774610063783257
 20
614.1954573637085559
 30
0.0
 40
0.0824200299533133
 50
278.6135839955026086
 51
356.1529236846308208
  0
LINE
  5
24743
  8
0
 10
4513.8898050343996147
 20
614.1139669574652089
 30
0.0
 11
4506.7486951095997938
 21
614.1114844057652817
 31
0.0
  0
ARC
  5
24744
  8
0
 10
4506.7579571831265639
 20
614.1969250594719369
 30
0.0
 40
0.0859412084614658
 50
184.6514972331663103
 51
263.8130911929200124
  0
LINE
  5
24745
  8
0
 10
4506.6722990312000547
 20
614.1899556749652902
 30
0.0
 11
4506.6723081697991802
 21
616.566524240365311
 31
0.0
  0
ARC
  5
24746
  8
0
 10
4506.7547034977178555
 20
611.4647462463481133
 30
0.0
 40
0.082590736034968
 50
98.7086293287313197
 51
176.0578882937635115
  0
LINE
  5
24747
  8
0
 10
4506.7421984595002868
 20
611.5463848015652957
 30
0.0
 11
4513.8833083914014423
 21
611.5488673531651784
 31
0.0
  0
ARC
  5
24748
  8
0
 10
4513.8740404403506545
 20
611.4634209843829922
 30
0.0
 40
0.0859475238429649
 50
4.6549835224746277
 51
83.8096064398093432
  0
LINE
  5
24749
  8
0
 10
4513.9597044625998024
 20
611.4703960934652969
 30
0.0
 11
4513.9596953175014278
 21
609.0938274982544272
 31
0.0
  0
ARC
  5
2474A
  8
0
 10
4513.8774610063783257
 20
609.0993573637086911
 30
0.0
 40
0.0824200299533133
 50
278.6135839955026086
 51
356.1529236846308208
  0
LINE
  5
2474B
  8
0
 10
4513.8898050343996147
 20
609.0178669574652304
 30
0.0
 11
4506.7486951095997938
 21
609.0153844057653032
 31
0.0
  0
ARC
  5
2474C
  8
0
 10
4506.7579571831265639
 20
609.1008250594718447
 30
0.0
 40
0.0859412084614658
 50
184.6514972331663103
 51
263.8130911929200124
  0
LINE
  5
2474D
  8
0
 10
4506.6722990312000547
 20
609.0938556749653117
 30
0.0
 11
4506.6723081697991802
 21
611.4704242403653325
 31
0.0
  0
ARC
  5
2474E
  8
0
 10
4506.7547034977178555
 20
606.3686462463481348
 30
0.0
 40
0.082590736034968
 50
98.7086293287313197
 51
176.0578882937635115
  0
LINE
  5
2474F
  8
0
 10
4506.7421984595002868
 20
606.4502848015653171
 30
0.0
 11
4513.8833083914014423
 21
606.4527673531653136
 31
0.0
  0
ARC
  5
24750
  8
0
 10
4513.8740404403506545
 20
606.3673209843829
 30
0.0
 40
0.0859475238429649
 50
4.6549835224746277
 51
83.8096064398093432
  0
LINE
  5
24751
  8
0
 10
4513.9597044625998024
 20
606.3742960934653183
 30
0.0
 11
4513.9596953175014278
 21
603.9977274982544486
 31
0.0
  0
ARC
  5
24752
  8
0
 10
4513.8774610063783257
 20
604.0032573637087125
 30
0.0
 40
0.0824200299533133
 50
278.6135839955026086
 51
356.1529236846308208
  0
LINE
  5
24753
  8
0
 10
4513.8898050343996147
 20
603.9217669574652518
 30
0.0
 11
4506.7486951095997938
 21
603.919284405765211
 31
0.0
  0
ARC
  5
24754
  8
0
 10
4506.7579571831265639
 20
604.0047250594718662
 30
0.0
 40
0.0859412084614658
 50
184.6514972331663103
 51
263.8130911929200124
  0
LINE
  5
24755
  8
0
 10
4506.6722990312000547
 20
603.9977556749653331
 30
0.0
 11
4506.6723081697991802
 21
606.3743242403653539
 31
0.0
  0
ARC
  5
24756
  8
0
 10
4506.7547703085474495
 20
596.1764183868401688
 30
0.0
 40
0.0826573140842531
 50
98.7882941876517862
 51
176.0416938207403064
  0
LINE
  5
24757
  8
0
 10
4506.742141599000206
 20
596.2581052723653556
 30
0.0
 11
4513.8898799580001651
 21
596.2581038161653169
 31
0.0
  0
ARC
  5
24758
  8
0
 10
4513.8772639566914222
 20
596.1764366827430877
 30
0.0
 40
0.0826358528148742
 50
3.9639699068362289
 51
81.2183212518676072
  0
LINE
  5
24759
  8
0
 10
4513.9597021213203334
 20
596.1821492288480613
 30
0.0
 11
4513.9597116360428117
 21
593.8055838946730773
 31
0.0
  0
ARC
  5
2475A
  8
0
 10
4513.877233656039607
 20
593.8113061711462706
 30
0.0
 40
0.0826762458821125
 50
278.7987771596182256
 51
356.0312104063303877
  0
LINE
  5
2475B
  8
0
 10
4513.8898802068997611
 20
593.7296028885651822
 30
0.0
 11
4506.7421418509002251
 21
593.7298540007652718
 31
0.0
  0
ARC
  5
2475C
  8
0
 10
4506.7542120044181502
 20
593.8110371789424562
 30
0.0
 40
0.0820755568051146
 50
183.8293813992376045
 51
261.5433263201658178
  0
LINE
  5
2475D
  8
0
 10
4506.672319693463578
 20
593.8055557163928597
 30
0.0
 11
4506.6723101695579317
 21
596.182124265330458
 31
0.0
  0
ARC
  5
2475E
  8
0
 10
4506.7547703017480671
 20
591.0803183658400712
 30
0.0
 40
0.0826573140842531
 50
98.7882941876517862
 51
176.0416938207403064
  0
LINE
  5
2475F
  8
0
 10
4506.7421415922008237
 20
591.1620052513652581
 30
0.0
 11
4513.8898799511998732
 21
591.162003795165333
 31
0.0
  0
ARC
  5
24760
  8
0
 10
4513.8772639498911303
 20
591.0803366617431038
 30
0.0
 40
0.0826358528148742
 50
3.9639699068362289
 51
81.2183212518676072
  0
LINE
  5
24761
  8
0
 10
4513.9597021145200415
 20
591.0860492078481911
 30
0.0
 11
4513.9597116292434293
 21
588.7094838736730935
 31
0.0
  0
ARC
  5
24762
  8
0
 10
4513.8772336492402246
 20
588.7152061501461731
 30
0.0
 40
0.0826762458821125
 50
278.7987771596182256
 51
356.0312104063303877
  0
LINE
  5
24763
  8
0
 10
4513.8898802001003787
 20
588.6335028675651984
 30
0.0
 11
4506.7421418440999332
 21
588.6337539797651743
 31
0.0
  0
ARC
  5
24764
  8
0
 10
4506.7542119976178583
 20
588.7149371579423587
 30
0.0
 40
0.0820755568051146
 50
183.8293813992376045
 51
261.5433263201658178
  0
LINE
  5
24765
  8
0
 10
4506.6723196866632861
 20
588.7094556953929896
 30
0.0
 11
4506.6723101627576398
 21
591.0860242443304742
 31
0.0
  0
ARC
  5
24766
  8
0
 10
4506.754770308559273
 20
585.9842183868915981
 30
0.0
 40
0.0826573140842531
 50
98.7882941876517862
 51
176.0416938207403064
  0
LINE
  5
24767
  8
0
 10
4506.74214159901112
 20
586.0659052724165576
 30
0.0
 11
4513.8898799580119885
 21
586.0659038162166325
 31
0.0
  0
ARC
  5
24768
  8
0
 10
4513.8772639567023361
 20
585.984236682794517
 30
0.0
 40
0.0826358528148742
 50
3.9639699068362289
 51
81.2183212518676072
  0
LINE
  5
24769
  8
0
 10
4513.9597021213312473
 20
585.989949228899377
 30
0.0
 11
4513.9597116360528162
 21
583.6133838947246204
 31
0.0
  0
ARC
  5
2476A
  8
0
 10
4513.8772336560496115
 20
583.6191061711977
 30
0.0
 40
0.0826762458821125
 50
278.7987771596182256
 51
356.0312104063303877
  0
LINE
  5
2476B
  8
0
 10
4513.889880206910675
 20
583.5374028886167252
 30
0.0
 11
4506.742141850911139
 21
583.5376540008165875
 31
0.0
  0
ARC
  5
2476C
  8
0
 10
4506.7542120044290641
 20
583.6188371789936582
 30
0.0
 40
0.0820755568051146
 50
183.8293813992376045
 51
261.5433263201658178
  0
LINE
  5
2476D
  8
0
 10
4506.6723196934754014
 20
583.6133557164442891
 30
0.0
 11
4506.6723101695688456
 21
585.9899242653818874
 31
0.0
  0
ARC
  5
2476E
  8
0
 10
4506.754770308559273
 20
580.8881183869915503
 30
0.0
 40
0.0826573140842531
 50
98.7882941876517862
 51
176.0416938207403064
  0
LINE
  5
2476F
  8
0
 10
4506.74214159901112
 20
580.9698052725166235
 30
0.0
 11
4513.8898799580119885
 21
580.9698038163165847
 31
0.0
  0
ARC
  5
24770
  8
0
 10
4513.8772639567023361
 20
580.8881366828943555
 30
0.0
 40
0.0826358528148742
 50
3.9639699068362289
 51
81.2183212518676072
  0
LINE
  5
24771
  8
0
 10
4513.9597021213312473
 20
580.8938492289994429
 30
0.0
 11
4513.9597116360528162
 21
578.5172838948245726
 31
0.0
  0
ARC
  5
24772
  8
0
 10
4513.8772336560496115
 20
578.5230061712976521
 30
0.0
 40
0.0826762458821125
 50
278.7987771596182256
 51
356.0312104063303877
  0
LINE
  5
24773
  8
0
 10
4513.889880206910675
 20
578.4413028887166774
 30
0.0
 11
4506.742141850911139
 21
578.4415540009166534
 31
0.0
  0
ARC
  5
24774
  8
0
 10
4506.7542120044290641
 20
578.5227371790938378
 30
0.0
 40
0.0820755568051146
 50
183.8293813992376045
 51
261.5433263201658178
  0
LINE
  5
24775
  8
0
 10
4506.6723196934754014
 20
578.517255716544355
 30
0.0
 11
4506.6723101695688456
 21
580.8938242654819533
 31
0.0
  0
ARC
  5
24776
  8
0
 10
4506.7547703085474495
 20
575.7920183868402546
 30
0.0
 40
0.0826573140842531
 50
98.7882941876517862
 51
176.0416938207403064
  0
LINE
  5
24777
  8
0
 10
4506.742141599000206
 20
575.8737052723652141
 30
0.0
 11
4513.8898799580001651
 21
575.873703816165289
 31
0.0
  0
ARC
  5
24778
  8
0
 10
4513.8772639566914222
 20
575.7920366827430598
 30
0.0
 40
0.0826358528148742
 50
3.9639699068362289
 51
81.2183212518676072
  0
LINE
  5
24779
  8
0
 10
4513.9597021213203334
 20
575.7977492288481471
 30
0.0
 11
4513.9597116360428117
 21
573.4211838946731632
 31
0.0
  0
ARC
  5
2477A
  8
0
 10
4513.877233656039607
 20
573.4269061711463564
 30
0.0
 40
0.0826762458821125
 50
278.7987771596182256
 51
356.0312104063303877
  0
LINE
  5
2477B
  8
0
 10
4513.8898802068997611
 20
573.345202888565268
 30
0.0
 11
4506.7421418509002251
 21
573.345454000765244
 31
0.0
  0
ARC
  5
2477C
  8
0
 10
4506.7542120044181502
 20
573.4266371789423147
 30
0.0
 40
0.0820755568051146
 50
183.8293813992376045
 51
261.5433263201658178
  0
LINE
  5
2477D
  8
0
 10
4506.672319693463578
 20
573.4211557163929456
 30
0.0
 11
4506.6723101695579317
 21
575.7977242653305439
 31
0.0
  0
LINE
  5
2477E
  8
0
 10
4540.2746584127389724
 20
569.916309323565315
 30
0.0
 11
4540.2987824215788351
 21
570.6067097233390086
 31
0.0
  0
LINE
  5
2477F
  8
0
 10
4480.5352434749011081
 20
570.0994283794652802
 30
0.0
 11
4480.5183790890014279
 21
570.5823612069652881
 31
0.0
  0
LINE
  5
24780
  8
0
 10
4480.5183790890014279
 20
570.5823612069652881
 30
0.0
 11
4480.3793912551009271
 21
570.5872147690653264
 31
0.0
  0
ARC
  5
24781
  8
0
 10
4480.3786318332386145
 20
570.6498430018683621
 30
0.0
 40
0.0626328369595742
 50
180.0540402083495906
 51
270.6947271725578048
  0
ARC
  5
24782
  8
0
 10
4480.4324994345988671
 20
569.9189470704259293
 30
0.0
 40
0.0752033498347111
 50
182.0100535447759
 51
195.0299892851195978
  0
LINE
  5
24783
  8
0
 10
4480.4589966779585666
 20
570.584434886449003
 30
0.0
 11
4480.474932146557876
 21
570.1283807571575153
 31
0.0
  0
ARC
  5
24784
  8
0
 10
4480.504913849186778
 20
570.1294283795012916
 30
0.0
 40
0.0300000000861241
 50
182.0012181626804875
 51
269.9966871242236834
  0
LINE
  5
24785
  8
0
 10
4480.3573423583002295
 20
569.916309323565315
 30
0.0
 11
4480.3332183528409587
 21
570.6067096265804821
 31
0.0
  0
LINE
  5
24786
  8
0
 10
4540.2752280268678078
 20
628.4100116619872551
 30
0.0
 11
4540.3159990241383639
 21
628.4121483794652931
 31
0.0
  0
LINE
  5
24787
  8
0
 10
4480.3598705279100614
 20
552.0994283794651665
 30
0.0
 11
4540.2721302431291406
 21
552.0994283794651665
 31
0.0
  0
LINE
  5
24789
  8
0
 10
4480.5037238565137159
 20
570.5828729789596991
 30
0.0
 11
4480.5099276214377824
 21
570.4052203959653298
 31
0.0
  0
LINE
  5
2478A
  8
0
 10
4480.5099276214377824
 20
570.4052203959653298
 30
0.0
 11
4480.5251438746636268
 21
570.3886430907579097
 31
0.0
  0
LINE
  5
2478B
  8
0
 10
4540.1282741884388088
 20
570.5828728837651624
 30
0.0
 11
4540.1220704268380359
 21
570.4052203959653298
 31
0.0
  0
LINE
  5
2478C
  8
0
 10
4540.1220704268380359
 20
570.4052203959653298
 30
0.0
 11
4540.1068570040633858
 21
570.3886461744908729
 31
0.0
  0
VIEWPORT
  5
7BC8
 67
     1
  8
0
 10
8.4975296442687753
 20
4.5
 30
0.0
 40
16.9950592885375507
 41
9.0
 68
     1
 69
     1
1001
ACAD
1000
MVIEW
1002
{
1070
    16
1010
0.0
1020
0.0
1030
0.0
1010
0.0
1020
0.0
1030
1.0
1040
0.0
1040
9.0
1040
8.4975296442687753
1040
4.5
1040
50.0
1040
0.0
1040
0.0
1070
     0
1070
   100
1070
     1
1070
     1
1070
     0
1070
     0
1070
     0
1070
     0
1040
0.0
1040
0.0
1040
0.0
1040
1.0
1040
1.0
1040
0.0
1040
0.0
1070
     0
1002
{
1002
}
1002
}
  0
ENDSEC
  0
EOF
