  0
SECTION
  2
HEADER
  9
$ACADVER
  1
AC1009
  9
$INSBASE
 10
4529.9814726328131655
 20
542.9991766925605816
 30
0.0
  9
$EXTMIN
 10
4499.9814695148852479
 20
542.9934803711772702
 30
0.0
  9
$EXTMAX
 10
4559.9814695148852479
 20
622.0708678382676453
 30
0.0
  9
$LIMMIN
 10
0.0
 20
0.0
  9
$LIMMAX
 10
11.6929133858000007
 20
8.2677165353999982
  9
$ORTHOMODE
 70
     0
  9
$REGENMODE
 70
     1
  9
$FILLMODE
 70
     1
  9
$QTEXTMODE
 70
     0
  9
$MIRRTEXT
 70
     0
  9
$DRAGMODE
 70
     2
  9
$LTSCALE
 40
0.6431102362
  9
$OSMODE
 70
  4095
  9
$ATTMODE
 70
     1
  9
$TEXTSIZE
 40
0.2
  9
$TRACEWID
 40
0.05
  9
$TEXTSTYLE
  7
STANDARD
  9
$CLAYER
  8
0
  9
$CELTYPE
  6
BYLAYER
  9
$CECOLOR
 62
   256
  9
$DIMSCALE
 40
1.0
  9
$DIMASZ
 40
0.1875
  9
$DIMEXO
 40
0.0625
  9
$DIMDLI
 40
0.4443307087
  9
$DIMRND
 40
0.0
  9
$DIMDLE
 40
0.0
  9
$DIMEXE
 40
0.125
  9
$DIMTP
 40
0.01
  9
$DIMTM
 40
0.01
  9
$DIMTXT
 40
2.0
  9
$DIMCEN
 40
0.1052362205
  9
$DIMTSZ
 40
0.0
  9
$DIMTOL
 70
     1
  9
$DIMLIM
 70
     0
  9
$DIMTIH
 70
     1
  9
$DIMTOH
 70
     1
  9
$DIMSE1
 70
     0
  9
$DIMSE2
 70
     0
  9
$DIMTAD
 70
     0
  9
$DIMZIN
 70
     0
  9
$DIMBLK
  1

  9
$DIMASO
 70
     1
  9
$DIMSHO
 70
     1
  9
$DIMPOST
  1
\X
  9
$DIMAPOST
  1

  9
$DIMALT
 70
     1
  9
$DIMALTD
 70
     2
  9
$DIMALTF
 40
25.3999999999999986
  9
$DIMLFAC
 40
1.0
  9
$DIMTOFL
 70
     0
  9
$DIMTVP
 40
0.0
  9
$DIMTIX
 70
     0
  9
$DIMSOXD
 70
     0
  9
$DIMSAH
 70
     0
  9
$DIMBLK1
  1

  9
$DIMBLK2
  1

  9
$DIMSTYLE
  2
STANDARD
  9
$DIMCLRD
 70
     0
  9
$DIMCLRE
 70
     0
  9
$DIMCLRT
 70
     0
  9
$DIMTFAC
 40
1.0
  9
$DIMGAP
 40
0.09
  9
$LUNITS
 70
     2
  9
$LUPREC
 70
     4
  9
$SKETCHINC
 40
0.1
  9
$FILLETRAD
 40
0.0
  9
$AUNITS
 70
     0
  9
$AUPREC
 70
     0
  9
$MENU
  1
.
  9
$ELEVATION
 40
0.0
  9
$PELEVATION
 40
0.0
  9
$THICKNESS
 40
0.0
  9
$LIMCHECK
 70
     0
  9
$BLIPMODE
 70
     0
  9
$CHAMFERA
 40
0.0
  9
$CHAMFERB
 40
0.0
  9
$SKPOLY
 70
     0
  9
$TDCREATE
 40
2458060.468368056230247
  9
$TDUPDATE
 40
2458873.6475115739740431
  9
$TDINDWG
 40
4.5105394676000001
  9
$TDUSRTIMER
 40
4.5105394676000001
  9
$USRTIMER
 70
     1
  9
$ANGBASE
 50
0.0
  9
$ANGDIR
 70
     0
  9
$PDMODE
 70
     0
  9
$PDSIZE
 40
0.3125
  9
$PLINEWID
 40
0.0
  9
$COORDS
 70
     1
  9
$SPLFRAME
 70
     0
  9
$SPLINETYPE
 70
     6
  9
$SPLINESEGS
 70
     8
  9
$ATTDIA
 70
     1
  9
$ATTREQ
 70
     1
  9
$HANDLING
 70
     1
  9
$HANDSEED
  5
247CD
  9
$SURFTAB1
 70
     6
  9
$SURFTAB2
 70
     6
  9
$SURFTYPE
 70
     6
  9
$SURFU
 70
     6
  9
$SURFV
 70
     6
  9
$UCSNAME
  2

  9
$UCSORG
 10
0.0
 20
0.0
 30
0.0
  9
$UCSXDIR
 10
1.0
 20
0.0
 30
0.0
  9
$UCSYDIR
 10
0.0
 20
1.0
 30
0.0
  9
$PUCSNAME
  2

  9
$PUCSORG
 10
0.0
 20
0.0
 30
0.0
  9
$PUCSXDIR
 10
1.0
 20
0.0
 30
0.0
  9
$PUCSYDIR
 10
0.0
 20
1.0
 30
0.0
  9
$USERI1
 70
     0
  9
$USERI2
 70
     0
  9
$USERI3
 70
     0
  9
$USERI4
 70
     0
  9
$USERI5
 70
     0
  9
$USERR1
 40
0.0
  9
$USERR2
 40
0.0
  9
$USERR3
 40
0.0
  9
$USERR4
 40
0.0
  9
$USERR5
 40
0.0
  9
$WORLDVIEW
 70
     1
  9
$SHADEDGE
 70
     3
  9
$SHADEDIF
 70
    70
  9
$TILEMODE
 70
     1
  9
$MAXACTVP
 70
    64
  9
$PLIMCHECK
 70
     0
  9
$PEXTMIN
 10
1.0000000000000000E+20
 20
1.0000000000000000E+20
 30
1.0000000000000000E+20
  9
$PEXTMAX
 10
-1.0000000000000000E+20
 20
-1.0000000000000000E+20
 30
-1.0000000000000000E+20
  9
$PLIMMIN
 10
0.0
 20
0.0
  9
$PLIMMAX
 10
12.0
 20
9.0
  9
$UNITMODE
 70
     0
  9
$VISRETAIN
 70
     1
  9
$PLINEGEN
 70
     0
  9
$PSLTSCALE
 70
     1
  0
ENDSEC
  0
SECTION
  2
TABLES
  0
TABLE
  2
VPORT
 70
     1
  0
VPORT
  2
*ACTIVE
 70
     0
 10
0.0
 20
0.0
 11
1.0
 21
1.0
 12
0.0
 22
0.0
 13
0.0
 23
0.0
 14
1.0
 24
1.0
 15
0.0
 25
0.0
 16
0.0
 26
0.0
 36
269.4015255182271744
 17
4529.9814453125
 27
582.5321710937919306
 37
0.0
 40
99.2634487423955534
 41
2.005224660397074
 42
50.0
 43
0.0
 44
0.0
 50
0.0
 51
0.0
 71
     0
 72
   100
 73
     1
 74
     1
 75
     0
 76
     0
 77
     0
 78
     0
  0
ENDTAB
  0
TABLE
  2
LTYPE
 70
     2
  0
LTYPE
  2
CONTINUOUS
 70
     0
  3
Solid line
 72
    65
 73
     0
 40
0.0
  0
LTYPE
  2
PHANTOM2
 70
     0
  3
___ _ _ ___ _ _ ___ _ _ ___ _ _
 72
    65
 73
     6
 40
1.25
 49
0.625
 49
-0.125
 49
0.125
 49
-0.125
 49
0.125
 49
-0.125
  0
ENDTAB
  0
TABLE
  2
LAYER
 70
     2
  0
LAYER
  2
0
 70
     0
 62
   255
  6
CONTINUOUS
  0
LAYER
  2
DEFPOINTS
 70
     0
 62
     7
  6
CONTINUOUS
  0
ENDTAB
  0
TABLE
  2
STYLE
 70
     1
  0
STYLE
  2
STANDARD
 70
     0
 40
0.0
 41
0.8
 50
0.0
 71
     0
 42
0.2
  3
txt
  4

  0
ENDTAB
  0
TABLE
  2
VIEW
 70
     0
  0
ENDTAB
  0
TABLE
  2
UCS
 70
     0
  0
ENDTAB
  0
TABLE
  2
APPID
 70
     9
  0
APPID
  2
ACAD
 70
     0
  0
APPID
  2
ACAD_MLEADERVER
 70
     0
  0
APPID
  2
ACAD_EXEMPT_FROM_CAD_STANDARDS
 70
     0
  0
APPID
  2
ACAD_NAV_VCDISPLAY
 70
     0
  0
APPID
  2
ACAECLAYERSTANDARD
 70
     0
  0
APPID
  2
ACCMTRANSPARENCY
 70
     0
  0
APPID
  2
ACAD_DSTYLE_DIMJAG
 70
     0
  0
APPID
  2
ACAD_DSTYLE_DIMTALN
 70
     0
  0
APPID
  2
ACDBATTR
 70
     0
  0
ENDTAB
  0
TABLE
  2
DIMSTYLE
 70
     1
  0
DIMSTYLE
  2
STANDARD
 70
     0
  3

  4

  5

  6

  7

 40
1.0
 41
0.1875
 42
0.0625
 43
0.38
 44
0.125
 45
0.0
 46
0.0
 47
0.01
 48
0.01
140
0.15625
141
0.09
142
0.0
143
25.3999999999999986
144
1.0
145
0.0
146
1.0
147
0.09
 71
     1
 72
     0
 73
     1
 74
     1
 75
     0
 76
     0
 77
     0
 78
     4
170
     0
171
     2
172
     0
173
     0
174
     0
175
     0
176
     0
177
     0
178
     0
  0
ENDTAB
  0
ENDSEC
  0
SECTION
  2
BLOCKS
  0
BLOCK
  8
0
  2
$MODEL_SPACE
 70
     0
 10
0.0
 20
0.0
 30
0.0
  3
$MODEL_SPACE
  1

  0
ENDBLK
  5
21
  8
0
  0
BLOCK
 67
     1
  8
0
  2
$PAPER_SPACE
 70
     0
 10
0.0
 20
0.0
 30
0.0
  3
$PAPER_SPACE
  1

  0
ENDBLK
  5
1D
 67
     1
  8
0
  0
BLOCK
  8
0
  2
_FILLED
 70
     0
 10
0.0
 20
0.0
 30
0.0
  3
_FILLED
  1

  0
SOLID
  5
1AED4
  8
0
  6
BYBLOCK
 62
     0
 10
0.0
 20
0.0
 30
0.0
 11
-1.0
 21
0.1666666667
 31
0.0
 12
-1.0
 22
-0.1666666667
 32
0.0
 13
-1.0
 23
-0.1666666667
 33
0.0
  0
ENDBLK
  5
1AED5
  8
0
  6
BYBLOCK
 62
     0
  0
ENDSEC
  0
SECTION
  2
ENTITIES
  0
ATTDEF
  5
3930
  8
DEFPOINTS
 10
4529.9703052674130959
 20
542.9968137045109415
 30
0.0
 40
0.001
  1
71570118
  3

  2
MODELNUMBER
 70
     0
1001
ACDBATTR
1070
     0
1070
     1
  0
ATTDEF
  5
3931
  8
DEFPOINTS
 10
4529.9703052674130959
 20
542.9951470378441627
 30
0.0
 40
0.001
  1
TRAVERSE
  3

  2
TRADENAME
 70
     0
1001
ACDBATTR
1070
     0
1070
     1
  0
ATTDEF
  5
3932
  8
DEFPOINTS
 10
4529.9703052674130959
 20
542.9934803711776112
 30
0.0
 40
0.001
  1
BATH AND WALL SURROUND
  3

  2
PRODUCT
 70
     0
1001
ACDBATTR
1070
     0
1070
     1
  0
LINE
  5
24099
  8
0
 10
4500.1703826053162629
 20
563.749176692560809
 30
0.0
 11
4559.7925591472167071
 21
563.749176692560809
 31
0.0
  0
LINE
  5
2409A
  8
0
 10
4501.8139664139680463
 20
561.7318000433591578
 30
0.0
 11
4558.1489753385631047
 21
561.7317752144256247
 31
0.0
  0
ARC
  5
2409B
  8
0
 10
4558.1403016450321957
 20
562.3641371618323319
 30
0.0
 40
0.6324214302879443
 50
270.7858392991759047
 51
358.1756215621904857
  0
LINE
  5
2409C
  8
0
 10
4559.7622277868849778
 20
563.749176692560809
 30
0.0
 11
4559.779092172784658
 21
564.232109520060817
 31
0.0
  0
LINE
  5
2409D
  8
0
 10
4559.779092172784658
 20
564.232109520060817
 30
0.0
 11
4559.9180800066851589
 21
564.2369630821607416
 31
0.0
  0
ARC
  5
2409E
  8
0
 10
4558.9423281151566698
 20
563.6241028319607267
 30
0.0
 40
0.125154397011138
 50
92.0555785455047442
 51
178.611457473621499
  0
LINE
  5
2409F
  8
0
 10
4558.8172104690447668
 20
563.6271356066901035
 30
0.0
 11
4558.7724025041334244
 21
562.3440033740295121
 31
0.0
  0
ARC
  5
240A0
  8
0
 10
4559.9188412873136258
 20
564.2995867063540345
 30
0.0
 40
0.0626282512552443
 50
269.3035213285232885
 51
359.9501720470768191
  0
ARC
  5
240A1
  8
0
 10
4559.9439724970352472
 20
621.9973455257755859
 30
0.0
 40
0.0625002593878911
 50
93.0027251197436442
 51
179.9999051321223931
  0
CIRCLE
  5
240A2
  8
0
 10
4559.2314722376468126
 20
621.5712526925607335
 30
0.0
 40
0.09375
  0
CIRCLE
  5
240A3
  8
0
 10
4558.4814722376468126
 20
621.5712526925607335
 30
0.0
 40
0.09375
  0
CIRCLE
  5
240A4
  8
0
 10
4557.7314722376468126
 20
621.5712526925607335
 30
0.0
 40
0.09375
  0
CIRCLE
  5
240A5
  8
0
 10
4556.9814722376468126
 20
621.5712526925607335
 30
0.0
 40
0.09375
  0
CIRCLE
  5
240A6
  8
0
 10
4556.2314722376468126
 20
621.5712526925607335
 30
0.0
 40
0.09375
  0
CIRCLE
  5
240A7
  8
0
 10
4555.4814722376468126
 20
621.5712526925607335
 30
0.0
 40
0.09375
  0
CIRCLE
  5
240A8
  8
0
 10
4554.7314722376468126
 20
621.5712526925607335
 30
0.0
 40
0.09375
  0
CIRCLE
  5
240A9
  8
0
 10
4553.9814722376468126
 20
621.5712526925607335
 30
0.0
 40
0.09375
  0
CIRCLE
  5
240AA
  8
0
 10
4553.2314722376468126
 20
621.5712526925607335
 30
0.0
 40
0.09375
  0
CIRCLE
  5
240AB
  8
0
 10
4552.4814722376468126
 20
621.5712526925607335
 30
0.0
 40
0.09375
  0
CIRCLE
  5
240AC
  8
0
 10
4551.7314722376468126
 20
621.5712526925607335
 30
0.0
 40
0.09375
  0
CIRCLE
  5
240AD
  8
0
 10
4550.9814722376468126
 20
621.5712526925607335
 30
0.0
 40
0.09375
  0
CIRCLE
  5
240AE
  8
0
 10
4550.2314722376468126
 20
621.5712526925607335
 30
0.0
 40
0.09375
  0
CIRCLE
  5
240AF
  8
0
 10
4549.4814722376468126
 20
621.5712526925607335
 30
0.0
 40
0.09375
  0
CIRCLE
  5
240B0
  8
0
 10
4548.7314722376468126
 20
621.5712526925607335
 30
0.0
 40
0.09375
  0
CIRCLE
  5
240B1
  8
0
 10
4547.9814722376468126
 20
621.5712526925607335
 30
0.0
 40
0.09375
  0
CIRCLE
  5
240B2
  8
0
 10
4547.2314722376468126
 20
621.5712526925607335
 30
0.0
 40
0.09375
  0
CIRCLE
  5
240B3
  8
0
 10
4546.4814722376468126
 20
621.5712526925607335
 30
0.0
 40
0.09375
  0
CIRCLE
  5
240B4
  8
0
 10
4545.7314722376468126
 20
621.5712526925607335
 30
0.0
 40
0.09375
  0
CIRCLE
  5
240B5
  8
0
 10
4544.9814722376468126
 20
621.5712526925607335
 30
0.0
 40
0.09375
  0
CIRCLE
  5
240B6
  8
0
 10
4544.2314722376468126
 20
621.5712526925607335
 30
0.0
 40
0.09375
  0
CIRCLE
  5
240B7
  8
0
 10
4543.4814722376468126
 20
621.5712526925607335
 30
0.0
 40
0.09375
  0
CIRCLE
  5
240B8
  8
0
 10
4542.7314722376468126
 20
621.5712526925607335
 30
0.0
 40
0.09375
  0
CIRCLE
  5
240B9
  8
0
 10
4541.9814722376468126
 20
621.5712526925607335
 30
0.0
 40
0.09375
  0
CIRCLE
  5
240BA
  8
0
 10
4541.2314722376468126
 20
621.5712526925607335
 30
0.0
 40
0.09375
  0
CIRCLE
  5
240BB
  8
0
 10
4540.4814722376459031
 20
621.5712526925607335
 30
0.0
 40
0.09375
  0
CIRCLE
  5
240BC
  8
0
 10
4539.7314722376459031
 20
621.5712526925607335
 30
0.0
 40
0.09375
  0
CIRCLE
  5
240BD
  8
0
 10
4538.9814722376459031
 20
621.5712526925607335
 30
0.0
 40
0.09375
  0
CIRCLE
  5
240BE
  8
0
 10
4529.9814722377459475
 20
621.5712526925607335
 30
0.0
 40
0.09375
  0
CIRCLE
  5
240BF
  8
0
 10
4530.7314722377459475
 20
621.5712526925607335
 30
0.0
 40
0.09375
  0
CIRCLE
  5
240C0
  8
0
 10
4531.4814722377459475
 20
621.5712526925607335
 30
0.0
 40
0.09375
  0
CIRCLE
  5
240C1
  8
0
 10
4532.231472237746857
 20
621.5712526925607335
 30
0.0
 40
0.09375
  0
CIRCLE
  5
240C2
  8
0
 10
4532.981472237746857
 20
621.5712526925607335
 30
0.0
 40
0.09375
  0
CIRCLE
  5
240C3
  8
0
 10
4533.731472237746857
 20
621.5712526925607335
 30
0.0
 40
0.09375
  0
CIRCLE
  5
240C4
  8
0
 10
4534.481472237746857
 20
621.5712526925607335
 30
0.0
 40
0.09375
  0
CIRCLE
  5
240C5
  8
0
 10
4535.231472237746857
 20
621.5712526925607335
 30
0.0
 40
0.09375
  0
CIRCLE
  5
240C6
  8
0
 10
4535.981472237746857
 20
621.5712526925607335
 30
0.0
 40
0.09375
  0
CIRCLE
  5
240C7
  8
0
 10
4536.731472237746857
 20
621.5712526925607335
 30
0.0
 40
0.09375
  0
CIRCLE
  5
240C8
  8
0
 10
4537.481472237746857
 20
621.5712526925607335
 30
0.0
 40
0.09375
  0
CIRCLE
  5
240C9
  8
0
 10
4538.231472237746857
 20
621.5712526925607335
 30
0.0
 40
0.09375
  0
LINE
  5
240CA
  8
0
 10
4500.3013882285858926
 20
622.0708678382607104
 30
0.0
 11
4559.6615535239470773
 21
622.0708678382676453
 31
0.0
  0
ARC
  5
240CB
  8
0
 10
4559.4413918856280361
 20
608.7802292625486871
 30
0.0
 40
13.2924619577110192
 50
88.4086282997298554
 51
89.0509726832245718
  0
ARC
  5
240CC
  8
0
 10
4559.8033786740652431
 20
622.0026937585668065
 30
0.0
 40
0.0652645652224314
 50
73.1601983280708339
 51
83.7019390295574652
  0
ARC
  5
240CD
  8
0
 10
4559.8212960836053753
 20
622.0618371104063726
 30
0.0
 40
0.0034667890539801
 50
23.8051489340712301
 51
73.4154948619705863
  0
LINE
  5
240CE
  8
0
 10
4559.8244679300305506
 20
622.0632364018689486
 30
0.0
 11
4559.8814722376791906
 21
621.9677168050287719
 31
0.0
  0
ARC
  5
240CF
  8
0
 10
4559.8187289517909448
 20
620.8648540708279597
 30
0.0
 40
0.0631070482025065
 50
273.1935825065467043
 51
353.8451755204021083
  0
LINE
  5
240D0
  8
0
 10
4559.8222446248073538
 20
620.8018450271428037
 30
0.0
 11
4559.0618537932296022
 21
620.7619841815601376
 31
0.0
  0
ARC
  5
240D1
  8
0
 10
4559.0754296987906855
 20
620.504183930232216
 30
0.0
 40
0.2581574612450347
 50
93.0144433970347251
 51
180.0016063375441036
  0
LINE
  5
240D2
  8
0
 10
4558.8172722376457386
 20
620.5041766925606908
 30
0.0
 11
4558.8172722376457386
 21
563.8741766925606953
 31
0.0
  0
ARC
  5
240D3
  8
0
 10
4558.9424124796378237
 20
563.8742333449883972
 30
0.0
 40
0.1251402548152468
 50
180.0259384569503993
 51
267.9055372812507017
  0
LINE
  5
240D4
  8
0
 10
4501.145672237646977
 20
620.5041766925606908
 30
0.0
 11
4558.8172722376457386
 21
620.5041766925606908
 31
0.0
  0
ARC
  5
240D5
  8
0
 10
4560.2284105213548173
 20
620.0975103669727559
 30
0.0
 40
1.6165649126030699
 50
166.0368440684484028
 51
178.7003171073774013
  0
LINE
  5
240D6
  8
0
 10
4558.612261494530685
 20
620.134176969701457
 30
0.0
 11
4558.612261493846745
 21
618.3061741925606611
 31
0.0
  0
ARC
  5
240D7
  8
0
 10
4560.2300553004415633
 20
618.3430581117859219
 30
0.0
 40
1.618214208364283
 50
181.3060544878958069
 51
193.9566661938904133
  0
ARC
  5
240D8
  8
0
 10
4548.3234739884655937
 20
620.4027945594434641
 30
0.0
 40
0.082590736034968
 50
98.7086293287308223
 51
176.0578882937666947
  0
LINE
  5
240D9
  8
0
 10
4548.3109689502471156
 20
620.4844331146606464
 30
0.0
 11
4555.4520788821473616
 21
620.4869156662606429
 31
0.0
  0
ARC
  5
240DA
  8
0
 10
4555.4428109310965738
 20
620.4014692974784566
 30
0.0
 40
0.0859475238429649
 50
4.6549835224746277
 51
83.8096064398093432
  0
LINE
  5
240DB
  8
0
 10
4555.5284749533466311
 20
620.4084444065606476
 30
0.0
 11
4555.528465808247347
 21
618.0318758113496642
 31
0.0
  0
ARC
  5
240DC
  8
0
 10
4555.4462314971251544
 20
618.0374056768040418
 30
0.0
 40
0.0824200299533133
 50
278.6135839955026086
 51
356.1529236846308208
  0
LINE
  5
240DD
  8
0
 10
4555.4585755251473529
 20
617.9559152705606948
 30
0.0
 11
4548.3174656003466225
 21
617.9534327188607676
 31
0.0
  0
ARC
  5
240DE
  8
0
 10
4548.3267276738733926
 20
618.0388733725674228
 30
0.0
 40
0.0859412084614658
 50
184.6514972331663103
 51
263.8130911929200124
  0
LINE
  5
240DF
  8
0
 10
4548.2410695219468835
 20
618.0319039880607761
 30
0.0
 11
4548.2410786605469184
 21
620.4084725534607969
 31
0.0
  0
ARC
  5
240E0
  8
0
 10
4555.6223371548658179
 20
620.4079460917919278
 30
0.0
 40
0.0796300539901669
 50
89.0823246575048557
 51
183.0096542621313063
  0
LINE
  5
240E1
  8
0
 10
4555.6236124916104018
 20
620.487565932376242
 30
0.0
 11
4558.6596133340472079
 21
620.4875840802011453
 31
0.0
  0
LINE
  5
240E2
  8
0
 10
4558.6596133346620263
 20
617.9527643041609508
 30
0.0
 11
4555.6237607352941268
 21
617.9526303267192588
 31
0.0
  0
ARC
  5
240E3
  8
0
 10
4555.6225212761883085
 20
618.0325001771286679
 30
0.0
 40
0.0798794670943839
 50
177.0077559573169026
 51
270.8890723521359973
  0
LINE
  5
240E4
  8
0
 10
4555.5427507159456582
 20
618.0366699471607035
 30
0.0
 11
4555.5428169344468188
 21
620.40376517766083
 31
0.0
  0
LINE
  5
240E5
  8
0
 10
4559.8814722376473583
 20
621.9973456292607352
 30
0.0
 11
4559.8814722388697191
 21
620.8580880188441142
 31
0.0
  0
LINE
  5
240E6
  8
0
 10
4502.0951677371549522
 20
594.2674759760318466
 30
0.0
 11
4557.8677740153771083
 21
594.2674759760318466
 31
0.0
  0
LINE
  5
240E7
  8
0
 10
4501.3383837325845889
 20
592.9839174611814769
 30
0.0
 11
4558.6245580199465621
 21
592.9839172981985485
 31
0.0
  0
LINE
  5
240E8
  8
0
 10
4506.7955324669410402
 20
549.0248319179063401
 30
0.0
 11
4553.1674127986852909
 21
549.0247220588008759
 31
0.0
  0
ARC
  5
240E9
  8
0
 10
4553.0023350356268566
 20
550.3104675792867511
 30
0.0
 40
1.296299429647757
 50
277.3162196433714257
 51
340.0483707609128032
  0
ARC
  5
240EA
  8
0
 10
4530.5313108253640166
 20
561.0675587706178931
 30
0.0
 40
26.2034442119824007
 50
334.6971575742351206
 51
357.3377401126600716
  0
LINE
  5
240EB
  8
0
 10
4503.2564719521233201
 20
559.8504485496609959
 30
0.0
 11
4556.7064733135039205
 21
559.8504485496606549
 31
0.0
  0
LINE
  5
240EC
  8
0
 10
4559.9814695148852479
 20
622.0618966925607083
 30
0.0
 11
4559.9814695148852479
 21
564.2995322409607297
 31
0.0
  0
ARC
  5
240ED
  8
0
 10
4557.8063683307109386
 20
595.053626446370231
 30
0.0
 40
0.7885450019640446
 50
274.4662665479622206
 51
356.3564961187436211
  0
ARC
  5
240EE
  8
0
 10
4558.2470523984629835
 20
589.2228163017916813
 30
0.0
 40
3.3030006539860381
 50
82.7482021412330226
 51
90.264925923434447
  0
LINE
  5
240EF
  8
0
 10
4504.4271125565155671
 20
620.8112382524608392
 30
0.0
 11
4555.5358291960155839
 21
620.8112382524608392
 31
0.0
  0
ARC
  5
240F0
  8
0
 10
4555.8827538806835946
 20
644.6895262432726668
 30
0.0
 40
23.8808080706870207
 50
269.1676152912262978
 51
276.0910459019813175
  0
ARC
  5
240F1
  8
0
 10
4559.4455183813770418
 20
616.0561701965048087
 30
0.0
 40
4.9944754157260043
 50
93.027479627221453
 51
101.8873600607370946
  0
ARC
  5
240F2
  8
0
 10
13388.7473239171795285
 20
-167535.9393084589974023
 30
0.0
 40
168388.6342796013050247
 50
93.0055546351913449
 51
93.0057192370183543
  0
ARC
  5
240F3
  8
0
 10
4559.6614673279445924
 20
621.1314983321085492
 30
0.0
 40
0.0625483017807696
 50
273.0767498460432989
 51
359.8532436870183915
  0
LINE
  5
240F4
  8
0
 10
4559.7240154245473605
 20
621.1313381222606722
 30
0.0
 11
4559.7240154245473605
 21
622.0014131755607423
 31
0.0
  0
ARC
  5
240F5
  8
0
 10
4559.794902624003953
 20
621.9977300649958352
 30
0.0
 40
0.0709828172892516
 50
96.8168032733122459
 51
177.0257379894295013
  0
LINE
  5
240F6
  8
0
 10
4559.9376008836406982
 20
542.9991766925605816
 30
0.0
 11
4559.9375997644847303
 21
563.5491933055456002
 31
0.0
  0
ARC
  5
240F7
  8
0
 10
4559.8651746439172712
 20
563.5686766932219598
 30
0.0
 40
0.0750000032306652
 50
344.9430809952243067
 51
357.9987814878639938
  0
LINE
  5
240F8
  8
0
 10
4559.8384745838266099
 20
564.2341831995444181
 30
0.0
 11
4559.82253911522821
 21
563.7781290702529304
 31
0.0
  0
ARC
  5
240F9
  8
0
 10
4559.7925574125983985
 20
563.7791766925967067
 30
0.0
 40
0.0300000000861011
 50
270.0033128757762029
 51
357.9987818373584787
  0
ARC
  5
240FA
  8
0
 10
4541.0223739884640963
 20
620.4027945594434641
 30
0.0
 40
0.082590736034968
 50
98.7086293287308223
 51
176.0578882937666947
  0
LINE
  5
240FB
  8
0
 10
4541.0098689502456182
 20
620.4844331146606464
 30
0.0
 11
4548.1509788821467737
 21
620.4869156662606429
 31
0.0
  0
ARC
  5
240FC
  8
0
 10
4548.1417109310978049
 20
620.4014692974784566
 30
0.0
 40
0.0859475238429649
 50
4.6549835224746277
 51
83.8096064398093432
  0
LINE
  5
240FD
  8
0
 10
4548.2273749533469527
 20
620.4084444065606476
 30
0.0
 11
4548.2273658082467591
 21
618.0318758113496642
 31
0.0
  0
ARC
  5
240FE
  8
0
 10
4548.1451314971245665
 20
618.0374056768040418
 30
0.0
 40
0.0824200299533133
 50
278.6135839955026086
 51
356.1529236846308208
  0
LINE
  5
240FF
  8
0
 10
4548.157475525146765
 20
617.9559152705606948
 30
0.0
 11
4541.0163656003469441
 21
617.9534327188607676
 31
0.0
  0
ARC
  5
24100
  8
0
 10
4541.0256276738737142
 20
618.0388733725674228
 30
0.0
 40
0.0859412084614658
 50
184.6514972331663103
 51
263.8130911929200124
  0
LINE
  5
24101
  8
0
 10
4540.9399695219472051
 20
618.0319039880607761
 30
0.0
 11
4540.93997866054724
 21
620.4084725534607969
 31
0.0
  0
ARC
  5
24102
  8
0
 10
4533.7212739884653274
 20
620.4027945594434641
 30
0.0
 40
0.082590736034968
 50
98.7086293287308223
 51
176.0578882937666947
  0
LINE
  5
24103
  8
0
 10
4533.7087689502468493
 20
620.4844331146606464
 30
0.0
 11
4540.8498788821470953
 21
620.4869156662606429
 31
0.0
  0
ARC
  5
24104
  8
0
 10
4540.840610931097217
 20
620.4014692974784566
 30
0.0
 40
0.0859475238429649
 50
4.6549835224746277
 51
83.8096064398093432
  0
LINE
  5
24105
  8
0
 10
4540.9262749533472743
 20
620.4084444065606476
 30
0.0
 11
4540.9262658082470807
 21
618.0318758113496642
 31
0.0
  0
ARC
  5
24106
  8
0
 10
4540.8440314971248881
 20
618.0374056768040418
 30
0.0
 40
0.0824200299533133
 50
278.6135839955026086
 51
356.1529236846308208
  0
LINE
  5
24107
  8
0
 10
4540.8563755251470866
 20
617.9559152705606948
 30
0.0
 11
4533.7152656003472657
 21
617.9534327188607676
 31
0.0
  0
ARC
  5
24108
  8
0
 10
4533.7245276738740358
 20
618.0388733725674228
 30
0.0
 40
0.0859412084614658
 50
184.6514972331663103
 51
263.8130911929200124
  0
LINE
  5
24109
  8
0
 10
4533.6388695219466172
 20
618.0319039880607761
 30
0.0
 11
4533.6388786605466521
 21
620.4084725534607969
 31
0.0
  0
ARC
  5
2410A
  8
0
 10
4530.070723988464124
 20
617.8547445594434748
 30
0.0
 40
0.082590736034968
 50
98.7086293287308223
 51
176.0578882937666947
  0
LINE
  5
2410B
  8
0
 10
4530.0582189502456458
 20
617.9363831146606572
 30
0.0
 11
4537.1993288821468013
 21
617.9388656662607673
 31
0.0
  0
ARC
  5
2410C
  8
0
 10
4537.1900609310978325
 20
617.8534192974783537
 30
0.0
 40
0.0859475238429649
 50
4.6549835224746277
 51
83.8096064398093432
  0
LINE
  5
2410D
  8
0
 10
4537.2757249533469803
 20
617.8603944065606584
 30
0.0
 11
4537.2757158082476963
 21
615.4838258113499023
 31
0.0
  0
ARC
  5
2410E
  8
0
 10
4537.1934814971245942
 20
615.4893556768040526
 30
0.0
 40
0.0824200299533133
 50
278.6135839955026086
 51
356.1529236846308208
  0
LINE
  5
2410F
  8
0
 10
4537.2058255251467926
 20
615.4078652705607055
 30
0.0
 11
4530.0647156003469718
 21
615.4053827188606647
 31
0.0
  0
ARC
  5
24110
  8
0
 10
4530.0739776738737419
 20
615.4908233725674336
 30
0.0
 40
0.0859412084614658
 50
184.6514972331663103
 51
263.8130911929200124
  0
LINE
  5
24111
  8
0
 10
4529.9883195219472327
 20
615.4838539880606731
 30
0.0
 11
4529.9883286605472676
 21
617.860422553460694
 31
0.0
  0
ARC
  5
24112
  8
0
 10
4537.3718239884656214
 20
617.8547445594434748
 30
0.0
 40
0.082590736034968
 50
98.7086293287308223
 51
176.0578882937666947
  0
LINE
  5
24113
  8
0
 10
4537.3593189502471432
 20
617.9363831146606572
 30
0.0
 11
4544.5004288821473892
 21
617.9388656662607673
 31
0.0
  0
ARC
  5
24114
  8
0
 10
4544.4911609310966014
 20
617.8534192974783537
 30
0.0
 40
0.0859475238429649
 50
4.6549835224746277
 51
83.8096064398093432
  0
LINE
  5
24115
  8
0
 10
4544.5768249533475682
 20
617.8603944065606584
 30
0.0
 11
4544.5768158082473747
 21
615.4838258113499023
 31
0.0
  0
ARC
  5
24116
  8
0
 10
4544.4945814971251821
 20
615.4893556768040526
 30
0.0
 40
0.0824200299533133
 50
278.6135839955026086
 51
356.1529236846308208
  0
LINE
  5
24117
  8
0
 10
4544.5069255251473805
 20
615.4078652705607055
 30
0.0
 11
4537.3658156003475597
 21
615.4053827188606647
 31
0.0
  0
ARC
  5
24118
  8
0
 10
4537.3750776738743298
 20
615.4908233725674336
 30
0.0
 40
0.0859412084614658
 50
184.6514972331663103
 51
263.8130911929200124
  0
LINE
  5
24119
  8
0
 10
4537.2894195219469111
 20
615.4838539880606731
 30
0.0
 11
4537.289428660546946
 21
617.860422553460694
 31
0.0
  0
ARC
  5
2411A
  8
0
 10
4544.6729239884652998
 20
617.8547445594434748
 30
0.0
 40
0.082590736034968
 50
98.7086293287308223
 51
176.0578882937666947
  0
LINE
  5
2411B
  8
0
 10
4544.6604189502459121
 20
617.9363831146606572
 30
0.0
 11
4551.8015288821470676
 21
617.9388656662607673
 31
0.0
  0
ARC
  5
2411C
  8
0
 10
4551.7922609310971893
 20
617.8534192974783537
 30
0.0
 40
0.0859475238429649
 50
4.6549835224746277
 51
83.8096064398093432
  0
LINE
  5
2411D
  8
0
 10
4551.8779249533472466
 20
617.8603944065606584
 30
0.0
 11
4551.8779158082479626
 21
615.4838258113499023
 31
0.0
  0
ARC
  5
2411E
  8
0
 10
4551.795681497123951
 20
615.4893556768040526
 30
0.0
 40
0.0824200299533133
 50
278.6135839955026086
 51
356.1529236846308208
  0
LINE
  5
2411F
  8
0
 10
4551.8080255251461494
 20
615.4078652705607055
 30
0.0
 11
4544.6669156003472381
 21
615.4053827188606647
 31
0.0
  0
ARC
  5
24120
  8
0
 10
4544.6761776738730987
 20
615.4908233725674336
 30
0.0
 40
0.0859412084614658
 50
184.6514972331663103
 51
263.8130911929200124
  0
LINE
  5
24121
  8
0
 10
4544.5905195219465895
 20
615.4838539880606731
 30
0.0
 11
4544.5905286605466245
 21
617.860422553460694
 31
0.0
  0
ARC
  5
24122
  8
0
 10
4533.7212739884653274
 20
615.3066945594433719
 30
0.0
 40
0.082590736034968
 50
98.7086293287308223
 51
176.0578882937666947
  0
LINE
  5
24123
  8
0
 10
4533.7087689502468493
 20
615.3883331146607816
 30
0.0
 11
4540.8498788821470953
 21
615.3908156662605506
 31
0.0
  0
ARC
  5
24124
  8
0
 10
4540.840610931097217
 20
615.3053692974783644
 30
0.0
 40
0.0859475238429649
 50
4.6549835224746277
 51
83.8096064398093432
  0
LINE
  5
24125
  8
0
 10
4540.9262749533472743
 20
615.3123444065607828
 30
0.0
 11
4540.9262658082470807
 21
612.9357758113496857
 31
0.0
  0
ARC
  5
24126
  8
0
 10
4540.8440314971248881
 20
612.9413056768039496
 30
0.0
 40
0.0824200299533133
 50
278.6135839955026086
 51
356.1529236846308208
  0
LINE
  5
24127
  8
0
 10
4540.8563755251470866
 20
612.8598152705607163
 30
0.0
 11
4533.7152656003472657
 21
612.8573327188607891
 31
0.0
  0
ARC
  5
24128
  8
0
 10
4533.7245276738740358
 20
612.9427733725674443
 30
0.0
 40
0.0859412084614658
 50
184.6514972331663103
 51
263.8130911929200124
  0
LINE
  5
24129
  8
0
 10
4533.6388695219466172
 20
612.9358039880606839
 30
0.0
 11
4533.6388786605466521
 21
615.3123725534607047
 31
0.0
  0
ARC
  5
2412A
  8
0
 10
4541.0223739884640963
 20
615.3066945594433719
 30
0.0
 40
0.082590736034968
 50
98.7086293287308223
 51
176.0578882937666947
  0
LINE
  5
2412B
  8
0
 10
4541.0098689502456182
 20
615.3883331146607816
 30
0.0
 11
4548.1509788821467737
 21
615.3908156662605506
 31
0.0
  0
ARC
  5
2412C
  8
0
 10
4548.1417109310978049
 20
615.3053692974783644
 30
0.0
 40
0.0859475238429649
 50
4.6549835224746277
 51
83.8096064398093432
  0
LINE
  5
2412D
  8
0
 10
4548.2273749533469527
 20
615.3123444065607828
 30
0.0
 11
4548.2273658082467591
 21
612.9357758113496857
 31
0.0
  0
ARC
  5
2412E
  8
0
 10
4548.1451314971245665
 20
612.9413056768039496
 30
0.0
 40
0.0824200299533133
 50
278.6135839955026086
 51
356.1529236846308208
  0
LINE
  5
2412F
  8
0
 10
4548.157475525146765
 20
612.8598152705607163
 30
0.0
 11
4541.0163656003469441
 21
612.8573327188607891
 31
0.0
  0
ARC
  5
24130
  8
0
 10
4541.0256276738737142
 20
612.9427733725674443
 30
0.0
 40
0.0859412084614658
 50
184.6514972331663103
 51
263.8130911929200124
  0
LINE
  5
24131
  8
0
 10
4540.9399695219472051
 20
612.9358039880606839
 30
0.0
 11
4540.93997866054724
 21
615.3123725534607047
 31
0.0
  0
ARC
  5
24132
  8
0
 10
4548.3234739884655937
 20
615.3066945594433719
 30
0.0
 40
0.082590736034968
 50
98.7086293287308223
 51
176.0578882937666947
  0
LINE
  5
24133
  8
0
 10
4548.3109689502471156
 20
615.3883331146607816
 30
0.0
 11
4555.4520788821473616
 21
615.3908156662605506
 31
0.0
  0
ARC
  5
24134
  8
0
 10
4555.4428109310965738
 20
615.3053692974783644
 30
0.0
 40
0.0859475238429649
 50
4.6549835224746277
 51
83.8096064398093432
  0
LINE
  5
24135
  8
0
 10
4555.5284749533466311
 20
615.3123444065607828
 30
0.0
 11
4555.528465808247347
 21
612.9357758113496857
 31
0.0
  0
ARC
  5
24136
  8
0
 10
4555.4462314971251544
 20
612.9413056768039496
 30
0.0
 40
0.0824200299533133
 50
278.6135839955026086
 51
356.1529236846308208
  0
LINE
  5
24137
  8
0
 10
4555.4585755251473529
 20
612.8598152705607163
 30
0.0
 11
4548.3174656003466225
 21
612.8573327188607891
 31
0.0
  0
ARC
  5
24138
  8
0
 10
4548.3267276738733926
 20
612.9427733725674443
 30
0.0
 40
0.0859412084614658
 50
184.6514972331663103
 51
263.8130911929200124
  0
LINE
  5
24139
  8
0
 10
4548.2410695219468835
 20
612.9358039880606839
 30
0.0
 11
4548.2410786605469184
 21
615.3123725534607047
 31
0.0
  0
ARC
  5
2413A
  8
0
 10
4544.6729239884652998
 20
612.7586445594434963
 30
0.0
 40
0.082590736034968
 50
98.7086293287308223
 51
176.0578882937666947
  0
LINE
  5
2413B
  8
0
 10
4544.6604189502459121
 20
612.8402831146606786
 30
0.0
 11
4551.8015288821470676
 21
612.8427656662606751
 31
0.0
  0
ARC
  5
2413C
  8
0
 10
4551.7922609310971893
 20
612.7573192974784888
 30
0.0
 40
0.0859475238429649
 50
4.6549835224746277
 51
83.8096064398093432
  0
LINE
  5
2413D
  8
0
 10
4551.8779249533472466
 20
612.7642944065606798
 30
0.0
 11
4551.8779158082479626
 21
610.3877258113498101
 31
0.0
  0
ARC
  5
2413E
  8
0
 10
4551.795681497123951
 20
610.3932556768039603
 30
0.0
 40
0.0824200299533133
 50
278.6135839955026086
 51
356.1529236846308208
  0
LINE
  5
2413F
  8
0
 10
4551.8080255251461494
 20
610.311765270560727
 30
0.0
 11
4544.6669156003472381
 21
610.3092827188607998
 31
0.0
  0
ARC
  5
24140
  8
0
 10
4544.6761776738730987
 20
610.394723372567455
 30
0.0
 40
0.0859412084614658
 50
184.6514972331663103
 51
263.8130911929200124
  0
LINE
  5
24141
  8
0
 10
4544.5905195219465895
 20
610.3877539880608083
 30
0.0
 11
4544.5905286605466245
 21
612.7643225534608291
 31
0.0
  0
ARC
  5
24142
  8
0
 10
4537.3718239884656214
 20
612.7586445594434963
 30
0.0
 40
0.082590736034968
 50
98.7086293287308223
 51
176.0578882937666947
  0
LINE
  5
24143
  8
0
 10
4537.3593189502471432
 20
612.8402831146606786
 30
0.0
 11
4544.5004288821473892
 21
612.8427656662606751
 31
0.0
  0
ARC
  5
24144
  8
0
 10
4544.4911609310966014
 20
612.7573192974784888
 30
0.0
 40
0.0859475238429649
 50
4.6549835224746277
 51
83.8096064398093432
  0
LINE
  5
24145
  8
0
 10
4544.5768249533475682
 20
612.7642944065606798
 30
0.0
 11
4544.5768158082473747
 21
610.3877258113498101
 31
0.0
  0
ARC
  5
24146
  8
0
 10
4544.4945814971251821
 20
610.3932556768039603
 30
0.0
 40
0.0824200299533133
 50
278.6135839955026086
 51
356.1529236846308208
  0
LINE
  5
24147
  8
0
 10
4544.5069255251473805
 20
610.311765270560727
 30
0.0
 11
4537.3658156003475597
 21
610.3092827188607998
 31
0.0
  0
ARC
  5
24148
  8
0
 10
4537.3750776738743298
 20
610.394723372567455
 30
0.0
 40
0.0859412084614658
 50
184.6514972331663103
 51
263.8130911929200124
  0
LINE
  5
24149
  8
0
 10
4537.2894195219469111
 20
610.3877539880608083
 30
0.0
 11
4537.289428660546946
 21
612.7643225534608291
 31
0.0
  0
ARC
  5
2414A
  8
0
 10
4530.070723988464124
 20
612.7586445594434963
 30
0.0
 40
0.082590736034968
 50
98.7086293287308223
 51
176.0578882937666947
  0
LINE
  5
2414B
  8
0
 10
4530.0582189502456458
 20
612.8402831146606786
 30
0.0
 11
4537.1993288821468013
 21
612.8427656662606751
 31
0.0
  0
ARC
  5
2414C
  8
0
 10
4537.1900609310978325
 20
612.7573192974784888
 30
0.0
 40
0.0859475238429649
 50
4.6549835224746277
 51
83.8096064398093432
  0
LINE
  5
2414D
  8
0
 10
4537.2757249533469803
 20
612.7642944065606798
 30
0.0
 11
4537.2757158082476963
 21
610.3877258113498101
 31
0.0
  0
ARC
  5
2414E
  8
0
 10
4537.1934814971245942
 20
610.3932556768039603
 30
0.0
 40
0.0824200299533133
 50
278.6135839955026086
 51
356.1529236846308208
  0
LINE
  5
2414F
  8
0
 10
4537.2058255251467926
 20
610.311765270560727
 30
0.0
 11
4530.0647156003469718
 21
610.3092827188607998
 31
0.0
  0
ARC
  5
24150
  8
0
 10
4530.0739776738737419
 20
610.394723372567455
 30
0.0
 40
0.0859412084614658
 50
184.6514972331663103
 51
263.8130911929200124
  0
LINE
  5
24151
  8
0
 10
4529.9883195219472327
 20
610.3877539880608083
 30
0.0
 11
4529.9883286605472676
 21
612.7643225534608291
 31
0.0
  0
ARC
  5
24152
  8
0
 10
4533.7212739884653274
 20
610.210594559443507
 30
0.0
 40
0.082590736034968
 50
98.7086293287308223
 51
176.0578882937666947
  0
LINE
  5
24153
  8
0
 10
4533.7087689502468493
 20
610.2922331146606894
 30
0.0
 11
4540.8498788821470953
 21
610.2947156662605721
 31
0.0
  0
ARC
  5
24154
  8
0
 10
4540.840610931097217
 20
610.2092692974783859
 30
0.0
 40
0.0859475238429649
 50
4.6549835224746277
 51
83.8096064398093432
  0
LINE
  5
24155
  8
0
 10
4540.9262749533472743
 20
610.2162444065608042
 30
0.0
 11
4540.9262658082470807
 21
607.8396758113498208
 31
0.0
  0
ARC
  5
24156
  8
0
 10
4540.8440314971248881
 20
607.8452056768040848
 30
0.0
 40
0.0824200299533133
 50
278.6135839955026086
 51
356.1529236846308208
  0
LINE
  5
24157
  8
0
 10
4540.8563755251470866
 20
607.7637152705607377
 30
0.0
 11
4533.7152656003472657
 21
607.7612327188606969
 31
0.0
  0
ARC
  5
24158
  8
0
 10
4533.7245276738740358
 20
607.8466733725673521
 30
0.0
 40
0.0859412084614658
 50
184.6514972331663103
 51
263.8130911929200124
  0
LINE
  5
24159
  8
0
 10
4533.6388695219466172
 20
607.8397039880607053
 30
0.0
 11
4533.6388786605466521
 21
610.2162725534607262
 31
0.0
  0
ARC
  5
2415A
  8
0
 10
4541.0223739884640963
 20
610.210594559443507
 30
0.0
 40
0.082590736034968
 50
98.7086293287308223
 51
176.0578882937666947
  0
LINE
  5
2415B
  8
0
 10
4541.0098689502456182
 20
610.2922331146606894
 30
0.0
 11
4548.1509788821467737
 21
610.2947156662605721
 31
0.0
  0
ARC
  5
2415C
  8
0
 10
4548.1417109310978049
 20
610.2092692974783859
 30
0.0
 40
0.0859475238429649
 50
4.6549835224746277
 51
83.8096064398093432
  0
LINE
  5
2415D
  8
0
 10
4548.2273749533469527
 20
610.2162444065608042
 30
0.0
 11
4548.2273658082467591
 21
607.8396758113498208
 31
0.0
  0
ARC
  5
2415E
  8
0
 10
4548.1451314971245665
 20
607.8452056768040848
 30
0.0
 40
0.0824200299533133
 50
278.6135839955026086
 51
356.1529236846308208
  0
LINE
  5
2415F
  8
0
 10
4548.157475525146765
 20
607.7637152705607377
 30
0.0
 11
4541.0163656003469441
 21
607.7612327188606969
 31
0.0
  0
ARC
  5
24160
  8
0
 10
4541.0256276738737142
 20
607.8466733725673521
 30
0.0
 40
0.0859412084614658
 50
184.6514972331663103
 51
263.8130911929200124
  0
LINE
  5
24161
  8
0
 10
4540.9399695219472051
 20
607.8397039880607053
 30
0.0
 11
4540.93997866054724
 21
610.2162725534607262
 31
0.0
  0
ARC
  5
24162
  8
0
 10
4548.3234739884655937
 20
610.210594559443507
 30
0.0
 40
0.082590736034968
 50
98.7086293287308223
 51
176.0578882937666947
  0
LINE
  5
24163
  8
0
 10
4548.3109689502471156
 20
610.2922331146606894
 30
0.0
 11
4555.4520788821473616
 21
610.2947156662605721
 31
0.0
  0
ARC
  5
24164
  8
0
 10
4555.4428109310965738
 20
610.2092692974783859
 30
0.0
 40
0.0859475238429649
 50
4.6549835224746277
 51
83.8096064398093432
  0
LINE
  5
24165
  8
0
 10
4555.5284749533466311
 20
610.2162444065608042
 30
0.0
 11
4555.528465808247347
 21
607.8396758113498208
 31
0.0
  0
ARC
  5
24166
  8
0
 10
4555.4462314971251544
 20
607.8452056768040848
 30
0.0
 40
0.0824200299533133
 50
278.6135839955026086
 51
356.1529236846308208
  0
LINE
  5
24167
  8
0
 10
4555.4585755251473529
 20
607.7637152705607377
 30
0.0
 11
4548.3174656003466225
 21
607.7612327188606969
 31
0.0
  0
ARC
  5
24168
  8
0
 10
4548.3267276738733926
 20
607.8466733725673521
 30
0.0
 40
0.0859412084614658
 50
184.6514972331663103
 51
263.8130911929200124
  0
LINE
  5
24169
  8
0
 10
4548.2410695219468835
 20
607.8397039880607053
 30
0.0
 11
4548.2410786605469184
 21
610.2162725534607262
 31
0.0
  0
ARC
  5
2416A
  8
0
 10
4544.6729239884652998
 20
607.6625445594435178
 30
0.0
 40
0.082590736034968
 50
98.7086293287308223
 51
176.0578882937666947
  0
LINE
  5
2416B
  8
0
 10
4544.6604189502459121
 20
607.7441831146607001
 30
0.0
 11
4551.8015288821470676
 21
607.7466656662606965
 31
0.0
  0
ARC
  5
2416C
  8
0
 10
4551.7922609310971893
 20
607.6612192974785103
 30
0.0
 40
0.0859475238429649
 50
4.6549835224746277
 51
83.8096064398093432
  0
LINE
  5
2416D
  8
0
 10
4551.8779249533472466
 20
607.6681944065605876
 30
0.0
 11
4551.8779158082479626
 21
605.2916258113498316
 31
0.0
  0
ARC
  5
2416E
  8
0
 10
4551.795681497123951
 20
605.2971556768039818
 30
0.0
 40
0.0824200299533133
 50
278.6135839955026086
 51
356.1529236846308208
  0
LINE
  5
2416F
  8
0
 10
4551.8080255251461494
 20
605.2156652705606348
 30
0.0
 11
4544.6669156003472381
 21
605.2131827188608213
 31
0.0
  0
ARC
  5
24170
  8
0
 10
4544.6761776738730987
 20
605.2986233725674765
 30
0.0
 40
0.0859412084614658
 50
184.6514972331663103
 51
263.8130911929200124
  0
LINE
  5
24171
  8
0
 10
4544.5905195219465895
 20
605.2916539880608298
 30
0.0
 11
4544.5905286605466245
 21
607.6682225534607369
 31
0.0
  0
ARC
  5
24172
  8
0
 10
4537.3718239884656214
 20
607.6625445594435178
 30
0.0
 40
0.082590736034968
 50
98.7086293287308223
 51
176.0578882937666947
  0
LINE
  5
24173
  8
0
 10
4537.3593189502471432
 20
607.7441831146607001
 30
0.0
 11
4544.5004288821473892
 21
607.7466656662606965
 31
0.0
  0
ARC
  5
24174
  8
0
 10
4544.4911609310966014
 20
607.6612192974785103
 30
0.0
 40
0.0859475238429649
 50
4.6549835224746277
 51
83.8096064398093432
  0
LINE
  5
24175
  8
0
 10
4544.5768249533475682
 20
607.6681944065605876
 30
0.0
 11
4544.5768158082473747
 21
605.2916258113498316
 31
0.0
  0
ARC
  5
24176
  8
0
 10
4544.4945814971251821
 20
605.2971556768039818
 30
0.0
 40
0.0824200299533133
 50
278.6135839955026086
 51
356.1529236846308208
  0
LINE
  5
24177
  8
0
 10
4544.5069255251473805
 20
605.2156652705606348
 30
0.0
 11
4537.3658156003475597
 21
605.2131827188608213
 31
0.0
  0
ARC
  5
24178
  8
0
 10
4537.3750776738743298
 20
605.2986233725674765
 30
0.0
 40
0.0859412084614658
 50
184.6514972331663103
 51
263.8130911929200124
  0
LINE
  5
24179
  8
0
 10
4537.2894195219469111
 20
605.2916539880608298
 30
0.0
 11
4537.289428660546946
 21
607.6682225534607369
 31
0.0
  0
ARC
  5
2417A
  8
0
 10
4530.070723988464124
 20
607.6625445594435178
 30
0.0
 40
0.082590736034968
 50
98.7086293287308223
 51
176.0578882937666947
  0
LINE
  5
2417B
  8
0
 10
4530.0582189502456458
 20
607.7441831146607001
 30
0.0
 11
4537.1993288821468013
 21
607.7466656662606965
 31
0.0
  0
ARC
  5
2417C
  8
0
 10
4537.1900609310978325
 20
607.6612192974785103
 30
0.0
 40
0.0859475238429649
 50
4.6549835224746277
 51
83.8096064398093432
  0
LINE
  5
2417D
  8
0
 10
4537.2757249533469803
 20
607.6681944065605876
 30
0.0
 11
4537.2757158082476963
 21
605.2916258113498316
 31
0.0
  0
ARC
  5
2417E
  8
0
 10
4537.1934814971245942
 20
605.2971556768039818
 30
0.0
 40
0.0824200299533133
 50
278.6135839955026086
 51
356.1529236846308208
  0
LINE
  5
2417F
  8
0
 10
4537.2058255251467926
 20
605.2156652705606348
 30
0.0
 11
4530.0647156003469718
 21
605.2131827188608213
 31
0.0
  0
ARC
  5
24180
  8
0
 10
4530.0739776738737419
 20
605.2986233725674765
 30
0.0
 40
0.0859412084614658
 50
184.6514972331663103
 51
263.8130911929200124
  0
LINE
  5
24181
  8
0
 10
4529.9883195219472327
 20
605.2916539880608298
 30
0.0
 11
4529.9883286605472676
 21
607.6682225534607369
 31
0.0
  0
ARC
  5
24182
  8
0
 10
4533.7212739884653274
 20
605.1144945594435285
 30
0.0
 40
0.082590736034968
 50
98.7086293287308223
 51
176.0578882937666947
  0
LINE
  5
24183
  8
0
 10
4533.7087689502468493
 20
605.1961331146607108
 30
0.0
 11
4540.8498788821470953
 21
605.1986156662607073
 31
0.0
  0
ARC
  5
24184
  8
0
 10
4540.840610931097217
 20
605.1131692974784073
 30
0.0
 40
0.0859475238429649
 50
4.6549835224746277
 51
83.8096064398093432
  0
LINE
  5
24185
  8
0
 10
4540.9262749533472743
 20
605.1201444065608257
 30
0.0
 11
4540.9262658082470807
 21
602.7435758113498423
 31
0.0
  0
ARC
  5
24186
  8
0
 10
4540.8440314971248881
 20
602.7491056768041062
 30
0.0
 40
0.0824200299533133
 50
278.6135839955026086
 51
356.1529236846308208
  0
LINE
  5
24187
  8
0
 10
4540.8563755251470866
 20
602.6676152705606455
 30
0.0
 11
4533.7152656003472657
 21
602.6651327188607183
 31
0.0
  0
ARC
  5
24188
  8
0
 10
4533.7245276738740358
 20
602.7505733725672599
 30
0.0
 40
0.0859412084614658
 50
184.6514972331663103
 51
263.8130911929200124
  0
LINE
  5
24189
  8
0
 10
4533.6388695219466172
 20
602.7436039880607268
 30
0.0
 11
4533.6388786605466521
 21
605.1201725534607476
 31
0.0
  0
ARC
  5
2418A
  8
0
 10
4541.0223739884640963
 20
605.1144945594435285
 30
0.0
 40
0.082590736034968
 50
98.7086293287308223
 51
176.0578882937666947
  0
LINE
  5
2418B
  8
0
 10
4541.0098689502456182
 20
605.1961331146607108
 30
0.0
 11
4548.1509788821467737
 21
605.1986156662607073
 31
0.0
  0
ARC
  5
2418C
  8
0
 10
4548.1417109310978049
 20
605.1131692974784073
 30
0.0
 40
0.0859475238429649
 50
4.6549835224746277
 51
83.8096064398093432
  0
LINE
  5
2418D
  8
0
 10
4548.2273749533469527
 20
605.1201444065608257
 30
0.0
 11
4548.2273658082467591
 21
602.7435758113498423
 31
0.0
  0
ARC
  5
2418E
  8
0
 10
4548.1451314971245665
 20
602.7491056768041062
 30
0.0
 40
0.0824200299533133
 50
278.6135839955026086
 51
356.1529236846308208
  0
LINE
  5
2418F
  8
0
 10
4548.157475525146765
 20
602.6676152705606455
 30
0.0
 11
4541.0163656003469441
 21
602.6651327188607183
 31
0.0
  0
ARC
  5
24190
  8
0
 10
4541.0256276738737142
 20
602.7505733725672599
 30
0.0
 40
0.0859412084614658
 50
184.6514972331663103
 51
263.8130911929200124
  0
LINE
  5
24191
  8
0
 10
4540.9399695219472051
 20
602.7436039880607268
 30
0.0
 11
4540.93997866054724
 21
605.1201725534607476
 31
0.0
  0
ARC
  5
24192
  8
0
 10
4548.3234739884655937
 20
605.1144945594435285
 30
0.0
 40
0.082590736034968
 50
98.7086293287308223
 51
176.0578882937666947
  0
LINE
  5
24193
  8
0
 10
4548.3109689502471156
 20
605.1961331146607108
 30
0.0
 11
4555.4520788821473616
 21
605.1986156662607073
 31
0.0
  0
ARC
  5
24194
  8
0
 10
4555.4428109310965738
 20
605.1131692974784073
 30
0.0
 40
0.0859475238429649
 50
4.6549835224746277
 51
83.8096064398093432
  0
LINE
  5
24195
  8
0
 10
4555.5284749533466311
 20
605.1201444065608257
 30
0.0
 11
4555.528465808247347
 21
602.7435758113498423
 31
0.0
  0
ARC
  5
24196
  8
0
 10
4555.4462314971251544
 20
602.7491056768041062
 30
0.0
 40
0.0824200299533133
 50
278.6135839955026086
 51
356.1529236846308208
  0
LINE
  5
24197
  8
0
 10
4555.4585755251473529
 20
602.6676152705606455
 30
0.0
 11
4548.3174656003466225
 21
602.6651327188607183
 31
0.0
  0
ARC
  5
24198
  8
0
 10
4548.3267276738733926
 20
602.7505733725672599
 30
0.0
 40
0.0859412084614658
 50
184.6514972331663103
 51
263.8130911929200124
  0
LINE
  5
24199
  8
0
 10
4548.2410695219468835
 20
602.7436039880607268
 30
0.0
 11
4548.2410786605469184
 21
605.1201725534607476
 31
0.0
  0
ARC
  5
2419A
  8
0
 10
4544.6732480807413594
 20
602.5663787149884456
 30
0.0
 40
0.082590736034968
 50
98.7086293287308223
 51
176.0578882937666947
  0
LINE
  5
2419B
  8
0
 10
4544.6607430425228813
 20
602.6480172702057416
 30
0.0
 11
4551.8018529744231273
 21
602.6504998218057381
 31
0.0
  0
ARC
  5
2419C
  8
0
 10
4551.7925850233741585
 20
602.5650534530235518
 30
0.0
 40
0.0859475238429649
 50
4.6549835224746277
 51
83.8096064398093432
  0
LINE
  5
2419D
  8
0
 10
4551.8782490456233063
 20
602.5720285621058565
 30
0.0
 11
4551.8782399005231127
 21
600.1954599668947594
 31
0.0
  0
ARC
  5
2419E
  8
0
 10
4551.7960055894018296
 20
600.200989832349137
 30
0.0
 40
0.0824200299533133
 50
278.6135839955026086
 51
356.1529236846308208
  0
LINE
  5
2419F
  8
0
 10
4551.8083496174240281
 20
600.11949942610579
 30
0.0
 11
4544.6672396926232977
 21
600.1170168744057491
 31
0.0
  0
ARC
  5
241A0
  8
0
 10
4544.6765017661500679
 20
600.2024575281124044
 30
0.0
 40
0.0859412084614658
 50
184.6514972331663103
 51
263.8130911929200124
  0
LINE
  5
241A1
  8
0
 10
4544.5908436142235587
 20
600.1954881436056439
 30
0.0
 11
4544.5908527528235936
 21
602.5720567090057784
 31
0.0
  0
ARC
  5
241A2
  8
0
 10
4537.3718239884656214
 20
602.5664445594435392
 30
0.0
 40
0.082590736034968
 50
98.7086293287308223
 51
176.0578882937666947
  0
LINE
  5
241A3
  8
0
 10
4537.3593189502471432
 20
602.6480831146608352
 30
0.0
 11
4544.5004288821473892
 21
602.650565666260718
 31
0.0
  0
ARC
  5
241A4
  8
0
 10
4544.4911609310966014
 20
602.565119297478418
 30
0.0
 40
0.0859475238429649
 50
4.6549835224746277
 51
83.8096064398093432
  0
LINE
  5
241A5
  8
0
 10
4544.5768249533475682
 20
602.5720944065607227
 30
0.0
 11
4544.5768158082473747
 21
600.195525811349853
 31
0.0
  0
ARC
  5
241A6
  8
0
 10
4544.4945814971251821
 20
600.201055676804117
 30
0.0
 40
0.0824200299533133
 50
278.6135839955026086
 51
356.1529236846308208
  0
LINE
  5
241A7
  8
0
 10
4544.5069255251473805
 20
600.1195652705606562
 30
0.0
 11
4537.3658156003475597
 21
600.1170827188608428
 31
0.0
  0
ARC
  5
241A8
  8
0
 10
4537.3750776738743298
 20
600.2025233725673843
 30
0.0
 40
0.0859412084614658
 50
184.6514972331663103
 51
263.8130911929200124
  0
LINE
  5
241A9
  8
0
 10
4537.2894195219469111
 20
600.1955539880607375
 30
0.0
 11
4537.289428660546946
 21
602.5721225534606447
 31
0.0
  0
ARC
  5
241AA
  8
0
 10
4530.070723988464124
 20
602.5664445594435392
 30
0.0
 40
0.082590736034968
 50
98.7086293287308223
 51
176.0578882937666947
  0
LINE
  5
241AB
  8
0
 10
4530.0582189502456458
 20
602.6480831146608352
 30
0.0
 11
4537.1993288821468013
 21
602.650565666260718
 31
0.0
  0
ARC
  5
241AC
  8
0
 10
4537.1900609310978325
 20
602.565119297478418
 30
0.0
 40
0.0859475238429649
 50
4.6549835224746277
 51
83.8096064398093432
  0
LINE
  5
241AD
  8
0
 10
4537.2757249533469803
 20
602.5720944065607227
 30
0.0
 11
4537.2757158082476963
 21
600.195525811349853
 31
0.0
  0
ARC
  5
241AE
  8
0
 10
4537.1934814971245942
 20
600.201055676804117
 30
0.0
 40
0.0824200299533133
 50
278.6135839955026086
 51
356.1529236846308208
  0
LINE
  5
241AF
  8
0
 10
4537.2058255251467926
 20
600.1195652705606562
 30
0.0
 11
4530.0647156003469718
 21
600.1170827188608428
 31
0.0
  0
ARC
  5
241B0
  8
0
 10
4530.0739776738737419
 20
600.2025233725673843
 30
0.0
 40
0.0859412084614658
 50
184.6514972331663103
 51
263.8130911929200124
  0
LINE
  5
241B1
  8
0
 10
4529.9883195219472327
 20
600.1955539880607375
 30
0.0
 11
4529.9883286605472676
 21
602.5721225534606447
 31
0.0
  0
ARC
  5
241B2
  8
0
 10
4533.7212739884653274
 20
600.01839455944355
 30
0.0
 40
0.082590736034968
 50
98.7086293287308223
 51
176.0578882937666947
  0
LINE
  5
241B3
  8
0
 10
4533.7087689502468493
 20
600.1000331146607323
 30
0.0
 11
4540.8498788821470953
 21
600.1025156662607287
 31
0.0
  0
ARC
  5
241B4
  8
0
 10
4540.840610931097217
 20
600.0170692974785425
 30
0.0
 40
0.0859475238429649
 50
4.6549835224746277
 51
83.8096064398093432
  0
LINE
  5
241B5
  8
0
 10
4540.9262749533472743
 20
600.0240444065607335
 30
0.0
 11
4540.9262658082470807
 21
597.6474758113497501
 31
0.0
  0
ARC
  5
241B6
  8
0
 10
4540.8440314971248881
 20
597.6530056768041277
 30
0.0
 40
0.0824200299533133
 50
278.6135839955026086
 51
356.1529236846308208
  0
LINE
  5
241B7
  8
0
 10
4540.8563755251470866
 20
597.5715152705605533
 30
0.0
 11
4533.7152656003472657
 21
597.5690327188607398
 31
0.0
  0
ARC
  5
241B8
  8
0
 10
4533.7245276738740358
 20
597.654473372567395
 30
0.0
 40
0.0859412084614658
 50
184.6514972331663103
 51
263.8130911929200124
  0
LINE
  5
241B9
  8
0
 10
4533.6388695219466172
 20
597.6475039880607483
 30
0.0
 11
4533.6388786605466521
 21
600.0240725534607691
 31
0.0
  0
ARC
  5
241BA
  8
0
 10
4541.0223739884640963
 20
600.01839455944355
 30
0.0
 40
0.082590736034968
 50
98.7086293287308223
 51
176.0578882937666947
  0
LINE
  5
241BB
  8
0
 10
4541.0098689502456182
 20
600.1000331146607323
 30
0.0
 11
4548.1509788821467737
 21
600.1025156662607287
 31
0.0
  0
ARC
  5
241BC
  8
0
 10
4548.1417109310978049
 20
600.0170692974785425
 30
0.0
 40
0.0859475238429649
 50
4.6549835224746277
 51
83.8096064398093432
  0
LINE
  5
241BD
  8
0
 10
4548.2273749533469527
 20
600.0240444065607335
 30
0.0
 11
4548.2273658082467591
 21
597.6474758113497501
 31
0.0
  0
ARC
  5
241BE
  8
0
 10
4548.1451314971245665
 20
597.6530056768041277
 30
0.0
 40
0.0824200299533133
 50
278.6135839955026086
 51
356.1529236846308208
  0
LINE
  5
241BF
  8
0
 10
4548.157475525146765
 20
597.5715152705605533
 30
0.0
 11
4541.0163656003469441
 21
597.5690327188607398
 31
0.0
  0
ARC
  5
241C0
  8
0
 10
4541.0256276738737142
 20
597.654473372567395
 30
0.0
 40
0.0859412084614658
 50
184.6514972331663103
 51
263.8130911929200124
  0
LINE
  5
241C1
  8
0
 10
4540.9399695219472051
 20
597.6475039880607483
 30
0.0
 11
4540.93997866054724
 21
600.0240725534607691
 31
0.0
  0
ARC
  5
241C2
  8
0
 10
4548.3234739884655937
 20
600.01839455944355
 30
0.0
 40
0.082590736034968
 50
98.7086293287308223
 51
176.0578882937666947
  0
LINE
  5
241C3
  8
0
 10
4548.3109689502471156
 20
600.1000331146607323
 30
0.0
 11
4555.4520788821473616
 21
600.1025156662607287
 31
0.0
  0
ARC
  5
241C4
  8
0
 10
4555.4428109310965738
 20
600.0170692974785425
 30
0.0
 40
0.0859475238429649
 50
4.6549835224746277
 51
83.8096064398093432
  0
LINE
  5
241C5
  8
0
 10
4555.5284749533466311
 20
600.0240444065607335
 30
0.0
 11
4555.528465808247347
 21
597.6474758113497501
 31
0.0
  0
ARC
  5
241C6
  8
0
 10
4555.4462314971251544
 20
597.6530056768041277
 30
0.0
 40
0.0824200299533133
 50
278.6135839955026086
 51
356.1529236846308208
  0
LINE
  5
241C7
  8
0
 10
4555.4585755251473529
 20
597.5715152705605533
 30
0.0
 11
4548.3174656003466225
 21
597.5690327188607398
 31
0.0
  0
ARC
  5
241C8
  8
0
 10
4548.3267276738733926
 20
597.654473372567395
 30
0.0
 40
0.0859412084614658
 50
184.6514972331663103
 51
263.8130911929200124
  0
LINE
  5
241C9
  8
0
 10
4548.2410695219468835
 20
597.6475039880607483
 30
0.0
 11
4548.2410786605469184
 21
600.0240725534607691
 31
0.0
  0
ARC
  5
241CA
  8
0
 10
4544.6729239884652998
 20
597.470344559443447
 30
0.0
 40
0.082590736034968
 50
98.7086293287308223
 51
176.0578882937666947
  0
LINE
  5
241CB
  8
0
 10
4544.6604189502459121
 20
597.551983114660743
 30
0.0
 11
4551.8015288821470676
 21
597.5544656662607395
 31
0.0
  0
ARC
  5
241CC
  8
0
 10
4551.7922609310971893
 20
597.4690192974784395
 30
0.0
 40
0.0859475238429649
 50
4.6549835224746277
 51
83.8096064398093432
  0
LINE
  5
241CD
  8
0
 10
4551.8779249533472466
 20
597.4759944065607442
 30
0.0
 11
4551.8779158082479626
 21
595.0994258113498745
 31
0.0
  0
ARC
  5
241CE
  8
0
 10
4551.795681497123951
 20
595.104955676803911
 30
0.0
 40
0.0824200299533133
 50
278.6135839955026086
 51
356.1529236846308208
  0
LINE
  5
241CF
  8
0
 10
4551.8080255251461494
 20
595.023465270560564
 30
0.0
 11
4544.6669156003472381
 21
595.0209827188607505
 31
0.0
  0
ARC
  5
241D0
  8
0
 10
4544.6761776738730987
 20
595.1064233725674057
 30
0.0
 40
0.0859412084614658
 50
184.6514972331663103
 51
263.8130911929200124
  0
LINE
  5
241D1
  8
0
 10
4544.5905195219465895
 20
595.0994539880606453
 30
0.0
 11
4544.5905286605466245
 21
597.4760225534606661
 31
0.0
  0
ARC
  5
241D2
  8
0
 10
4537.3718239884656214
 20
597.470344559443447
 30
0.0
 40
0.082590736034968
 50
98.7086293287308223
 51
176.0578882937666947
  0
LINE
  5
241D3
  8
0
 10
4537.3593189502471432
 20
597.551983114660743
 30
0.0
 11
4544.5004288821473892
 21
597.5544656662607395
 31
0.0
  0
ARC
  5
241D4
  8
0
 10
4544.4911609310966014
 20
597.4690192974784395
 30
0.0
 40
0.0859475238429649
 50
4.6549835224746277
 51
83.8096064398093432
  0
LINE
  5
241D5
  8
0
 10
4544.5768249533475682
 20
597.4759944065607442
 30
0.0
 11
4544.5768158082473747
 21
595.0994258113498745
 31
0.0
  0
ARC
  5
241D6
  8
0
 10
4544.4945814971251821
 20
595.104955676803911
 30
0.0
 40
0.0824200299533133
 50
278.6135839955026086
 51
356.1529236846308208
  0
LINE
  5
241D7
  8
0
 10
4544.5069255251473805
 20
595.023465270560564
 30
0.0
 11
4537.3658156003475597
 21
595.0209827188607505
 31
0.0
  0
ARC
  5
241D8
  8
0
 10
4537.3750776738743298
 20
595.1064233725674057
 30
0.0
 40
0.0859412084614658
 50
184.6514972331663103
 51
263.8130911929200124
  0
LINE
  5
241D9
  8
0
 10
4537.2894195219469111
 20
595.0994539880606453
 30
0.0
 11
4537.289428660546946
 21
597.4760225534606661
 31
0.0
  0
ARC
  5
241DA
  8
0
 10
4530.070723988464124
 20
597.470344559443447
 30
0.0
 40
0.082590736034968
 50
98.7086293287308223
 51
176.0578882937666947
  0
LINE
  5
241DB
  8
0
 10
4530.0582189502456458
 20
597.551983114660743
 30
0.0
 11
4537.1993288821468013
 21
597.5544656662607395
 31
0.0
  0
ARC
  5
241DC
  8
0
 10
4537.1900609310978325
 20
597.4690192974784395
 30
0.0
 40
0.0859475238429649
 50
4.6549835224746277
 51
83.8096064398093432
  0
LINE
  5
241DD
  8
0
 10
4537.2757249533469803
 20
597.4759944065607442
 30
0.0
 11
4537.2757158082476963
 21
595.0994258113498745
 31
0.0
  0
ARC
  5
241DE
  8
0
 10
4537.1934814971245942
 20
595.104955676803911
 30
0.0
 40
0.0824200299533133
 50
278.6135839955026086
 51
356.1529236846308208
  0
LINE
  5
241DF
  8
0
 10
4537.2058255251467926
 20
595.023465270560564
 30
0.0
 11
4530.0647156003469718
 21
595.0209827188607505
 31
0.0
  0
ARC
  5
241E0
  8
0
 10
4530.0739776738737419
 20
595.1064233725674057
 30
0.0
 40
0.0859412084614658
 50
184.6514972331663103
 51
263.8130911929200124
  0
LINE
  5
241E1
  8
0
 10
4529.9883195219472327
 20
595.0994539880606453
 30
0.0
 11
4529.9883286605472676
 21
597.4760225534606661
 31
0.0
  0
ARC
  5
241E2
  8
0
 10
4560.2284105213548173
 20
615.0014103669736869
 30
0.0
 40
1.6165649126030699
 50
166.0368440684484028
 51
178.7003171073774013
  0
LINE
  5
241E3
  8
0
 10
4558.612261494530685
 20
615.0380769697021606
 30
0.0
 11
4558.612261493846745
 21
613.2100741925615921
 31
0.0
  0
ARC
  5
241E4
  8
0
 10
4560.2300553004415633
 20
613.2469581117867392
 30
0.0
 40
1.618214208364283
 50
181.3060544878958069
 51
193.9566661938904133
  0
ARC
  5
241E5
  8
0
 10
4555.6223371548658179
 20
615.311846091792745
 30
0.0
 40
0.0796300539901669
 50
89.0823246575048557
 51
183.0096542621313063
  0
LINE
  5
241E6
  8
0
 10
4555.6236124916104018
 20
615.3914659323769456
 30
0.0
 11
4558.6596133340472079
 21
615.3914840802020763
 31
0.0
  0
LINE
  5
241E7
  8
0
 10
4558.6596133346620263
 20
612.8566643041616544
 30
0.0
 11
4555.6237607352941268
 21
612.8565303267200761
 31
0.0
  0
ARC
  5
241E8
  8
0
 10
4555.6225212761883085
 20
612.9364001771293715
 30
0.0
 40
0.0798794670943839
 50
177.0077559573169026
 51
270.8890723521359973
  0
LINE
  5
241E9
  8
0
 10
4555.5427507159456582
 20
612.9405699471616344
 30
0.0
 11
4555.5428169344468188
 21
615.3076651776615336
 31
0.0
  0
ARC
  5
241EA
  8
0
 10
4555.6223371548658179
 20
610.2157460917927665
 30
0.0
 40
0.0796300539901669
 50
89.0823246575048557
 51
183.0096542621313063
  0
LINE
  5
241EB
  8
0
 10
4555.6236124916104018
 20
610.2953659323770808
 30
0.0
 11
4558.6596133340472079
 21
610.2953840802022114
 31
0.0
  0
LINE
  5
241EC
  8
0
 10
4558.6596133346620263
 20
607.7605643041619032
 30
0.0
 11
4555.6237607352941268
 21
607.7604303267204386
 31
0.0
  0
ARC
  5
241ED
  8
0
 10
4555.6225212761883085
 20
607.840300177129734
 30
0.0
 40
0.0798794670943839
 50
177.0077559573169026
 51
270.8890723521359973
  0
LINE
  5
241EE
  8
0
 10
4555.5427507159456582
 20
607.8444699471616559
 30
0.0
 11
4555.5428169344468188
 21
610.2115651776616687
 31
0.0
  0
ARC
  5
241EF
  8
0
 10
4560.2283986281390753
 20
604.8092103660826524
 30
0.0
 40
1.6165649126030699
 50
166.0368440684484028
 51
178.7003171073774013
  0
LINE
  5
241F0
  8
0
 10
4558.612249601314943
 20
604.8458769688112397
 30
0.0
 11
4558.6122496006300935
 21
603.0178741916705576
 31
0.0
  0
ARC
  5
241F1
  8
0
 10
4560.2300434072249118
 20
603.054758110895591
 30
0.0
 40
1.618214208364283
 50
181.3060544878958069
 51
193.9566661938904133
  0
ARC
  5
241F2
  8
0
 10
4555.6223252616491664
 20
605.1196460909017105
 30
0.0
 40
0.0796300539901669
 50
89.0823246575048557
 51
183.0096542621313063
  0
LINE
  5
241F3
  8
0
 10
4555.6236005983919313
 20
605.1992659314857974
 30
0.0
 11
4558.6596014408296469
 21
605.1992840793110418
 31
0.0
  0
LINE
  5
241F4
  8
0
 10
4558.6596014414453748
 20
602.6644643032707336
 30
0.0
 11
4555.6237488420765658
 21
602.6643303258291553
 31
0.0
  0
ARC
  5
241F5
  8
0
 10
4555.6225093829707475
 20
602.7442001762384507
 30
0.0
 40
0.0798794670943839
 50
177.0077559573169026
 51
270.8890723521359973
  0
LINE
  5
241F6
  8
0
 10
4555.5427388227299161
 20
602.7483699462705999
 30
0.0
 11
4555.5428050412301673
 21
605.1154651767704991
 31
0.0
  0
ARC
  5
241F7
  8
0
 10
4560.2284108466319594
 20
599.7131103245103532
 30
0.0
 40
1.616565238696688
 50
166.0368453636451136
 51
178.7003164681011071
  0
LINE
  5
241F8
  8
0
 10
4558.6122614942059954
 20
599.7497769526671618
 30
0.0
 11
4558.6122614935220554
 21
597.9217741755265934
 31
0.0
  0
ARC
  5
241F9
  8
0
 10
4560.2300549360306832
 20
597.958658066297744
 30
0.0
 40
1.6182138437253071
 50
181.3060537745172098
 51
193.9566677405130974
  0
ARC
  5
241FA
  8
0
 10
4555.6223371851747288
 20
600.0235460645316152
 30
0.0
 40
0.0796300831407492
 50
89.0823468040049988
 51
183.0096337336011914
  0
LINE
  5
241FB
  8
0
 10
4555.6236124916104018
 20
600.1031659347556797
 30
0.0
 11
4558.6596133340472079
 21
600.1031840809606592
 31
0.0
  0
LINE
  5
241FC
  8
0
 10
4558.6596133346620263
 20
597.5683643042274298
 30
0.0
 11
4555.6237631823241827
 21
597.5682302880173893
 31
0.0
  0
ARC
  5
241FD
  8
0
 10
4555.6225207712486736
 20
597.6480987515307106
 30
0.0
 40
0.0798781262253188
 50
177.0066720221026912
 51
270.8912049506047879
  0
LINE
  5
241FE
  8
0
 10
4555.5427516289455525
 20
597.6522699606606466
 30
0.0
 11
4555.5428169341466855
 21
600.0193651773612373
 31
0.0
  0
ARC
  5
241FF
  8
0
 10
4551.9740239884640687
 20
617.8547445594434748
 30
0.0
 40
0.082590736034968
 50
98.7086293287308223
 51
176.0578882937666947
  0
LINE
  5
24200
  8
0
 10
4551.9615189502474095
 20
617.9363831146606572
 30
0.0
 11
4558.6596133316734267
 21
617.9387116553332362
 31
0.0
  0
LINE
  5
24201
  8
0
 10
4558.6596133340472079
 20
615.4077090011199971
 30
0.0
 11
4551.9680156003469165
 21
615.4053827188606647
 31
0.0
  0
ARC
  5
24202
  8
0
 10
4551.9772776738736866
 20
615.4908233725674336
 30
0.0
 40
0.0859412084614658
 50
184.6514972331663103
 51
263.8130911929200124
  0
LINE
  5
24203
  8
0
 10
4551.8916195219471774
 20
615.4838539880606731
 30
0.0
 11
4551.8916286605472123
 21
617.860422553460694
 31
0.0
  0
ARC
  5
24204
  8
0
 10
4560.1258348080064025
 20
615.7774933828668509
 30
0.0
 40
1.4985765344588109
 50
180.7402684163834863
 51
191.0635674596516083
  0
LINE
  5
24205
  8
0
 10
4558.6273833501463741
 20
615.7581321310638032
 30
0.0
 11
4558.6273942839161464
 21
617.5861386116140466
 31
0.0
  0
ARC
  5
24206
  8
0
 10
4560.1555165985182612
 20
617.5638075414096875
 30
0.0
 40
1.5282854723783981
 50
169.0872382838994099
 51
179.1627731654062075
  0
ARC
  5
24207
  8
0
 10
4551.9740239884640687
 20
612.7586445594434963
 30
0.0
 40
0.082590736034968
 50
98.7086293287308223
 51
176.0578882937666947
  0
LINE
  5
24208
  8
0
 10
4551.9615189502474095
 20
612.8402831146606786
 30
0.0
 11
4558.65961333454743
 21
612.8426116553342808
 31
0.0
  0
LINE
  5
24209
  8
0
 10
4558.6596133345274211
 20
610.3116090011200185
 30
0.0
 11
4551.9680156003469165
 21
610.3092827188607998
 31
0.0
  0
ARC
  5
2420A
  8
0
 10
4551.9772776738736866
 20
610.394723372567455
 30
0.0
 40
0.0859412084614658
 50
184.6514972331663103
 51
263.8130911929200124
  0
LINE
  5
2420B
  8
0
 10
4551.8916195219471774
 20
610.3877539880608083
 30
0.0
 11
4551.8916286605472123
 21
612.7643225534608291
 31
0.0
  0
ARC
  5
2420C
  8
0
 10
4560.1258348080064025
 20
610.681393382866986
 30
0.0
 40
1.4985765344588109
 50
180.7402684163834863
 51
191.0635674596516083
  0
LINE
  5
2420D
  8
0
 10
4558.6273833501463741
 20
610.6620321310639383
 30
0.0
 11
4558.6273942839161464
 21
612.490038611614068
 31
0.0
  0
ARC
  5
2420E
  8
0
 10
4560.1555165985182612
 20
612.4677075414097089
 30
0.0
 40
1.528285472378337
 50
169.0872382838994099
 51
179.1627731654062075
  0
ARC
  5
2420F
  8
0
 10
4551.9740239884640687
 20
607.6625445594435178
 30
0.0
 40
0.082590736034968
 50
98.7086293287308223
 51
176.0578882937666947
  0
LINE
  5
24210
  8
0
 10
4551.9615189502474095
 20
607.7441831146607001
 30
0.0
 11
4558.659613334545611
 21
607.7465116553343023
 31
0.0
  0
LINE
  5
24211
  8
0
 10
4558.6596040284803166
 20
605.2155089978848537
 30
0.0
 11
4551.9680156003469165
 21
605.2131827188608213
 31
0.0
  0
ARC
  5
24212
  8
0
 10
4551.9772776738736866
 20
605.2986233725674765
 30
0.0
 40
0.0859412084614658
 50
184.6514972331663103
 51
263.8130911929200124
  0
LINE
  5
24213
  8
0
 10
4551.8916195219471774
 20
605.2916539880608298
 30
0.0
 11
4551.8916286605472123
 21
607.6682225534607369
 31
0.0
  0
ARC
  5
24214
  8
0
 10
4560.1258348080064025
 20
605.5852933828668938
 30
0.0
 40
1.4985765344588109
 50
180.7402684163834863
 51
191.0635674596516083
  0
LINE
  5
24215
  8
0
 10
4558.6273833501463741
 20
605.5659321310638461
 30
0.0
 11
4558.6273942839161464
 21
607.3939386116140895
 31
0.0
  0
ARC
  5
24216
  8
0
 10
4560.1555165985182612
 20
607.3716075414097304
 30
0.0
 40
1.5282854723784089
 50
169.0872382838994099
 51
179.1627731654062075
  0
ARC
  5
24217
  8
0
 10
4551.9740239884640687
 20
602.5664445594435392
 30
0.0
 40
0.082590736034968
 50
98.7086293287308223
 51
176.0578882937666947
  0
LINE
  5
24218
  8
0
 10
4551.9615189502474095
 20
602.6480831146608352
 30
0.0
 11
4558.6596036861647008
 21
602.6504116519799936
 31
0.0
  0
LINE
  5
24219
  8
0
 10
4558.6596133340472079
 20
600.1194090011199478
 30
0.0
 11
4551.9680156003469165
 21
600.1170827188608428
 31
0.0
  0
ARC
  5
2421A
  8
0
 10
4551.9772776738736866
 20
600.2025233725673843
 30
0.0
 40
0.0859412084614658
 50
184.6514972331663103
 51
263.8130911929200124
  0
LINE
  5
2421B
  8
0
 10
4551.8916195219471774
 20
600.1955539880607375
 30
0.0
 11
4551.8916286605472123
 21
602.5721225534606447
 31
0.0
  0
ARC
  5
2421C
  8
0
 10
4560.1258348080064025
 20
600.4891933828669153
 30
0.0
 40
1.4985765344588109
 50
180.7402684163834863
 51
191.0635674596516083
  0
LINE
  5
2421D
  8
0
 10
4558.6273833501463741
 20
600.4698321310638676
 30
0.0
 11
4558.6273942839161464
 21
602.297838611614111
 31
0.0
  0
ARC
  5
2421E
  8
0
 10
4560.1555165985182612
 20
602.2755075414096382
 30
0.0
 40
1.5282854723786361
 50
169.0872382838994099
 51
179.1627731653996989
  0
ARC
  5
2421F
  8
0
 10
4551.9740239884640687
 20
597.470344559443447
 30
0.0
 40
0.082590736034968
 50
98.7086293287308223
 51
176.0578882937666947
  0
LINE
  5
24220
  8
0
 10
4551.9615189502474095
 20
597.551983114660743
 30
0.0
 11
4558.6596133358107181
 21
597.5543116553345726
 31
0.0
  0
LINE
  5
24221
  8
0
 10
4558.6596135610634519
 20
595.0233090011987542
 30
0.0
 11
4551.9680156003469165
 21
595.0209827188607505
 31
0.0
  0
ARC
  5
24222
  8
0
 10
4551.9772776738736866
 20
595.1064233725674057
 30
0.0
 40
0.0859412084614658
 50
184.6514972331663103
 51
263.8130911929200124
  0
LINE
  5
24223
  8
0
 10
4551.8916195219471774
 20
595.0994539880606453
 30
0.0
 11
4551.8916286605472123
 21
597.4760225534606661
 31
0.0
  0
ARC
  5
24224
  8
0
 10
4560.1258348080064025
 20
595.3930933828669367
 30
0.0
 40
1.4985765344588109
 50
180.7402684163834863
 51
191.0635674596516083
  0
LINE
  5
24225
  8
0
 10
4558.6273833501463741
 20
595.3737321310637753
 30
0.0
 11
4558.6273942839161464
 21
597.2017386116140187
 31
0.0
  0
ARC
  5
24226
  8
0
 10
4560.1555165985182612
 20
597.179407541409546
 30
0.0
 40
1.5282854723784429
 50
169.0872382838994099
 51
179.1627731654062075
  0
LINE
  5
24227
  8
0
 10
4558.659613331118635
 20
617.9527643041607234
 30
0.0
 11
4558.6596133340472079
 21
617.8783130641344314
 31
0.0
  0
LINE
  5
24228
  8
0
 10
4558.6596133340472079
 20
617.8783130641344314
 30
0.0
 11
4558.6548677689470424
 21
617.8531336124607378
 31
0.0
  0
LINE
  5
24229
  8
0
 10
4558.6596133340472079
 20
615.3914840802020763
 30
0.0
 11
4558.6596133340472079
 21
615.4660561882607226
 31
0.0
  0
LINE
  5
2422A
  8
0
 10
4558.6596133340472079
 20
615.4660561882607226
 30
0.0
 11
4558.6551094920969263
 21
615.4899196101106327
 31
0.0
  0
LINE
  5
2422B
  8
0
 10
4558.6596133346638453
 20
612.8566643041533553
 30
0.0
 11
4558.6596133340472079
 21
612.7822129045607653
 31
0.0
  0
LINE
  5
2422C
  8
0
 10
4558.6596133340472079
 20
612.7822129045607653
 30
0.0
 11
4558.6548677689470424
 21
612.7570336124606456
 31
0.0
  0
LINE
  5
2422D
  8
0
 10
4558.6596133346602073
 20
610.2953840801014849
 30
0.0
 11
4558.6596133340472079
 21
610.3699561882607441
 31
0.0
  0
LINE
  5
2422E
  8
0
 10
4558.6596133340472079
 20
610.3699561882607441
 30
0.0
 11
4558.6551094920969263
 21
610.3938196101097446
 31
0.0
  0
LINE
  5
2422F
  8
0
 10
4558.6596133346620263
 20
607.7605643042229531
 30
0.0
 11
4558.6596133340472079
 21
607.6861129045607868
 31
0.0
  0
LINE
  5
24230
  8
0
 10
4558.6596133340472079
 20
607.6861129045607868
 30
0.0
 11
4558.6548677689470424
 21
607.6609336124606671
 31
0.0
  0
LINE
  5
24231
  8
0
 10
4558.6596014408296469
 20
605.1992840793110418
 30
0.0
 11
4558.6596133340472079
 21
605.2738561882606518
 31
0.0
  0
LINE
  5
24232
  8
0
 10
4558.6596133340472079
 20
605.2738561882606518
 30
0.0
 11
4558.6551094920969263
 21
605.2977196101098798
 31
0.0
  0
LINE
  5
24233
  8
0
 10
4558.6596014414453748
 20
602.6644643032706199
 30
0.0
 11
4558.6596133340472079
 21
602.5900129045608082
 31
0.0
  0
LINE
  5
24234
  8
0
 10
4558.6596133340472079
 20
602.5900129045608082
 30
0.0
 11
4558.6548677689470424
 21
602.5648336124608022
 31
0.0
  0
LINE
  5
24235
  8
0
 10
4558.6596133340472079
 20
600.1031840809606592
 30
0.0
 11
4558.6596133340472079
 21
600.1777561882606733
 31
0.0
  0
LINE
  5
24236
  8
0
 10
4558.6596133340472079
 20
600.1777561882606733
 30
0.0
 11
4558.6551094914902933
 21
600.2016196132118466
 31
0.0
  0
LINE
  5
24237
  8
0
 10
4558.6596133346620263
 20
597.5683643042274298
 30
0.0
 11
4558.6596133407465459
 21
597.4939129393605981
 31
0.0
  0
LINE
  5
24238
  8
0
 10
4558.6596133407465459
 20
597.4939129393605981
 30
0.0
 11
4558.6548677689470424
 21
597.4687336124608237
 31
0.0
  0
LINE
  5
24239
  8
0
 10
4558.6546416911705819
 20
594.9343460405681299
 30
0.0
 11
4558.6596135668442002
 21
594.9586539188976531
 31
0.0
  0
LINE
  5
2423A
  8
0
 10
4558.6596135668442002
 20
594.9586539188976531
 30
0.0
 11
4558.6596135558465903
 21
595.0816550306607269
 31
0.0
  0
LINE
  5
2423B
  8
0
 10
4558.6596135558465903
 20
595.0816550306607269
 30
0.0
 11
4558.6551094920969263
 21
595.105519610109468
 31
0.0
  0
ARC
  5
2423C
  8
0
 10
4560.0719207612291939
 20
594.6404875470307161
 30
0.0
 40
1.447422805074277
 50
168.2862739863302863
 51
179.4780272873441902
  0
LINE
  5
2423D
  8
0
 10
4558.6245580199465621
 20
594.6536735925607218
 30
0.0
 11
4558.6245580199465621
 21
592.8256735925607472
 31
0.0
  0
ARC
  5
2423E
  8
0
 10
4560.2084872978657586
 20
592.8515789203466966
 30
0.0
 40
1.584141105917636
 50
180.9369948830079124
 51
193.6039619736496036
  0
LINE
  5
2423F
  8
0
 10
4558.4902538164460566
 20
595.0072719037607385
 30
0.0
 11
4501.4726906588457496
 21
595.0072719037607385
 31
0.0
  0
ARC
  5
24240
  8
0
 10
4558.4845929990051445
 20
593.4360437887244188
 30
0.0
 40
1.5712383123939999
 50
86.0320775262706547
 51
89.7935757757743431
  0
LINE
  5
24241
  8
0
 10
4558.4604023525471348
 20
592.5399304836607826
 30
0.0
 11
4501.5025393999849257
 21
592.5399304836607826
 31
0.0
  0
ARC
  5
24242
  8
0
 10
4558.0456432285236588
 20
546.729208960515848
 30
0.0
 40
45.8125990487561694
 50
89.2369514716125565
 51
89.481272129122658
  0
ARC
  5
24243
  8
0
 10
4530.0707816432941399
 20
592.3741884989357231
 30
0.0
 40
0.0826573140842531
 50
98.7882941876517862
 51
176.0416938207403064
  0
LINE
  5
24244
  8
0
 10
4530.058152933745987
 20
592.4558753844607963
 30
0.0
 11
4537.2058912927468555
 21
592.4558739282606439
 31
0.0
  0
ARC
  5
24245
  8
0
 10
4537.1932752914381126
 20
592.3742067948385284
 30
0.0
 40
0.0826358528148742
 50
3.9639699068362289
 51
81.218321251867124
  0
LINE
  5
24246
  8
0
 10
4537.2757134560670238
 20
592.379919340943502
 30
0.0
 11
4537.2757229707885926
 21
590.0033540067687454
 31
0.0
  0
ARC
  5
24247
  8
0
 10
4537.1932449907872069
 20
590.009076283241825
 30
0.0
 40
0.0826762458821125
 50
278.7987771596701805
 51
356.0312104063303877
  0
LINE
  5
24248
  8
0
 10
4537.205891541647361
 20
589.9273730006607366
 30
0.0
 11
4530.0581531856469155
 21
589.9276241128607126
 31
0.0
  0
ARC
  5
24249
  8
0
 10
4530.0702233391639311
 20
590.0088072910378969
 30
0.0
 40
0.0820755568051146
 50
183.8293813992409014
 51
261.5433263201658178
  0
LINE
  5
2424A
  8
0
 10
4529.9883310282111779
 20
590.0033258284885278
 30
0.0
 11
4529.9883215043037126
 21
592.3798943774260124
 31
0.0
  0
ARC
  5
2424B
  8
0
 10
4537.3718816432938183
 20
592.3741884989357231
 30
0.0
 40
0.0826573140842531
 50
98.7882941876517862
 51
176.0416938207403064
  0
LINE
  5
2424C
  8
0
 10
4537.3592529337456654
 20
592.4558753844607963
 30
0.0
 11
4544.5069912927474434
 21
592.4558739282606439
 31
0.0
  0
ARC
  5
2424D
  8
0
 10
4544.494375291437791
 20
592.3742067948385284
 30
0.0
 40
0.0826358528148742
 50
3.9639699068362289
 51
81.218321251867124
  0
LINE
  5
2424E
  8
0
 10
4544.5768134560667022
 20
592.379919340943502
 30
0.0
 11
4544.5768229707891805
 21
590.0033540067686317
 31
0.0
  0
ARC
  5
2424F
  8
0
 10
4544.4943449907859758
 20
590.009076283241825
 30
0.0
 40
0.0826762458821125
 50
278.7987771596701805
 51
356.0312104063303877
  0
LINE
  5
24250
  8
0
 10
4544.5069915416470394
 20
589.9273730006607366
 30
0.0
 11
4537.3592531856465939
 21
589.9276241128607126
 31
0.0
  0
ARC
  5
24251
  8
0
 10
4537.3713233391636095
 20
590.0088072910378969
 30
0.0
 40
0.0820755568051146
 50
183.8293813992409014
 51
261.5433263201658178
  0
LINE
  5
24252
  8
0
 10
4537.2894310282099468
 20
590.0033258284885278
 30
0.0
 11
4537.2894215043043005
 21
592.3798943774260124
 31
0.0
  0
ARC
  5
24253
  8
0
 10
4544.6729816432944062
 20
592.3741884989357231
 30
0.0
 40
0.0826573140842531
 50
98.7882941876517862
 51
176.0416938207403064
  0
LINE
  5
24254
  8
0
 10
4544.6603529337471628
 20
592.4558753844607963
 30
0.0
 11
4551.8080912927471218
 21
592.4558739282606439
 31
0.0
  0
ARC
  5
24255
  8
0
 10
4551.7954752914383789
 20
592.3742067948385284
 30
0.0
 40
0.0826358528148742
 50
3.9639699068362289
 51
81.218321251867124
  0
LINE
  5
24256
  8
0
 10
4551.8779134560672901
 20
592.379919340943502
 30
0.0
 11
4551.8779229707879495
 21
590.0033540067686317
 31
0.0
  0
ARC
  5
24257
  8
0
 10
4551.7954449907856542
 20
590.009076283241825
 30
0.0
 40
0.0826762458821125
 50
278.7987771596701805
 51
356.0312104063303877
  0
LINE
  5
24258
  8
0
 10
4551.8080915416467178
 20
589.9273730006607366
 30
0.0
 11
4544.6603531856462723
 21
589.9276241128607126
 31
0.0
  0
ARC
  5
24259
  8
0
 10
4544.6724233391632879
 20
590.0088072910378969
 30
0.0
 40
0.0820755568051146
 50
183.8293813992409014
 51
261.5433263201658178
  0
LINE
  5
2425A
  8
0
 10
4544.5905310282114442
 20
590.0033258284885278
 30
0.0
 11
4544.5905215043039789
 21
592.3798943774260124
 31
0.0
  0
ARC
  5
2425B
  8
0
 10
4548.3235316432937907
 20
589.8261384989356202
 30
0.0
 40
0.0826573140842531
 50
98.7882941876517862
 51
176.0416938207403064
  0
LINE
  5
2425C
  8
0
 10
4548.3109029337483662
 20
589.9078253844606934
 30
0.0
 11
4555.4586412927474157
 21
589.9078239282607683
 31
0.0
  0
ARC
  5
2425D
  8
0
 10
4555.4460252914377634
 20
589.8261567948385391
 30
0.0
 40
0.0826358528148742
 50
3.9639699068362289
 51
81.218321251867124
  0
LINE
  5
2425E
  8
0
 10
4555.5284634560666746
 20
589.8318693409436264
 30
0.0
 11
4555.5284729707891529
 21
587.4553040067686425
 31
0.0
  0
ARC
  5
2425F
  8
0
 10
4555.4459949907868577
 20
587.461026283241722
 30
0.0
 40
0.0826762458821125
 50
278.7987771596701805
 51
356.0312104063303877
  0
LINE
  5
24260
  8
0
 10
4555.4586415416470118
 20
587.3793230006607473
 30
0.0
 11
4548.3109031856465663
 21
587.3795741128607233
 31
0.0
  0
ARC
  5
24261
  8
0
 10
4548.3229733391635818
 20
587.4607572910377939
 30
0.0
 40
0.0820755568051146
 50
183.8293813992409014
 51
261.5433263201658178
  0
LINE
  5
24262
  8
0
 10
4548.2410810282108287
 20
587.4552758284884248
 30
0.0
 11
4548.2410715043042728
 21
589.8318443774260231
 31
0.0
  0
ARC
  5
24263
  8
0
 10
4541.0224316432941123
 20
589.8261384989356202
 30
0.0
 40
0.0826573140842531
 50
98.7882941876517862
 51
176.0416938207403064
  0
LINE
  5
24264
  8
0
 10
4541.0098029337459593
 20
589.9078253844606934
 30
0.0
 11
4548.1575412927468278
 21
589.9078239282607683
 31
0.0
  0
ARC
  5
24265
  8
0
 10
4548.1449252914371755
 20
589.8261567948385391
 30
0.0
 40
0.0826358528148742
 50
3.9639699068362289
 51
81.218321251867124
  0
LINE
  5
24266
  8
0
 10
4548.2273634560660867
 20
589.8318693409436264
 30
0.0
 11
4548.227372970790384
 21
587.4553040067686425
 31
0.0
  0
ARC
  5
24267
  8
0
 10
4548.1448949907871793
 20
587.461026283241722
 30
0.0
 40
0.0826762458821125
 50
278.7987771596701805
 51
356.0312104063303877
  0
LINE
  5
24268
  8
0
 10
4548.1575415416473334
 20
587.3793230006607473
 30
0.0
 11
4541.0098031856468879
 21
587.3795741128607233
 31
0.0
  0
ARC
  5
24269
  8
0
 10
4541.0218733391639034
 20
587.4607572910377939
 30
0.0
 40
0.0820755568051146
 50
183.8293813992409014
 51
261.5433263201658178
  0
LINE
  5
2426A
  8
0
 10
4540.9399810282111503
 20
587.4552758284884248
 30
0.0
 11
4540.9399715043036849
 21
589.8318443774260231
 31
0.0
  0
ARC
  5
2426B
  8
0
 10
4533.7213316432944339
 20
589.8261384989356202
 30
0.0
 40
0.0826573140842531
 50
98.7882941876517862
 51
176.0416938207403064
  0
LINE
  5
2426C
  8
0
 10
4533.7087029337471904
 20
589.9078253844606934
 30
0.0
 11
4540.8564412927471494
 21
589.9078239282607683
 31
0.0
  0
ARC
  5
2426D
  8
0
 10
4540.8438252914384066
 20
589.8261567948385391
 30
0.0
 40
0.0826358528148742
 50
3.9639699068362289
 51
81.218321251867124
  0
LINE
  5
2426E
  8
0
 10
4540.9262634560673177
 20
589.8318693409436264
 30
0.0
 11
4540.9262729707879771
 21
587.4553040067686425
 31
0.0
  0
ARC
  5
2426F
  8
0
 10
4540.8437949907856819
 20
587.461026283241722
 30
0.0
 40
0.0826762458821125
 50
278.7987771596701805
 51
356.0312104063303877
  0
LINE
  5
24270
  8
0
 10
4540.8564415416467455
 20
587.3793230006607473
 30
0.0
 11
4533.7087031856463
 21
587.3795741128607233
 31
0.0
  0
ARC
  5
24271
  8
0
 10
4533.720773339164225
 20
587.4607572910377939
 30
0.0
 40
0.0820755568051146
 50
183.8293813992409014
 51
261.5433263201658178
  0
LINE
  5
24272
  8
0
 10
4533.6388810282105624
 20
587.4552758284884248
 30
0.0
 11
4533.6388715043040065
 21
589.8318443774260231
 31
0.0
  0
ARC
  5
24273
  8
0
 10
4530.0707816432941399
 20
587.2780884989356309
 30
0.0
 40
0.0826573140842531
 50
98.7882941876517862
 51
176.0416938207403064
  0
LINE
  5
24274
  8
0
 10
4530.058152933745987
 20
587.3597753844607041
 30
0.0
 11
4537.2058912927468555
 21
587.3597739282606653
 31
0.0
  0
ARC
  5
24275
  8
0
 10
4537.1932752914381126
 20
587.2781067948385498
 30
0.0
 40
0.0826358528148742
 50
3.9639699068362289
 51
81.218321251867124
  0
LINE
  5
24276
  8
0
 10
4537.2757134560670238
 20
587.2838193409434098
 30
0.0
 11
4537.2757229707885926
 21
584.9072540067686532
 31
0.0
  0
ARC
  5
24277
  8
0
 10
4537.1932449907872069
 20
584.9129762832417327
 30
0.0
 40
0.0826762458821125
 50
278.7987771596701805
 51
356.0312104063303877
  0
LINE
  5
24278
  8
0
 10
4537.205891541647361
 20
584.831273000660758
 30
0.0
 11
4530.0581531856469155
 21
584.831524112860734
 31
0.0
  0
ARC
  5
24279
  8
0
 10
4530.0702233391639311
 20
584.9127072910379184
 30
0.0
 40
0.0820755568051146
 50
183.8293813992409014
 51
261.5433263201658178
  0
LINE
  5
2427A
  8
0
 10
4529.9883310282111779
 20
584.9072258284884356
 30
0.0
 11
4529.9883215043037126
 21
587.2837943774260339
 31
0.0
  0
ARC
  5
2427B
  8
0
 10
4537.3718816432938183
 20
587.2780884989356309
 30
0.0
 40
0.0826573140842531
 50
98.7882941876517862
 51
176.0416938207403064
  0
LINE
  5
2427C
  8
0
 10
4537.3592529337456654
 20
587.3597753844607041
 30
0.0
 11
4544.5069912927474434
 21
587.3597739282606653
 31
0.0
  0
ARC
  5
2427D
  8
0
 10
4544.494375291437791
 20
587.2781067948385498
 30
0.0
 40
0.0826358528148742
 50
3.9639699068362289
 51
81.218321251867124
  0
LINE
  5
2427E
  8
0
 10
4544.5768134560667022
 20
587.2838193409434098
 30
0.0
 11
4544.5768229707891805
 21
584.9072540067686532
 31
0.0
  0
ARC
  5
2427F
  8
0
 10
4544.4943449907859758
 20
584.9129762832417327
 30
0.0
 40
0.0826762458821125
 50
278.7987771596701805
 51
356.0312104063303877
  0
LINE
  5
24280
  8
0
 10
4544.5069915416470394
 20
584.831273000660758
 30
0.0
 11
4537.3592531856465939
 21
584.831524112860734
 31
0.0
  0
ARC
  5
24281
  8
0
 10
4537.3713233391636095
 20
584.9127072910379184
 30
0.0
 40
0.0820755568051146
 50
183.8293813992409014
 51
261.5433263201658178
  0
LINE
  5
24282
  8
0
 10
4537.2894310282099468
 20
584.9072258284884356
 30
0.0
 11
4537.2894215043043005
 21
587.2837943774260339
 31
0.0
  0
ARC
  5
24283
  8
0
 10
4544.6729816432944062
 20
587.2780884989356309
 30
0.0
 40
0.0826573140842531
 50
98.7882941876517862
 51
176.0416938207403064
  0
LINE
  5
24284
  8
0
 10
4544.6603529337471628
 20
587.3597753844607041
 30
0.0
 11
4551.8080912927471218
 21
587.3597739282606653
 31
0.0
  0
ARC
  5
24285
  8
0
 10
4551.7954752914383789
 20
587.2781067948385498
 30
0.0
 40
0.0826358528148742
 50
3.9639699068362289
 51
81.218321251867124
  0
LINE
  5
24286
  8
0
 10
4551.8779134560672901
 20
587.2838193409434098
 30
0.0
 11
4551.8779229707879495
 21
584.9072540067686532
 31
0.0
  0
ARC
  5
24287
  8
0
 10
4551.7954449907856542
 20
584.9129762832417327
 30
0.0
 40
0.0826762458821125
 50
278.7987771596701805
 51
356.0312104063303877
  0
LINE
  5
24288
  8
0
 10
4551.8080915416467178
 20
584.831273000660758
 30
0.0
 11
4544.6603531856462723
 21
584.831524112860734
 31
0.0
  0
ARC
  5
24289
  8
0
 10
4544.6724233391632879
 20
584.9127072910379184
 30
0.0
 40
0.0820755568051146
 50
183.8293813992409014
 51
261.5433263201658178
  0
LINE
  5
2428A
  8
0
 10
4544.5905310282114442
 20
584.9072258284884356
 30
0.0
 11
4544.5905215043039789
 21
587.2837943774260339
 31
0.0
  0
ARC
  5
2428B
  8
0
 10
4533.7213316432944339
 20
584.7300384989356417
 30
0.0
 40
0.0826573140842531
 50
98.7882941876517862
 51
176.0416938207403064
  0
LINE
  5
2428C
  8
0
 10
4533.7087029337471904
 20
584.8117253844608285
 30
0.0
 11
4540.8564412927471494
 21
584.8117239282607898
 31
0.0
  0
ARC
  5
2428D
  8
0
 10
4540.8438252914384066
 20
584.7300567948384469
 30
0.0
 40
0.0826358528148742
 50
3.9639699068362289
 51
81.218321251867124
  0
LINE
  5
2428E
  8
0
 10
4540.9262634560673177
 20
584.7357693409436479
 30
0.0
 11
4540.9262729707879771
 21
582.3592040067685502
 31
0.0
  0
ARC
  5
2428F
  8
0
 10
4540.8437949907856819
 20
582.3649262832417435
 30
0.0
 40
0.0826762458821125
 50
278.7987771596701805
 51
356.0312104063303877
  0
LINE
  5
24290
  8
0
 10
4540.8564415416467455
 20
582.2832230006606551
 30
0.0
 11
4533.7087031856463
 21
582.2834741128607448
 31
0.0
  0
ARC
  5
24291
  8
0
 10
4533.720773339164225
 20
582.3646572910379291
 30
0.0
 40
0.0820755568051146
 50
183.8293813992409014
 51
261.5433263201658178
  0
LINE
  5
24292
  8
0
 10
4533.6388810282105624
 20
582.3591758284884463
 30
0.0
 11
4533.6388715043040065
 21
584.7357443774259309
 31
0.0
  0
ARC
  5
24293
  8
0
 10
4541.0224316432941123
 20
584.7300384989356417
 30
0.0
 40
0.0826573140842531
 50
98.7882941876517862
 51
176.0416938207403064
  0
LINE
  5
24294
  8
0
 10
4541.0098029337459593
 20
584.8117253844608285
 30
0.0
 11
4548.1575412927468278
 21
584.8117239282607898
 31
0.0
  0
ARC
  5
24295
  8
0
 10
4548.1449252914371755
 20
584.7300567948384469
 30
0.0
 40
0.0826358528148742
 50
3.9639699068362289
 51
81.218321251867124
  0
LINE
  5
24296
  8
0
 10
4548.2273634560660867
 20
584.7357693409436479
 30
0.0
 11
4548.227372970790384
 21
582.3592040067685502
 31
0.0
  0
ARC
  5
24297
  8
0
 10
4548.1448949907871793
 20
582.3649262832417435
 30
0.0
 40
0.0826762458821125
 50
278.7987771596701805
 51
356.0312104063303877
  0
LINE
  5
24298
  8
0
 10
4548.1575415416473334
 20
582.2832230006606551
 30
0.0
 11
4541.0098031856468879
 21
582.2834741128607448
 31
0.0
  0
ARC
  5
24299
  8
0
 10
4541.0218733391639034
 20
582.3646572910379291
 30
0.0
 40
0.0820755568051146
 50
183.8293813992409014
 51
261.5433263201658178
  0
LINE
  5
2429A
  8
0
 10
4540.9399810282111503
 20
582.3591758284884463
 30
0.0
 11
4540.9399715043036849
 21
584.7357443774259309
 31
0.0
  0
ARC
  5
2429B
  8
0
 10
4548.3235316432937907
 20
584.7300384989356417
 30
0.0
 40
0.0826573140842531
 50
98.7882941876517862
 51
176.0416938207403064
  0
LINE
  5
2429C
  8
0
 10
4548.3109029337483662
 20
584.8117253844608285
 30
0.0
 11
4555.4586412927474157
 21
584.8117239282607898
 31
0.0
  0
ARC
  5
2429D
  8
0
 10
4555.4460252914377634
 20
584.7300567948384469
 30
0.0
 40
0.0826358528148742
 50
3.9639699068362289
 51
81.218321251867124
  0
LINE
  5
2429E
  8
0
 10
4555.5284634560666746
 20
584.7357693409436479
 30
0.0
 11
4555.5284729707891529
 21
582.3592040067685502
 31
0.0
  0
ARC
  5
2429F
  8
0
 10
4555.4459949907868577
 20
582.3649262832417435
 30
0.0
 40
0.0826762458821125
 50
278.7987771596701805
 51
356.0312104063303877
  0
LINE
  5
242A0
  8
0
 10
4555.4586415416470118
 20
582.2832230006606551
 30
0.0
 11
4548.3109031856465663
 21
582.2834741128607448
 31
0.0
  0
ARC
  5
242A1
  8
0
 10
4548.3229733391635818
 20
582.3646572910379291
 30
0.0
 40
0.0820755568051146
 50
183.8293813992409014
 51
261.5433263201658178
  0
LINE
  5
242A2
  8
0
 10
4548.2410810282108287
 20
582.3591758284884463
 30
0.0
 11
4548.2410715043042728
 21
584.7357443774259309
 31
0.0
  0
ARC
  5
242A3
  8
0
 10
4530.0707816432941399
 20
582.1819884989356524
 30
0.0
 40
0.0826573140842531
 50
98.7882941876517862
 51
176.0416938207403064
  0
LINE
  5
242A4
  8
0
 10
4530.058152933745987
 20
582.2636753844607256
 30
0.0
 11
4537.2058912927468555
 21
582.2636739282606868
 31
0.0
  0
ARC
  5
242A5
  8
0
 10
4537.1932752914381126
 20
582.1820067948385713
 30
0.0
 40
0.0826358528148742
 50
3.9639699068362289
 51
81.218321251867124
  0
LINE
  5
242A6
  8
0
 10
4537.2757134560670238
 20
582.1877193409435449
 30
0.0
 11
4537.2757229707885926
 21
579.8111540067686747
 31
0.0
  0
ARC
  5
242A7
  8
0
 10
4537.1932449907872069
 20
579.8168762832417542
 30
0.0
 40
0.0826762458821125
 50
278.7987771596701805
 51
356.0312104063303877
  0
LINE
  5
242A8
  8
0
 10
4537.205891541647361
 20
579.7351730006606658
 30
0.0
 11
4530.0581531856469155
 21
579.7354241128607555
 31
0.0
  0
ARC
  5
242A9
  8
0
 10
4530.0702233391639311
 20
579.8166072910379398
 30
0.0
 40
0.0820755568051146
 50
183.8293813992409014
 51
261.5433263201658178
  0
LINE
  5
242AA
  8
0
 10
4529.9883310282111779
 20
579.8111258284883434
 30
0.0
 11
4529.9883215043037126
 21
582.1876943774260553
 31
0.0
  0
ARC
  5
242AB
  8
0
 10
4537.3718816432938183
 20
582.1819884989356524
 30
0.0
 40
0.0826573140842531
 50
98.7882941876517862
 51
176.0416938207403064
  0
LINE
  5
242AC
  8
0
 10
4537.3592529337456654
 20
582.2636753844607256
 30
0.0
 11
4544.5069912927474434
 21
582.2636739282606868
 31
0.0
  0
ARC
  5
242AD
  8
0
 10
4544.494375291437791
 20
582.1820067948385713
 30
0.0
 40
0.0826358528148742
 50
3.9639699068362289
 51
81.218321251867124
  0
LINE
  5
242AE
  8
0
 10
4544.5768134560667022
 20
582.1877193409435449
 30
0.0
 11
4544.5768229707891805
 21
579.8111540067686747
 31
0.0
  0
ARC
  5
242AF
  8
0
 10
4544.4943449907859758
 20
579.8168762832417542
 30
0.0
 40
0.0826762458821125
 50
278.7987771596701805
 51
356.0312104063303877
  0
LINE
  5
242B0
  8
0
 10
4544.5069915416470394
 20
579.7351730006606658
 30
0.0
 11
4537.3592531856465939
 21
579.7354241128607555
 31
0.0
  0
ARC
  5
242B1
  8
0
 10
4537.3713233391636095
 20
579.8166072910379398
 30
0.0
 40
0.0820755568051146
 50
183.8293813992409014
 51
261.5433263201658178
  0
LINE
  5
242B2
  8
0
 10
4537.2894310282099468
 20
579.8111258284883434
 30
0.0
 11
4537.2894215043043005
 21
582.1876943774260553
 31
0.0
  0
ARC
  5
242B3
  8
0
 10
4544.6729816432944062
 20
582.1819884989356524
 30
0.0
 40
0.0826573140842531
 50
98.7882941876517862
 51
176.0416938207403064
  0
LINE
  5
242B4
  8
0
 10
4544.6603529337471628
 20
582.2636753844607256
 30
0.0
 11
4551.8080912927471218
 21
582.2636739282606868
 31
0.0
  0
ARC
  5
242B5
  8
0
 10
4551.7954752914383789
 20
582.1820067948385713
 30
0.0
 40
0.0826358528148742
 50
3.9639699068362289
 51
81.218321251867124
  0
LINE
  5
242B6
  8
0
 10
4551.8779134560672901
 20
582.1877193409435449
 30
0.0
 11
4551.8779229707879495
 21
579.8111540067686747
 31
0.0
  0
ARC
  5
242B7
  8
0
 10
4551.7954449907856542
 20
579.8168762832417542
 30
0.0
 40
0.0826762458821125
 50
278.7987771596701805
 51
356.0312104063303877
  0
LINE
  5
242B8
  8
0
 10
4551.8080915416467178
 20
579.7351730006606658
 30
0.0
 11
4544.6603531856462723
 21
579.7354241128607555
 31
0.0
  0
ARC
  5
242B9
  8
0
 10
4544.6724233391632879
 20
579.8166072910379398
 30
0.0
 40
0.0820755568051146
 50
183.8293813992409014
 51
261.5433263201658178
  0
LINE
  5
242BA
  8
0
 10
4544.5905310282114442
 20
579.8111258284883434
 30
0.0
 11
4544.5905215043039789
 21
582.1876943774260553
 31
0.0
  0
ARC
  5
242BB
  8
0
 10
4533.7213316432944339
 20
579.6339384989355494
 30
0.0
 40
0.0826573140842531
 50
98.7882941876517862
 51
176.0416938207403064
  0
LINE
  5
242BC
  8
0
 10
4533.7087029337471904
 20
579.7156253844607363
 30
0.0
 11
4540.8564412927471494
 21
579.7156239282606975
 31
0.0
  0
ARC
  5
242BD
  8
0
 10
4540.8438252914384066
 20
579.6339567948384683
 30
0.0
 40
0.0826358528148742
 50
3.9639699068362289
 51
81.218321251867124
  0
LINE
  5
242BE
  8
0
 10
4540.9262634560673177
 20
579.6396693409435557
 30
0.0
 11
4540.9262729707879771
 21
577.2631040067685717
 31
0.0
  0
ARC
  5
242BF
  8
0
 10
4540.8437949907856819
 20
577.2688262832416513
 30
0.0
 40
0.0826762458821125
 50
278.7987771596701805
 51
356.0312104063303877
  0
LINE
  5
242C0
  8
0
 10
4540.8564415416467455
 20
577.1871230006607902
 30
0.0
 11
4533.7087031856463
 21
577.1873741128606525
 31
0.0
  0
ARC
  5
242C1
  8
0
 10
4533.720773339164225
 20
577.2685572910378369
 30
0.0
 40
0.0820755568051146
 50
183.8293813992409014
 51
261.5433263201658178
  0
LINE
  5
242C2
  8
0
 10
4533.6388810282105624
 20
577.2630758284884678
 30
0.0
 11
4533.6388715043040065
 21
579.6396443774259524
 31
0.0
  0
ARC
  5
242C3
  8
0
 10
4541.0224316432941123
 20
579.6339384989355494
 30
0.0
 40
0.0826573140842531
 50
98.7882941876517862
 51
176.0416938207403064
  0
LINE
  5
242C4
  8
0
 10
4541.0098029337459593
 20
579.7156253844607363
 30
0.0
 11
4548.1575412927468278
 21
579.7156239282606975
 31
0.0
  0
ARC
  5
242C5
  8
0
 10
4548.1449252914371755
 20
579.6339567948384683
 30
0.0
 40
0.0826358528148742
 50
3.9639699068362289
 51
81.218321251867124
  0
LINE
  5
242C6
  8
0
 10
4548.2273634560660867
 20
579.6396693409435557
 30
0.0
 11
4548.227372970790384
 21
577.2631040067685717
 31
0.0
  0
ARC
  5
242C7
  8
0
 10
4548.1448949907871793
 20
577.2688262832416513
 30
0.0
 40
0.0826762458821125
 50
278.7987771596701805
 51
356.0312104063303877
  0
LINE
  5
242C8
  8
0
 10
4548.1575415416473334
 20
577.1871230006607902
 30
0.0
 11
4541.0098031856468879
 21
577.1873741128606525
 31
0.0
  0
ARC
  5
242C9
  8
0
 10
4541.0218733391639034
 20
577.2685572910378369
 30
0.0
 40
0.0820755568051146
 50
183.8293813992409014
 51
261.5433263201658178
  0
LINE
  5
242CA
  8
0
 10
4540.9399810282111503
 20
577.2630758284884678
 30
0.0
 11
4540.9399715043036849
 21
579.6396443774259524
 31
0.0
  0
ARC
  5
242CB
  8
0
 10
4548.3235316432937907
 20
579.6339384989355494
 30
0.0
 40
0.0826573140842531
 50
98.7882941876517862
 51
176.0416938207403064
  0
LINE
  5
242CC
  8
0
 10
4548.3109029337483662
 20
579.7156253844607363
 30
0.0
 11
4555.4586412927474157
 21
579.7156239282606975
 31
0.0
  0
ARC
  5
242CD
  8
0
 10
4555.4460252914377634
 20
579.6339567948384683
 30
0.0
 40
0.0826358528148742
 50
3.9639699068362289
 51
81.218321251867124
  0
LINE
  5
242CE
  8
0
 10
4555.5284634560666746
 20
579.6396693409435557
 30
0.0
 11
4555.5284729707891529
 21
577.2631040067685717
 31
0.0
  0
ARC
  5
242CF
  8
0
 10
4555.4459949907868577
 20
577.2688262832416513
 30
0.0
 40
0.0826762458821125
 50
278.7987771596701805
 51
356.0312104063303877
  0
LINE
  5
242D0
  8
0
 10
4555.4586415416470118
 20
577.1871230006607902
 30
0.0
 11
4548.3109031856465663
 21
577.1873741128606525
 31
0.0
  0
ARC
  5
242D1
  8
0
 10
4548.3229733391635818
 20
577.2685572910378369
 30
0.0
 40
0.0820755568051146
 50
183.8293813992409014
 51
261.5433263201658178
  0
LINE
  5
242D2
  8
0
 10
4548.2410810282108287
 20
577.2630758284884678
 30
0.0
 11
4548.2410715043042728
 21
579.6396443774259524
 31
0.0
  0
ARC
  5
242D3
  8
0
 10
4544.6729816432944062
 20
577.0858884989355602
 30
0.0
 40
0.0826573140842531
 50
98.7882941876517862
 51
176.0416938207403064
  0
LINE
  5
242D4
  8
0
 10
4544.6603529337471628
 20
577.167575384460747
 30
0.0
 11
4551.8080912927471218
 21
577.167573928260822
 31
0.0
  0
ARC
  5
242D5
  8
0
 10
4551.7954752914383789
 20
577.0859067948385928
 30
0.0
 40
0.0826358528148742
 50
3.9639699068362289
 51
81.218321251867124
  0
LINE
  5
242D6
  8
0
 10
4551.8779134560672901
 20
577.0916193409434527
 30
0.0
 11
4551.8779229707879495
 21
574.7150540067685824
 31
0.0
  0
ARC
  5
242D7
  8
0
 10
4551.7954449907856542
 20
574.7207762832417757
 30
0.0
 40
0.0826762458821125
 50
278.7987771596701805
 51
356.0312104063303877
  0
LINE
  5
242D8
  8
0
 10
4551.8080915416467178
 20
574.6390730006606873
 30
0.0
 11
4544.6603531856462723
 21
574.6393241128606633
 31
0.0
  0
ARC
  5
242D9
  8
0
 10
4544.6724233391632879
 20
574.7205072910379613
 30
0.0
 40
0.0820755568051146
 50
183.8293813992409014
 51
261.5433263201658178
  0
LINE
  5
242DA
  8
0
 10
4544.5905310282114442
 20
574.7150258284883648
 30
0.0
 11
4544.5905215043039789
 21
577.0915943774259631
 31
0.0
  0
ARC
  5
242DB
  8
0
 10
4537.3718816432938183
 20
577.0858884989355602
 30
0.0
 40
0.0826573140842531
 50
98.7882941876517862
 51
176.0416938207403064
  0
LINE
  5
242DC
  8
0
 10
4537.3592529337456654
 20
577.167575384460747
 30
0.0
 11
4544.5069912927474434
 21
577.167573928260822
 31
0.0
  0
ARC
  5
242DD
  8
0
 10
4544.494375291437791
 20
577.0859067948385928
 30
0.0
 40
0.0826358528148742
 50
3.9639699068362289
 51
81.218321251867124
  0
LINE
  5
242DE
  8
0
 10
4544.5768134560667022
 20
577.0916193409434527
 30
0.0
 11
4544.5768229707891805
 21
574.7150540067685824
 31
0.0
  0
ARC
  5
242DF
  8
0
 10
4544.4943449907859758
 20
574.7207762832417757
 30
0.0
 40
0.0826762458821125
 50
278.7987771596701805
 51
356.0312104063303877
  0
LINE
  5
242E0
  8
0
 10
4544.5069915416470394
 20
574.6390730006606873
 30
0.0
 11
4537.3592531856465939
 21
574.6393241128606633
 31
0.0
  0
ARC
  5
242E1
  8
0
 10
4537.3713233391636095
 20
574.7205072910379613
 30
0.0
 40
0.0820755568051146
 50
183.8293813992409014
 51
261.5433263201658178
  0
LINE
  5
242E2
  8
0
 10
4537.2894310282099468
 20
574.7150258284883648
 30
0.0
 11
4537.2894215043043005
 21
577.0915943774259631
 31
0.0
  0
ARC
  5
242E3
  8
0
 10
4530.0707816432941399
 20
577.0858884989355602
 30
0.0
 40
0.0826573140842531
 50
98.7882941876517862
 51
176.0416938207403064
  0
LINE
  5
242E4
  8
0
 10
4530.058152933745987
 20
577.167575384460747
 30
0.0
 11
4537.2058912927468555
 21
577.167573928260822
 31
0.0
  0
ARC
  5
242E5
  8
0
 10
4537.1932752914381126
 20
577.0859067948385928
 30
0.0
 40
0.0826358528148742
 50
3.9639699068362289
 51
81.218321251867124
  0
LINE
  5
242E6
  8
0
 10
4537.2757134560670238
 20
577.0916193409434527
 30
0.0
 11
4537.2757229707885926
 21
574.7150540067685824
 31
0.0
  0
ARC
  5
242E7
  8
0
 10
4537.1932449907872069
 20
574.7207762832417757
 30
0.0
 40
0.0826762458821125
 50
278.7987771596701805
 51
356.0312104063303877
  0
LINE
  5
242E8
  8
0
 10
4537.205891541647361
 20
574.6390730006606873
 30
0.0
 11
4530.0581531856469155
 21
574.6393241128606633
 31
0.0
  0
ARC
  5
242E9
  8
0
 10
4530.0702233391639311
 20
574.7205072910379613
 30
0.0
 40
0.0820755568051146
 50
183.8293813992409014
 51
261.5433263201658178
  0
LINE
  5
242EA
  8
0
 10
4529.9883310282111779
 20
574.7150258284883648
 30
0.0
 11
4529.9883215043037126
 21
577.0915943774259631
 31
0.0
  0
ARC
  5
242EB
  8
0
 10
4533.7213316432944339
 20
574.5378384989356846
 30
0.0
 40
0.0826573140842531
 50
98.7882941876517862
 51
176.0416938207403064
  0
LINE
  5
242EC
  8
0
 10
4533.7087029337471904
 20
574.6195253844606441
 30
0.0
 11
4540.8564412927471494
 21
574.619523928260719
 31
0.0
  0
ARC
  5
242ED
  8
0
 10
4540.8438252914384066
 20
574.5378567948384898
 30
0.0
 40
0.0826358528148742
 50
3.9639699068362289
 51
81.218321251867124
  0
LINE
  5
242EE
  8
0
 10
4540.9262634560673177
 20
574.5435693409435771
 30
0.0
 11
4540.9262729707879771
 21
572.1670040067687069
 31
0.0
  0
ARC
  5
242EF
  8
0
 10
4540.8437949907856819
 20
572.1727262832416727
 30
0.0
 40
0.0826762458821125
 50
278.7987771596701805
 51
356.0312104063303877
  0
LINE
  5
242F0
  8
0
 10
4540.8564415416467455
 20
572.0910230006608117
 30
0.0
 11
4533.7087031856463
 21
572.091274112860674
 31
0.0
  0
ARC
  5
242F1
  8
0
 10
4533.720773339164225
 20
572.1724572910377447
 30
0.0
 40
0.0820755568051146
 50
183.8293813992409014
 51
261.5433263201658178
  0
LINE
  5
242F2
  8
0
 10
4533.6388810282105624
 20
572.1669758284883756
 30
0.0
 11
4533.6388715043040065
 21
574.5435443774258601
 31
0.0
  0
ARC
  5
242F3
  8
0
 10
4541.0224316432941123
 20
574.5378384989356846
 30
0.0
 40
0.0826573140842531
 50
98.7882941876517862
 51
176.0416938207403064
  0
LINE
  5
242F4
  8
0
 10
4541.0098029337459593
 20
574.6195253844606441
 30
0.0
 11
4548.1575412927468278
 21
574.619523928260719
 31
0.0
  0
ARC
  5
242F5
  8
0
 10
4548.1449252914371755
 20
574.5378567948384898
 30
0.0
 40
0.0826358528148742
 50
3.9639699068362289
 51
81.218321251867124
  0
LINE
  5
242F6
  8
0
 10
4548.2273634560660867
 20
574.5435693409435771
 30
0.0
 11
4548.227372970790384
 21
572.1670040067687069
 31
0.0
  0
ARC
  5
242F7
  8
0
 10
4548.1448949907871793
 20
572.1727262832416727
 30
0.0
 40
0.0826762458821125
 50
278.7987771596701805
 51
356.0312104063303877
  0
LINE
  5
242F8
  8
0
 10
4548.1575415416473334
 20
572.0910230006608117
 30
0.0
 11
4541.0098031856468879
 21
572.091274112860674
 31
0.0
  0
ARC
  5
242F9
  8
0
 10
4541.0218733391639034
 20
572.1724572910377447
 30
0.0
 40
0.0820755568051146
 50
183.8293813992409014
 51
261.5433263201658178
  0
LINE
  5
242FA
  8
0
 10
4540.9399810282111503
 20
572.1669758284883756
 30
0.0
 11
4540.9399715043036849
 21
574.5435443774258601
 31
0.0
  0
ARC
  5
242FB
  8
0
 10
4548.3235316432937907
 20
574.5378384989356846
 30
0.0
 40
0.0826573140842531
 50
98.7882941876517862
 51
176.0416938207403064
  0
LINE
  5
242FC
  8
0
 10
4548.3109029337483662
 20
574.6195253844606441
 30
0.0
 11
4555.4586412927474157
 21
574.619523928260719
 31
0.0
  0
ARC
  5
242FD
  8
0
 10
4555.4460252914377634
 20
574.5378567948384898
 30
0.0
 40
0.0826358528148742
 50
3.9639699068362289
 51
81.218321251867124
  0
LINE
  5
242FE
  8
0
 10
4555.5284634560666746
 20
574.5435693409435771
 30
0.0
 11
4555.5284729707891529
 21
572.1670040067687069
 31
0.0
  0
ARC
  5
242FF
  8
0
 10
4555.4459949907868577
 20
572.1727262832416727
 30
0.0
 40
0.0826762458821125
 50
278.7987771596701805
 51
356.0312104063303877
  0
LINE
  5
24300
  8
0
 10
4555.4586415416470118
 20
572.0910230006608117
 30
0.0
 11
4548.3109031856465663
 21
572.091274112860674
 31
0.0
  0
ARC
  5
24301
  8
0
 10
4548.3229733391635818
 20
572.1724572910377447
 30
0.0
 40
0.0820755568051146
 50
183.8293813992409014
 51
261.5433263201658178
  0
LINE
  5
24302
  8
0
 10
4548.2410810282108287
 20
572.1669758284883756
 30
0.0
 11
4548.2410715043042728
 21
574.5435443774258601
 31
0.0
  0
ARC
  5
24303
  8
0
 10
4544.6729816432944062
 20
571.9897884989355816
 30
0.0
 40
0.0826573140842531
 50
98.7882941876517862
 51
176.0416938207403064
  0
LINE
  5
24304
  8
0
 10
4544.6603529337471628
 20
572.0714753844607685
 30
0.0
 11
4551.8080912927471218
 21
572.0714739282607297
 31
0.0
  0
ARC
  5
24305
  8
0
 10
4551.7954752914383789
 20
571.9898067948385005
 30
0.0
 40
0.0826358528148742
 50
3.9639699068362289
 51
81.218321251867124
  0
LINE
  5
24306
  8
0
 10
4551.8779134560672901
 20
571.9955193409434742
 30
0.0
 11
4551.8779229707879495
 21
569.6189540067686039
 31
0.0
  0
ARC
  5
24307
  8
0
 10
4551.7954449907856542
 20
569.6246762832417971
 30
0.0
 40
0.0826762458821125
 50
278.7987771596701805
 51
356.0312104063303877
  0
LINE
  5
24308
  8
0
 10
4551.8080915416467178
 20
569.5429730006607087
 30
0.0
 11
4544.6603531856462723
 21
569.5432241128606847
 31
0.0
  0
ARC
  5
24309
  8
0
 10
4544.6724233391632879
 20
569.6244072910378691
 30
0.0
 40
0.0820755568051146
 50
183.8293813992409014
 51
261.5433263201658178
  0
LINE
  5
2430A
  8
0
 10
4544.5905310282114442
 20
569.6189258284885
 30
0.0
 11
4544.5905215043039789
 21
571.9954943774259846
 31
0.0
  0
ARC
  5
2430B
  8
0
 10
4537.3718816432938183
 20
571.9897884989355816
 30
0.0
 40
0.0826573140842531
 50
98.7882941876517862
 51
176.0416938207403064
  0
LINE
  5
2430C
  8
0
 10
4537.3592529337456654
 20
572.0714753844607685
 30
0.0
 11
4544.5069912927474434
 21
572.0714739282607297
 31
0.0
  0
ARC
  5
2430D
  8
0
 10
4544.494375291437791
 20
571.9898067948385005
 30
0.0
 40
0.0826358528148742
 50
3.9639699068362289
 51
81.218321251867124
  0
LINE
  5
2430E
  8
0
 10
4544.5768134560667022
 20
571.9955193409434742
 30
0.0
 11
4544.5768229707891805
 21
569.6189540067686039
 31
0.0
  0
ARC
  5
2430F
  8
0
 10
4544.4943449907859758
 20
569.6246762832417971
 30
0.0
 40
0.0826762458821125
 50
278.7987771596701805
 51
356.0312104063303877
  0
LINE
  5
24310
  8
0
 10
4544.5069915416470394
 20
569.5429730006607087
 30
0.0
 11
4537.3592531856465939
 21
569.5432241128606847
 31
0.0
  0
ARC
  5
24311
  8
0
 10
4537.3713233391636095
 20
569.6244072910378691
 30
0.0
 40
0.0820755568051146
 50
183.8293813992409014
 51
261.5433263201658178
  0
LINE
  5
24312
  8
0
 10
4537.2894310282099468
 20
569.6189258284885
 30
0.0
 11
4537.2894215043043005
 21
571.9954943774259846
 31
0.0
  0
ARC
  5
24313
  8
0
 10
4530.0707816432941399
 20
571.9897884989355816
 30
0.0
 40
0.0826573140842531
 50
98.7882941876517862
 51
176.0416938207403064
  0
LINE
  5
24314
  8
0
 10
4530.058152933745987
 20
572.0714753844607685
 30
0.0
 11
4537.2058912927468555
 21
572.0714739282607297
 31
0.0
  0
ARC
  5
24315
  8
0
 10
4537.1932752914381126
 20
571.9898067948385005
 30
0.0
 40
0.0826358528148742
 50
3.9639699068362289
 51
81.218321251867124
  0
LINE
  5
24316
  8
0
 10
4537.2757134560670238
 20
571.9955193409434742
 30
0.0
 11
4537.2757229707885926
 21
569.6189540067686039
 31
0.0
  0
ARC
  5
24317
  8
0
 10
4537.1932449907872069
 20
569.6246762832417971
 30
0.0
 40
0.0826762458821125
 50
278.7987771596701805
 51
356.0312104063303877
  0
LINE
  5
24318
  8
0
 10
4537.205891541647361
 20
569.5429730006607087
 30
0.0
 11
4530.0581531856469155
 21
569.5432241128606847
 31
0.0
  0
ARC
  5
24319
  8
0
 10
4530.0702233391639311
 20
569.6244072910378691
 30
0.0
 40
0.0820755568051146
 50
183.8293813992409014
 51
261.5433263201658178
  0
LINE
  5
2431A
  8
0
 10
4529.9883310282111779
 20
569.6189258284885
 30
0.0
 11
4529.9883215043037126
 21
571.9954943774259846
 31
0.0
  0
ARC
  5
2431B
  8
0
 10
4533.7213316432944339
 20
569.441738498935706
 30
0.0
 40
0.0826573140842531
 50
98.7882941876517862
 51
176.0416938207403064
  0
LINE
  5
2431C
  8
0
 10
4533.7087029337471904
 20
569.5234253844606656
 30
0.0
 11
4540.8564412927471494
 21
569.5234239282607405
 31
0.0
  0
ARC
  5
2431D
  8
0
 10
4540.8438252914384066
 20
569.441756794838625
 30
0.0
 40
0.0826358528148742
 50
3.9639699068362289
 51
81.218321251867124
  0
LINE
  5
2431E
  8
0
 10
4540.9262634560673177
 20
569.4474693409435986
 30
0.0
 11
4540.9262729707879771
 21
567.0709040067687283
 31
0.0
  0
ARC
  5
2431F
  8
0
 10
4540.8437949907856819
 20
567.0766262832418079
 30
0.0
 40
0.0826762458821125
 50
278.7987771596701805
 51
356.0312104063303877
  0
LINE
  5
24320
  8
0
 10
4540.8564415416467455
 20
566.9949230006608332
 30
0.0
 11
4533.7087031856463
 21
566.9951741128605818
 31
0.0
  0
ARC
  5
24321
  8
0
 10
4533.720773339164225
 20
567.0763572910377661
 30
0.0
 40
0.0820755568051146
 50
183.8293813992409014
 51
261.5433263201658178
  0
LINE
  5
24322
  8
0
 10
4533.6388810282105624
 20
567.070875828488397
 30
0.0
 11
4533.6388715043040065
 21
569.4474443774259953
 31
0.0
  0
ARC
  5
24323
  8
0
 10
4541.0224316432941123
 20
569.441738498935706
 30
0.0
 40
0.0826573140842531
 50
98.7882941876517862
 51
176.0416938207403064
  0
LINE
  5
24324
  8
0
 10
4541.0098029337459593
 20
569.5234253844606656
 30
0.0
 11
4548.1575412927468278
 21
569.5234239282607405
 31
0.0
  0
ARC
  5
24325
  8
0
 10
4548.1449252914371755
 20
569.441756794838625
 30
0.0
 40
0.0826358528148742
 50
3.9639699068362289
 51
81.218321251867124
  0
LINE
  5
24326
  8
0
 10
4548.2273634560660867
 20
569.4474693409435986
 30
0.0
 11
4548.227372970790384
 21
567.0709040067687283
 31
0.0
  0
ARC
  5
24327
  8
0
 10
4548.1448949907871793
 20
567.0766262832418079
 30
0.0
 40
0.0826762458821125
 50
278.7987771596701805
 51
356.0312104063303877
  0
LINE
  5
24328
  8
0
 10
4548.1575415416473334
 20
566.9949230006608332
 30
0.0
 11
4541.0098031856468879
 21
566.9951741128605818
 31
0.0
  0
ARC
  5
24329
  8
0
 10
4541.0218733391639034
 20
567.0763572910377661
 30
0.0
 40
0.0820755568051146
 50
183.8293813992409014
 51
261.5433263201658178
  0
LINE
  5
2432A
  8
0
 10
4540.9399810282111503
 20
567.070875828488397
 30
0.0
 11
4540.9399715043036849
 21
569.4474443774259953
 31
0.0
  0
ARC
  5
2432B
  8
0
 10
4548.3235316432937907
 20
569.441738498935706
 30
0.0
 40
0.0826573140842531
 50
98.7882941876517862
 51
176.0416938207403064
  0
LINE
  5
2432C
  8
0
 10
4548.3109029337483662
 20
569.5234253844606656
 30
0.0
 11
4555.4586412927474157
 21
569.5234239282607405
 31
0.0
  0
ARC
  5
2432D
  8
0
 10
4555.4460252914377634
 20
569.441756794838625
 30
0.0
 40
0.0826358528148742
 50
3.9639699068362289
 51
81.218321251867124
  0
LINE
  5
2432E
  8
0
 10
4555.5284634560666746
 20
569.4474693409435986
 30
0.0
 11
4555.5284729707891529
 21
567.0709040067687283
 31
0.0
  0
ARC
  5
2432F
  8
0
 10
4555.4459949907868577
 20
567.0766262832418079
 30
0.0
 40
0.0826762458821125
 50
278.7987771596701805
 51
356.0312104063303877
  0
LINE
  5
24330
  8
0
 10
4555.4586415416470118
 20
566.9949230006608332
 30
0.0
 11
4548.3109031856465663
 21
566.9951741128605818
 31
0.0
  0
ARC
  5
24331
  8
0
 10
4548.3229733391635818
 20
567.0763572910377661
 30
0.0
 40
0.0820755568051146
 50
183.8293813992409014
 51
261.5433263201658178
  0
LINE
  5
24332
  8
0
 10
4548.2410810282108287
 20
567.070875828488397
 30
0.0
 11
4548.2410715043042728
 21
569.4474443774259953
 31
0.0
  0
ARC
  5
24333
  8
0
 10
4544.6729816432944062
 20
566.8936884989354894
 30
0.0
 40
0.0826573140842531
 50
98.7882941876517862
 51
176.0416938207403064
  0
LINE
  5
24334
  8
0
 10
4544.6603529337471628
 20
566.97537538446079
 30
0.0
 11
4551.8080912927471218
 21
566.9753739282607512
 31
0.0
  0
ARC
  5
24335
  8
0
 10
4551.7954752914383789
 20
566.893706794838522
 30
0.0
 40
0.0826358528148742
 50
3.9639699068362289
 51
81.218321251867124
  0
LINE
  5
24336
  8
0
 10
4551.8779134560672901
 20
566.8994193409436093
 30
0.0
 11
4551.8779229707879495
 21
564.5228540067686254
 31
0.0
  0
ARC
  5
24337
  8
0
 10
4551.7954449907856542
 20
564.5285762832417049
 30
0.0
 40
0.0826762458821125
 50
278.7987771596701805
 51
356.0312104063303877
  0
LINE
  5
24338
  8
0
 10
4551.8080915416467178
 20
564.4468730006606165
 30
0.0
 11
4544.6603531856462723
 21
564.4471241128607062
 31
0.0
  0
ARC
  5
24339
  8
0
 10
4544.6724233391632879
 20
564.5283072910378905
 30
0.0
 40
0.0820755568051146
 50
183.8293813992409014
 51
261.5433263201658178
  0
LINE
  5
2433A
  8
0
 10
4544.5905310282114442
 20
564.5228258284884078
 30
0.0
 11
4544.5905215043039789
 21
566.899394377426006
 31
0.0
  0
ARC
  5
2433B
  8
0
 10
4537.3718816432938183
 20
566.8936884989354894
 30
0.0
 40
0.0826573140842531
 50
98.7882941876517862
 51
176.0416938207403064
  0
LINE
  5
2433C
  8
0
 10
4537.3592529337456654
 20
566.97537538446079
 30
0.0
 11
4544.5069912927474434
 21
566.9753739282607512
 31
0.0
  0
ARC
  5
2433D
  8
0
 10
4544.494375291437791
 20
566.893706794838522
 30
0.0
 40
0.0826358528148742
 50
3.9639699068362289
 51
81.218321251867124
  0
LINE
  5
2433E
  8
0
 10
4544.5768134560667022
 20
566.8994193409436093
 30
0.0
 11
4544.5768229707891805
 21
564.5228540067686254
 31
0.0
  0
ARC
  5
2433F
  8
0
 10
4544.4943449907859758
 20
564.5285762832417049
 30
0.0
 40
0.0826762458821125
 50
278.7987771596701805
 51
356.0312104063303877
  0
LINE
  5
24340
  8
0
 10
4544.5069915416470394
 20
564.4468730006606165
 30
0.0
 11
4537.3592531856465939
 21
564.4471241128607062
 31
0.0
  0
ARC
  5
24341
  8
0
 10
4537.3713233391636095
 20
564.5283072910378905
 30
0.0
 40
0.0820755568051146
 50
183.8293813992409014
 51
261.5433263201658178
  0
LINE
  5
24342
  8
0
 10
4537.2894310282099468
 20
564.5228258284884078
 30
0.0
 11
4537.2894215043043005
 21
566.899394377426006
 31
0.0
  0
ARC
  5
24343
  8
0
 10
4530.0707816432941399
 20
566.8936884989354894
 30
0.0
 40
0.0826573140842531
 50
98.7882941876517862
 51
176.0416938207403064
  0
LINE
  5
24344
  8
0
 10
4530.058152933745987
 20
566.97537538446079
 30
0.0
 11
4537.2058912927468555
 21
566.9753739282607512
 31
0.0
  0
ARC
  5
24345
  8
0
 10
4537.1932752914381126
 20
566.893706794838522
 30
0.0
 40
0.0826358528148742
 50
3.9639699068362289
 51
81.218321251867124
  0
LINE
  5
24346
  8
0
 10
4537.2757134560670238
 20
566.8994193409436093
 30
0.0
 11
4537.2757229707885926
 21
564.5228540067686254
 31
0.0
  0
ARC
  5
24347
  8
0
 10
4537.1932449907872069
 20
564.5285762832417049
 30
0.0
 40
0.0826762458821125
 50
278.7987771596701805
 51
356.0312104063303877
  0
LINE
  5
24348
  8
0
 10
4537.205891541647361
 20
564.4468730006606165
 30
0.0
 11
4530.0581531856469155
 21
564.4471241128607062
 31
0.0
  0
ARC
  5
24349
  8
0
 10
4530.0702233391639311
 20
564.5283072910378905
 30
0.0
 40
0.0820755568051146
 50
183.8293813992409014
 51
261.5433263201658178
  0
LINE
  5
2434A
  8
0
 10
4529.9883310282111779
 20
564.5228258284884078
 30
0.0
 11
4529.9883215043037126
 21
566.899394377426006
 31
0.0
  0
ARC
  5
2434B
  8
0
 10
4551.9738897746319708
 20
587.278264842150179
 30
0.0
 40
0.0824538872278029
 50
98.6752550162744484
 51
176.1547205045220892
  0
LINE
  5
2434C
  8
0
 10
4551.9614529337459317
 20
587.3597753844607041
 30
0.0
 11
4558.6595072057680227
 21
587.3595237077149704
 31
0.0
  0
LINE
  5
2434D
  8
0
 10
4558.6595072260315646
 20
584.8315241216828326
 30
0.0
 11
4551.9614531856459507
 21
584.8315241128608477
 31
0.0
  0
ARC
  5
2434E
  8
0
 10
4551.973097276036242
 20
584.912314318868539
 30
0.0
 40
0.0816250098177938
 50
183.5741281445181983
 51
261.7985800050288958
  0
LINE
  5
2434F
  8
0
 10
4551.8916310285203508
 20
584.9072258275831473
 30
0.0
 11
4551.8916215090766855
 21
587.2837943992386727
 31
0.0
  0
ARC
  5
24350
  8
0
 10
4560.1094231833130834
 20
585.1992084898148505
 30
0.0
 40
1.48214524480013
 50
180.6836061534050089
 51
191.079612491997608
  0
LINE
  5
24351
  8
0
 10
4558.6273834311823521
 20
585.1815251703870899
 30
0.0
 11
4558.627393948479039
 21
587.0095158623606721
 31
0.0
  0
ARC
  5
24352
  8
0
 10
4560.1377403138740192
 20
586.9889804458122171
 30
0.0
 40
1.5104859637853101
 50
169.0263617270144891
 51
179.2210262292830123
  0
LINE
  5
24353
  8
0
 10
4558.6595378590473047
 20
587.3013175163606547
 30
0.0
 11
4558.6548737814546257
 21
587.2765125202412264
 31
0.0
  0
LINE
  5
24354
  8
0
 10
4558.6595378590473047
 20
584.8898501726606582
 30
0.0
 11
4558.6549034854469937
 21
584.9143805150605431
 31
0.0
  0
ARC
  5
24355
  8
0
 10
4551.9738897746319708
 20
592.3743648421500438
 30
0.0
 40
0.0824538872278029
 50
98.6752550162744484
 51
176.1547205045220892
  0
LINE
  5
24356
  8
0
 10
4551.9614529337459317
 20
592.4558753844607963
 30
0.0
 11
4557.9385460706580488
 21
592.4444560551087307
 31
0.0
  0
LINE
  5
24357
  8
0
 10
4558.6595072260279267
 20
589.9276241216829249
 30
0.0
 11
4551.9614531856459507
 21
589.9276241128608262
 31
0.0
  0
ARC
  5
24358
  8
0
 10
4551.973097276036242
 20
590.0084143188685175
 30
0.0
 40
0.0816250098177938
 50
183.5741281445181983
 51
261.7985800050288958
  0
LINE
  5
24359
  8
0
 10
4551.8916310285203508
 20
590.0033258275831258
 30
0.0
 11
4551.8916215090766855
 21
592.3798943992386512
 31
0.0
  0
ARC
  5
2435A
  8
0
 10
4560.1094231833130834
 20
590.295308489814829
 30
0.0
 40
1.48214524480013
 50
180.6836061534050089
 51
191.079612491997608
  0
LINE
  5
2435B
  8
0
 10
4558.6273834311823521
 20
590.2776251703869548
 30
0.0
 11
4558.627393948479039
 21
592.1056158623606507
 31
0.0
  0
ARC
  5
2435C
  8
0
 10
4560.1377403138758382
 20
592.0850804458121956
 30
0.0
 40
1.510485963787308
 50
169.0932626300727009
 51
179.2210262292830123
  0
LINE
  5
2435D
  8
0
 10
4558.6595378590473047
 20
592.397417516360747
 30
0.0
 11
4558.6545390581441097
 21
592.3708808688196541
 31
0.0
  0
LINE
  5
2435E
  8
0
 10
4558.6595378590473047
 20
589.9859501726607505
 30
0.0
 11
4558.6549034854469937
 21
590.0104805150605216
 31
0.0
  0
ARC
  5
2435F
  8
0
 10
4551.9738897746319708
 20
582.1821648421502005
 30
0.0
 40
0.0824538872278029
 50
98.6752550162744484
 51
176.1547205045220892
  0
LINE
  5
24360
  8
0
 10
4551.9614529337459317
 20
582.2636753844607256
 30
0.0
 11
4558.6595072057716607
 21
582.2634237077151056
 31
0.0
  0
LINE
  5
24361
  8
0
 10
4558.6595072260261077
 20
579.7354241216828541
 30
0.0
 11
4551.9614531856459507
 21
579.7354241128607555
 31
0.0
  0
ARC
  5
24362
  8
0
 10
4551.973097276036242
 20
579.8162143188684468
 30
0.0
 40
0.0816250098177938
 50
183.5741281445181983
 51
261.7985800050288958
  0
LINE
  5
24363
  8
0
 10
4551.8916310285203508
 20
579.8111258275830551
 30
0.0
 11
4551.8916215090766855
 21
582.1876943992385804
 31
0.0
  0
ARC
  5
24364
  8
0
 10
4560.1094231833130834
 20
580.103108489814872
 30
0.0
 40
1.48214524480013
 50
180.6836061534050089
 51
191.079612491997608
  0
LINE
  5
24365
  8
0
 10
4558.6273834311823521
 20
580.0854251703871114
 30
0.0
 11
4558.627393948479039
 21
581.9134158623608073
 31
0.0
  0
ARC
  5
24366
  8
0
 10
4560.1377403138740192
 20
581.8928804458122386
 30
0.0
 40
1.5104859637853101
 50
169.0263617270144891
 51
179.2210262292830123
  0
LINE
  5
24367
  8
0
 10
4558.6595378590473047
 20
582.2052175163607899
 30
0.0
 11
4558.6548737814546257
 21
582.1804125202412479
 31
0.0
  0
LINE
  5
24368
  8
0
 10
4558.6595378590473047
 20
579.7937501726606797
 30
0.0
 11
4558.6549034854469937
 21
579.8182805150604509
 31
0.0
  0
ARC
  5
24369
  8
0
 10
4551.9738897746319708
 20
577.0860648421502219
 30
0.0
 40
0.0824538872278029
 50
98.6752550162744484
 51
176.1547205045220892
  0
LINE
  5
2436A
  8
0
 10
4551.9614529337459317
 20
577.167575384460747
 30
0.0
 11
4558.6595072057716607
 21
577.1673237077150134
 31
0.0
  0
LINE
  5
2436B
  8
0
 10
4558.6595072260342931
 20
574.6393241216828756
 30
0.0
 11
4551.9614531856459507
 21
574.6393241128607769
 31
0.0
  0
ARC
  5
2436C
  8
0
 10
4551.973097276036242
 20
574.7201143188683545
 30
0.0
 40
0.0816250098177938
 50
183.5741281445181983
 51
261.7985800050288958
  0
LINE
  5
2436D
  8
0
 10
4551.8916310285203508
 20
574.7150258275829628
 30
0.0
 11
4551.8916215090766855
 21
577.0915943992386019
 31
0.0
  0
ARC
  5
2436E
  8
0
 10
4560.1094231833130834
 20
575.0070084898147798
 30
0.0
 40
1.48214524480013
 50
180.6836061534050089
 51
191.079612491997608
  0
LINE
  5
2436F
  8
0
 10
4558.6273834311823521
 20
574.9893251703871329
 30
0.0
 11
4558.627393948479039
 21
576.8173158623607151
 31
0.0
  0
ARC
  5
24370
  8
0
 10
4560.1377403138740192
 20
576.7967804458121464
 30
0.0
 40
1.5104859637853101
 50
169.0263617270144891
 51
179.2210262292830123
  0
LINE
  5
24371
  8
0
 10
4558.6595378590473047
 20
577.1091175163608114
 30
0.0
 11
4558.6548737814546257
 21
577.0843125202412693
 31
0.0
  0
LINE
  5
24372
  8
0
 10
4558.6595378590473047
 20
574.6976501726607012
 30
0.0
 11
4558.6549034854469937
 21
574.722180515060586
 31
0.0
  0
ARC
  5
24373
  8
0
 10
4551.9738897746319708
 20
571.9899648421501297
 30
0.0
 40
0.0824538872278029
 50
98.6752550162744484
 51
176.1547205045220892
  0
LINE
  5
24374
  8
0
 10
4551.9614529337459317
 20
572.0714753844607685
 30
0.0
 11
4558.6595072057880316
 21
572.0712237077150348
 31
0.0
  0
LINE
  5
24375
  8
0
 10
4558.6595072259597146
 20
569.543224121682897
 30
0.0
 11
4551.9614531856459507
 21
569.5432241128607984
 31
0.0
  0
ARC
  5
24376
  8
0
 10
4551.973097276036242
 20
569.6240143188684897
 30
0.0
 40
0.0816250098177938
 50
183.5741281445181983
 51
261.7985800050288958
  0
LINE
  5
24377
  8
0
 10
4551.8916310285203508
 20
569.618925827583098
 30
0.0
 11
4551.8916215090766855
 21
571.9954943992387371
 31
0.0
  0
ARC
  5
24378
  8
0
 10
4560.1094231833130834
 20
569.9109084898148012
 30
0.0
 40
1.48214524480013
 50
180.6836061534050089
 51
191.079612491997608
  0
LINE
  5
24379
  8
0
 10
4558.6273834311823521
 20
569.8932251703871543
 30
0.0
 11
4558.627393948479039
 21
571.7212158623607365
 31
0.0
  0
ARC
  5
2437A
  8
0
 10
4560.1377403138740192
 20
571.7006804458121678
 30
0.0
 40
1.5104859637853101
 50
169.0263617270144891
 51
179.2210262292830123
  0
LINE
  5
2437B
  8
0
 10
4558.6595378590473047
 20
572.0130175163607191
 30
0.0
 11
4558.6548737814546257
 21
571.9882125202412908
 31
0.0
  0
LINE
  5
2437C
  8
0
 10
4558.6595378590473047
 20
569.601550172660609
 30
0.0
 11
4558.6549034854469937
 21
569.6260805150606075
 31
0.0
  0
ARC
  5
2437D
  8
0
 10
4551.9738897746319708
 20
566.8938648421501512
 30
0.0
 40
0.0824538872278029
 50
98.6752550162744484
 51
176.1547205045220892
  0
LINE
  5
2437E
  8
0
 10
4551.9614529337459317
 20
566.97537538446079
 30
0.0
 11
4558.6595072056970821
 21
566.9751237077150563
 31
0.0
  0
LINE
  5
2437F
  8
0
 10
4558.6695488436471351
 20
564.4471241216961062
 30
0.0
 11
4551.9614531856459507
 21
564.4471241128607062
 31
0.0
  0
ARC
  5
24380
  8
0
 10
4551.973097276036242
 20
564.5279143188685111
 30
0.0
 40
0.0816250098177938
 50
183.5741281445181983
 51
261.7985800050288958
  0
LINE
  5
24381
  8
0
 10
4551.8916310285203508
 20
564.5228258275831195
 30
0.0
 11
4551.8916215090766855
 21
566.8993943992386448
 31
0.0
  0
ARC
  5
24382
  8
0
 10
4560.1094231833130834
 20
564.8148084898148227
 30
0.0
 40
1.48214524480013
 50
180.6836061534050089
 51
191.079612491997608
  0
LINE
  5
24383
  8
0
 10
4558.6273834311823521
 20
564.7971251703870621
 30
0.0
 11
4558.627393948479039
 21
566.6251158623606443
 31
0.0
  0
ARC
  5
24384
  8
0
 10
4560.1377403138740192
 20
566.6045804458121893
 30
0.0
 40
1.5104859637853101
 50
169.0263617270144891
 51
179.2210262292830123
  0
LINE
  5
24385
  8
0
 10
4558.6595378590473047
 20
566.9169175163607406
 30
0.0
 11
4558.6548737814546257
 21
566.8921125202411986
 31
0.0
  0
LINE
  5
24386
  8
0
 10
4558.6695488436471351
 20
564.4498129911607975
 30
0.0
 11
4558.6549034854469937
 21
564.5299805150606289
 31
0.0
  0
ARC
  5
24387
  8
0
 10
4560.1641296315719956
 20
589.5259903274727549
 30
0.0
 40
1.552264963746703
 50
165.7694696824613061
 51
178.8341249082600086
  0
LINE
  5
24388
  8
0
 10
4558.6121860188268329
 20
589.5575741925607645
 30
0.0
 11
4558.6121860187513448
 21
587.7295741925753418
 31
0.0
  0
ARC
  5
24389
  8
0
 10
4560.1641324986330801
 20
587.7611582340331324
 30
0.0
 40
1.5522678338785421
 50
181.1658794470882867
 51
194.2305101639971099
  0
ARC
  5
2438A
  8
0
 10
4555.6181873033219745
 20
589.8328302449026523
 30
0.0
 40
0.0755817696212508
 50
90.8347771827843644
 51
184.2985242068725995
  0
LINE
  5
2438B
  8
0
 10
4555.6170861453465477
 20
589.9084039926607375
 30
0.0
 11
4558.6594966957482029
 21
589.9075741925802276
 31
0.0
  0
LINE
  5
2438C
  8
0
 10
4558.6594966465290781
 20
587.3795741926277287
 30
0.0
 11
4555.6237617109918574
 21
587.3760785424100277
 31
0.0
  0
ARC
  5
2438D
  8
0
 10
4555.6223687809233525
 20
587.4557989147333501
 30
0.0
 40
0.0797325405187388
 50
176.9293652561642034
 51
271.0010100502126988
  0
LINE
  5
2438E
  8
0
 10
4555.5427507159483866
 20
587.4600699505607508
 30
0.0
 11
4555.5428181403467534
 21
589.8271651613607673
 31
0.0
  0
ARC
  5
2438F
  8
0
 10
4560.1641296315756335
 20
584.4298903274727763
 30
0.0
 40
1.552264963746703
 50
165.7694696824613061
 51
178.8341249082600086
  0
LINE
  5
24390
  8
0
 10
4558.6121860188313804
 20
584.4614741925607859
 30
0.0
 11
4558.6121860187549828
 21
582.6334741925752496
 31
0.0
  0
ARC
  5
24391
  8
0
 10
4560.1641324986367181
 20
582.6650582340331539
 30
0.0
 40
1.5522678338785421
 50
181.1658794470882867
 51
194.2305101639971099
  0
ARC
  5
24392
  8
0
 10
4555.6181873033256124
 20
584.7367302449026738
 30
0.0
 40
0.0755817696212508
 50
90.8347771827843644
 51
184.2985242068725995
  0
LINE
  5
24393
  8
0
 10
4555.6170861453510952
 20
584.8123039926606452
 30
0.0
 11
4558.6594966957518409
 21
584.8114741925802491
 31
0.0
  0
LINE
  5
24394
  8
0
 10
4558.6594966465327161
 20
582.2834741926277502
 30
0.0
 11
4555.6237617109973144
 21
582.2799785424100492
 31
0.0
  0
ARC
  5
24395
  8
0
 10
4555.6223687809278999
 20
582.3596989147333716
 30
0.0
 40
0.0797325405187388
 50
176.9293652561642034
 51
271.0010100502126988
  0
LINE
  5
24396
  8
0
 10
4555.5427507159511151
 20
582.3639699505607723
 30
0.0
 11
4555.5428181403513008
 21
584.7310651613606751
 31
0.0
  0
ARC
  5
24397
  8
0
 10
4560.1641296315756335
 20
579.3337903274726841
 30
0.0
 40
1.552264963746703
 50
165.7694696824613061
 51
178.8341249082600086
  0
LINE
  5
24398
  8
0
 10
4558.6121860188313804
 20
579.3653741925608074
 30
0.0
 11
4558.6121860187549828
 21
577.5373741925752711
 31
0.0
  0
ARC
  5
24399
  8
0
 10
4560.1641324986367181
 20
577.568958234032948
 30
0.0
 40
1.5522678338785421
 50
181.1658794470882867
 51
194.2305101639971099
  0
ARC
  5
2439A
  8
0
 10
4555.6181873033256124
 20
579.6406302449025816
 30
0.0
 40
0.0755817696212508
 50
90.8347771827843644
 51
184.2985242068725995
  0
LINE
  5
2439B
  8
0
 10
4555.6170861453510952
 20
579.7162039926606667
 30
0.0
 11
4558.6594966957518409
 21
579.7153741925802706
 31
0.0
  0
LINE
  5
2439C
  8
0
 10
4558.6594966465327161
 20
577.1873741926277717
 30
0.0
 11
4555.6237617109973144
 21
577.1838785424098432
 31
0.0
  0
ARC
  5
2439D
  8
0
 10
4555.6223687809278999
 20
577.263598914733393
 30
0.0
 40
0.0797325405187388
 50
176.9293652561642034
 51
271.0010100502126988
  0
LINE
  5
2439E
  8
0
 10
4555.5427507159511151
 20
577.2678699505607938
 30
0.0
 11
4555.5428181403513008
 21
579.6349651613608103
 31
0.0
  0
ARC
  5
2439F
  8
0
 10
4560.1641296315756335
 20
574.2376903274727056
 30
0.0
 40
1.552264963746703
 50
165.7694696824613061
 51
178.8341249082600086
  0
LINE
  5
243A0
  8
0
 10
4558.6121860188313804
 20
574.2692741925607152
 30
0.0
 11
4558.6121860187549828
 21
572.4412741925751789
 31
0.0
  0
ARC
  5
243A1
  8
0
 10
4560.1641324986367181
 20
572.4728582340330831
 30
0.0
 40
1.5522678338785421
 50
181.1658794470882867
 51
194.2305101639971099
  0
ARC
  5
243A2
  8
0
 10
4555.6181873033256124
 20
574.544530244902603
 30
0.0
 40
0.0755817696212508
 50
90.8347771827843644
 51
184.2985242068725995
  0
LINE
  5
243A3
  8
0
 10
4555.6170861453510952
 20
574.6201039926606882
 30
0.0
 11
4558.6594966957518409
 21
574.619274192580292
 31
0.0
  0
LINE
  5
243A4
  8
0
 10
4558.6594966465327161
 20
572.0912741926276794
 30
0.0
 11
4555.6237617109973144
 21
572.0877785424098647
 31
0.0
  0
ARC
  5
243A5
  8
0
 10
4555.6223687809278999
 20
572.1674989147335282
 30
0.0
 40
0.0797325405187388
 50
176.9293652561642034
 51
271.0010100502126988
  0
LINE
  5
243A6
  8
0
 10
4555.5427507159511151
 20
572.1717699505608152
 30
0.0
 11
4555.5428181403513008
 21
574.5388651613608317
 31
0.0
  0
ARC
  5
243A7
  8
0
 10
4560.1641296314755891
 20
569.141590327472727
 30
0.0
 40
1.552264963746703
 50
165.7694696824613061
 51
178.8341249082600086
  0
LINE
  5
243A8
  8
0
 10
4558.6121860187313359
 20
569.1731741925607366
 30
0.0
 11
4558.6121860186549384
 21
567.3451741925752003
 31
0.0
  0
ARC
  5
243A9
  8
0
 10
4560.1641324985366737
 20
567.3767582340331046
 30
0.0
 40
1.5522678338785421
 50
181.1658794470882867
 51
194.2305101639971099
  0
ARC
  5
243AA
  8
0
 10
4555.618187303227387
 20
569.4484302449027382
 30
0.0
 40
0.0755817696212508
 50
90.8347771827843644
 51
184.2985242068725995
  0
LINE
  5
243AB
  8
0
 10
4555.6170861452510508
 20
569.5240039926608233
 30
0.0
 11
4558.659496695652706
 21
569.5231741925803135
 31
0.0
  0
LINE
  5
243AC
  8
0
 10
4558.6594966464326717
 20
566.9951741926277009
 30
0.0
 11
4555.6237617108972699
 21
566.9916785424098862
 31
0.0
  0
ARC
  5
243AD
  8
0
 10
4555.622368780826946
 20
567.0713989147335496
 30
0.0
 40
0.0797325405187388
 50
176.9293652561642034
 51
271.0010100502126988
  0
LINE
  5
243AE
  8
0
 10
4555.5427507158510707
 20
567.075669950560723
 30
0.0
 11
4555.5428181402512564
 21
569.4427651613608532
 31
0.0
  0
LINE
  5
243AF
  8
0
 10
4558.6595378590473047
 20
566.9169175163607406
 30
0.0
 11
4558.6594966464326717
 21
566.9951741926277009
 31
0.0
  0
LINE
  5
243B0
  8
0
 10
4558.6595378590473047
 20
569.601550172660609
 30
0.0
 11
4558.659496695652706
 21
569.5231741925803135
 31
0.0
  0
LINE
  5
243B1
  8
0
 10
4558.6594966465554535
 20
572.0912741926276794
 30
0.0
 11
4558.6595378590473047
 21
572.0130175163607191
 31
0.0
  0
LINE
  5
243B2
  8
0
 10
4558.6595378590473047
 20
574.6976501726607012
 30
0.0
 11
4558.6594966957518409
 21
574.619274192580292
 31
0.0
  0
LINE
  5
243B3
  8
0
 10
4558.6594966465327161
 20
577.1873741926277717
 30
0.0
 11
4558.6595378590473047
 21
577.1091175163608114
 31
0.0
  0
LINE
  5
243B4
  8
0
 10
4558.6595378590473047
 20
579.7937501726606797
 30
0.0
 11
4558.659496695740927
 21
579.7153741925802706
 31
0.0
  0
LINE
  5
243B5
  8
0
 10
4558.6594966465327161
 20
582.2834741926275228
 30
0.0
 11
4558.6595378590473047
 21
582.2052175163607899
 31
0.0
  0
LINE
  5
243B6
  8
0
 10
4558.6594966957491124
 20
584.811474192585024
 30
0.0
 11
4558.6595378590473047
 21
584.8898501726606582
 31
0.0
  0
LINE
  5
243B7
  8
0
 10
4558.6594966465290781
 20
587.379574192627615
 30
0.0
 11
4558.6595378590473047
 21
587.3013175163606547
 31
0.0
  0
LINE
  5
243B8
  8
0
 10
4558.6595378590473047
 20
589.9859501726607505
 30
0.0
 11
4558.6594966957445649
 21
589.9075741925680632
 31
0.0
  0
ARC
  5
243B9
  8
0
 10
4558.3639713284810568
 20
592.4722498184816004
 30
0.0
 40
0.3048925178335519
 50
345.7922624657280153
 51
1.2637496254914109
  0
LINE
  5
243BA
  8
0
 10
4558.2317799405673213
 20
592.5257816470931402
 30
0.0
 11
4501.7311618119647392
 21
592.5257816470931402
 31
0.0
  0
ARC
  5
243BB
  8
0
 10
4560.2300662806637774
 20
609.9050888041537064
 30
0.0
 40
1.618225219196606
 50
166.0433771215193133
 51
178.6939023676081035
  0
LINE
  5
243BC
  8
0
 10
4558.6122614938722108
 20
609.9419741925775043
 30
0.0
 11
4558.6122614661062471
 21
608.1139741925607041
 31
0.0
  0
ARC
  5
243BD
  8
0
 10
4560.2300574734954353
 20
608.1508585300022105
 30
0.0
 40
1.6182164181199781
 50
181.3060675156283139
 51
193.9566620051033112
  0
ARC
  5
243BE
  8
0
 10
4558.4057469062572636
 20
563.8113816396024731
 30
0.0
 40
0.0622799297156135
 50
173.1977761761750116
 51
267.1881793452207035
  0
ARC
  5
243BF
  8
0
 10
4558.4906605393271093
 20
563.8741803355163711
 30
0.0
 40
0.1250036442470351
 50
170.7935793664780135
 51
269.9917642786932106
  0
ARC
  5
243C0
  8
0
 10
4559.9289007042343655
 20
563.6368120584581902
 30
0.0
 40
1.595404217641563
 50
159.8966152267549887
 51
173.4515163292954867
  0
ARC
  5
243C1
  8
0
 10
4559.9531519340744126
 20
563.6371371108849644
 30
0.0
 40
1.6065806992969269
 50
160.0547695640836139
 51
170.7934697040707874
  0
ARC
  5
243C2
  8
0
 10
4558.6568202988437406
 20
564.1027125105763389
 30
0.0
 40
0.2406897594336453
 50
114.2045558551195938
 51
159.9636597905428061
  0
ARC
  5
243C3
  8
0
 10
4558.6685011537792889
 20
564.1033387432676136
 30
0.0
 40
0.2399528833841081
 50
114.1778317577520028
 51
160.0586286530833888
  0
ARC
  5
243C4
  8
0
 10
4558.4764754166753846
 20
564.5080600863121845
 30
0.0
 40
0.2029704285257853
 50
293.7245533514964109
 51
332.2072198200924049
  0
ARC
  5
243C5
  8
0
 10
4558.4898637847172722
 20
564.5030198331327256
 30
0.0
 40
0.197833514560077
 50
293.9663059948020987
 51
333.0697711040775744
  0
LINE
  5
243C6
  8
0
 10
4558.6560311232651657
 20
564.4134200150607512
 30
0.0
 11
4501.3069106292659853
 21
564.4134200150607512
 31
0.0
  0
LINE
  5
243C7
  8
0
 10
4558.6695488436471351
 20
564.4498129911607975
 30
0.0
 11
4558.6695488436471351
 21
564.4271120645606743
 31
0.0
  0
ARC
  5
243C8
  8
0
 10
4558.6394262109461124
 20
564.4271379271159503
 30
0.0
 40
0.030122643800803
 50
332.9091988378204974
 51
359.9508071867920762
  0
ARC
  5
243C9
  8
0
 10
4557.8830950569990819
 20
577.9827244868949947
 30
0.0
 40
14.4618378764934992
 50
86.9009795169141483
 51
89.780310299137895
  0
ARC
  5
243CA
  8
0
 10
4501.8225958804250695
 20
562.3641177699171294
 30
0.0
 40
0.6323766085258528
 50
181.8227499170826889
 51
269.2181125183035988
  0
ARC
  5
243CB
  8
0
 10
4501.0206136373753907
 20
563.6241028319607267
 30
0.0
 40
0.125154397011138
 50
1.3885425263785329
 51
87.9444214544952558
  0
LINE
  5
243CC
  8
0
 10
4501.1457312834872937
 20
563.6271356066901035
 30
0.0
 11
4501.1905392483986361
 21
562.3440033740295121
 31
0.0
  0
ARC
  5
243CD
  8
0
 10
4500.0189695149319959
 20
621.9973456292791525
 30
0.0
 40
0.0624999999534858
 50
359.9999999829794888
 51
87.0000001002877354
  0
CIRCLE
  5
243CE
  8
0
 10
4500.7314695148852479
 20
621.5712526925607335
 30
0.0
 40
0.09375
  0
CIRCLE
  5
243CF
  8
0
 10
4501.4814695148843384
 20
621.5712526925607335
 30
0.0
 40
0.09375
  0
CIRCLE
  5
243D0
  8
0
 10
4502.2314695148843384
 20
621.5712526925607335
 30
0.0
 40
0.09375
  0
CIRCLE
  5
243D1
  8
0
 10
4502.9814695148843384
 20
621.5712526925607335
 30
0.0
 40
0.09375
  0
CIRCLE
  5
243D2
  8
0
 10
4503.7314695148843384
 20
621.5712526925607335
 30
0.0
 40
0.09375
  0
CIRCLE
  5
243D3
  8
0
 10
4504.4814695148843384
 20
621.5712526925607335
 30
0.0
 40
0.09375
  0
CIRCLE
  5
243D4
  8
0
 10
4505.2314695148843384
 20
621.5712526925607335
 30
0.0
 40
0.09375
  0
CIRCLE
  5
243D5
  8
0
 10
4505.9814695148843384
 20
621.5712526925607335
 30
0.0
 40
0.09375
  0
CIRCLE
  5
243D6
  8
0
 10
4506.7314695148852479
 20
621.5712526925607335
 30
0.0
 40
0.09375
  0
CIRCLE
  5
243D7
  8
0
 10
4507.4814695148852479
 20
621.5712526925607335
 30
0.0
 40
0.09375
  0
CIRCLE
  5
243D8
  8
0
 10
4508.2314695148852479
 20
621.5712526925607335
 30
0.0
 40
0.09375
  0
CIRCLE
  5
243D9
  8
0
 10
4508.9814695148852479
 20
621.5712526925607335
 30
0.0
 40
0.09375
  0
CIRCLE
  5
243DA
  8
0
 10
4509.7314695148852479
 20
621.5712526925607335
 30
0.0
 40
0.09375
  0
CIRCLE
  5
243DB
  8
0
 10
4510.4814695148852479
 20
621.5712526925607335
 30
0.0
 40
0.09375
  0
CIRCLE
  5
243DC
  8
0
 10
4511.2314695148852479
 20
621.5712526925607335
 30
0.0
 40
0.09375
  0
CIRCLE
  5
243DD
  8
0
 10
4511.9814695148852479
 20
621.5712526925607335
 30
0.0
 40
0.09375
  0
CIRCLE
  5
243DE
  8
0
 10
4512.7314695148852479
 20
621.5712526925607335
 30
0.0
 40
0.09375
  0
CIRCLE
  5
243DF
  8
0
 10
4513.4814695148852479
 20
621.5712526925607335
 30
0.0
 40
0.09375
  0
CIRCLE
  5
243E0
  8
0
 10
4514.2314695148852479
 20
621.5712526925607335
 30
0.0
 40
0.09375
  0
CIRCLE
  5
243E1
  8
0
 10
4514.9814695148852479
 20
621.5712526925607335
 30
0.0
 40
0.09375
  0
CIRCLE
  5
243E2
  8
0
 10
4515.7314695148852479
 20
621.5712526925607335
 30
0.0
 40
0.09375
  0
CIRCLE
  5
243E3
  8
0
 10
4516.4814695148852479
 20
621.5712526925607335
 30
0.0
 40
0.09375
  0
CIRCLE
  5
243E4
  8
0
 10
4517.2314695148852479
 20
621.5712526925607335
 30
0.0
 40
0.09375
  0
CIRCLE
  5
243E5
  8
0
 10
4517.9814695148852479
 20
621.5712526925607335
 30
0.0
 40
0.09375
  0
CIRCLE
  5
243E6
  8
0
 10
4518.7314695148852479
 20
621.5712526925607335
 30
0.0
 40
0.09375
  0
CIRCLE
  5
243E7
  8
0
 10
4519.4814695148852479
 20
621.5712526925607335
 30
0.0
 40
0.09375
  0
CIRCLE
  5
243E8
  8
0
 10
4520.2314695148852479
 20
621.5712526925607335
 30
0.0
 40
0.09375
  0
CIRCLE
  5
243E9
  8
0
 10
4520.9814695148852479
 20
621.5712526925607335
 30
0.0
 40
0.09375
  0
CIRCLE
  5
243EA
  8
0
 10
4529.2314695147852035
 20
621.5712526925607335
 30
0.0
 40
0.09375
  0
CIRCLE
  5
243EB
  8
0
 10
4528.4814695147852035
 20
621.5712526925607335
 30
0.0
 40
0.09375
  0
CIRCLE
  5
243EC
  8
0
 10
4527.7314695147852035
 20
621.5712526925607335
 30
0.0
 40
0.09375
  0
CIRCLE
  5
243ED
  8
0
 10
4526.9814695147852035
 20
621.5712526925607335
 30
0.0
 40
0.09375
  0
CIRCLE
  5
243EE
  8
0
 10
4526.2314695147852035
 20
621.5712526925607335
 30
0.0
 40
0.09375
  0
CIRCLE
  5
243EF
  8
0
 10
4525.4814695147852035
 20
621.5712526925607335
 30
0.0
 40
0.09375
  0
CIRCLE
  5
243F0
  8
0
 10
4524.7314695147852035
 20
621.5712526925607335
 30
0.0
 40
0.09375
  0
CIRCLE
  5
243F1
  8
0
 10
4523.9814695147852035
 20
621.5712526925607335
 30
0.0
 40
0.09375
  0
CIRCLE
  5
243F2
  8
0
 10
4523.231469514786113
 20
621.5712526925607335
 30
0.0
 40
0.09375
  0
CIRCLE
  5
243F3
  8
0
 10
4522.481469514786113
 20
621.5712526925607335
 30
0.0
 40
0.09375
  0
CIRCLE
  5
243F4
  8
0
 10
4521.731469514786113
 20
621.5712526925607335
 30
0.0
 40
0.09375
  0
ARC
  5
243F5
  8
0
 10
4500.5215498669040244
 20
608.7802292625486871
 30
0.0
 40
13.2924619577110192
 50
90.9490273167233454
 51
91.5913717002701446
  0
ARC
  5
243F6
  8
0
 10
4500.1595630784668174
 20
622.0026937585668065
 30
0.0
 40
0.0652645652224314
 50
96.2980609704425206
 51
106.8398016719291945
  0
ARC
  5
243F7
  8
0
 10
4500.1416456689266852
 20
622.0618371104063726
 30
0.0
 40
0.0034667890539801
 50
106.5845051380293995
 51
156.1948510659316867
  0
LINE
  5
243F8
  8
0
 10
4500.1384738225006004
 20
622.0632364018689486
 30
0.0
 11
4500.0814695148537794
 21
621.9677168050288856
 31
0.0
  0
ARC
  5
243F9
  8
0
 10
4500.1442128007411156
 20
620.8648540708279597
 30
0.0
 40
0.0631070482025065
 50
186.1548244795978917
 51
266.806417493453182
  0
LINE
  5
243FA
  8
0
 10
4500.1406971277247067
 20
620.8018450271428037
 30
0.0
 11
4500.9010879593006393
 21
620.7619841815601376
 31
0.0
  0
ARC
  5
243FB
  8
0
 10
4500.8875098177213658
 20
620.5041790824261625
 30
0.0
 40
0.2581624199379199
 50
359.9994696005675223
 51
86.9851176132203108
  0
LINE
  5
243FC
  8
0
 10
4501.145672237646977
 20
620.5041766925606908
 30
0.0
 11
4501.1456695148863218
 21
563.8741766925606953
 31
0.0
  0
ARC
  5
243FD
  8
0
 10
4501.0205292728942368
 20
563.8742333449883972
 30
0.0
 40
0.1251402548152468
 50
272.0944627186971729
 51
359.9740615430495723
  0
ARC
  5
243FE
  8
0
 10
4499.7345312311772432
 20
620.0975103669727559
 30
0.0
 40
1.6165649126030699
 50
1.299682892622533
 51
13.9631559315515705
  0
LINE
  5
243FF
  8
0
 10
4501.3506802579995565
 20
620.134176969701457
 30
0.0
 11
4501.3506802586853155
 21
618.3061741925606611
 31
0.0
  0
ARC
  5
24400
  8
0
 10
4499.7328864520923162
 20
618.3430581117859219
 30
0.0
 40
1.618214208364283
 50
346.0433338061095014
 51
358.6939455120976845
  0
ARC
  5
24401
  8
0
 10
4511.6394677640682858
 20
620.4027945594434641
 30
0.0
 40
0.082590736034968
 50
3.942111706233248
 51
81.2913706712691635
  0
LINE
  5
24402
  8
0
 10
4511.6519728022858544
 20
620.4844331146606464
 30
0.0
 11
4504.5108628703846989
 21
620.4869156662606429
 31
0.0
  0
ARC
  5
24403
  8
0
 10
4504.5201308214345772
 20
620.4014692974784566
 30
0.0
 40
0.0859475238429649
 50
96.1903935601906568
 51
175.3450164775254052
  0
LINE
  5
24404
  8
0
 10
4504.4344667991854294
 20
620.4084444065606476
 30
0.0
 11
4504.4344759442847135
 21
618.0318758113496642
 31
0.0
  0
ARC
  5
24405
  8
0
 10
4504.5167102554069061
 20
618.0374056768040418
 30
0.0
 40
0.0824200299533133
 50
183.8470763153692076
 51
261.3864160044975051
  0
LINE
  5
24406
  8
0
 10
4504.5043662273847076
 20
617.9559152705606948
 30
0.0
 11
4511.645476152185438
 21
617.9534327188607676
 31
0.0
  0
ARC
  5
24407
  8
0
 10
4511.6362140786586679
 20
618.0388733725674228
 30
0.0
 40
0.0859412084614658
 50
276.1869088070799876
 51
355.3485027668336897
  0
LINE
  5
24408
  8
0
 10
4511.721872230585177
 20
618.0319039880607761
 30
0.0
 11
4511.7218630919851421
 21
620.4084725534607969
 31
0.0
  0
ARC
  5
24409
  8
0
 10
4504.3406045976662426
 20
620.4079460917919278
 30
0.0
 40
0.0796300539901669
 50
356.9903457378686085
 51
90.9176753425472413
  0
LINE
  5
2440A
  8
0
 10
4504.3393292609243872
 20
620.487565932376242
 30
0.0
 11
4501.3033284184857621
 21
620.4875840802011453
 31
0.0
  0
LINE
  5
2440B
  8
0
 10
4501.3033284178709437
 20
617.9527643041609508
 30
0.0
 11
4504.3391810172379337
 21
617.9526303267192588
 31
0.0
  0
ARC
  5
2440C
  8
0
 10
4504.3404204763446614
 20
618.0325001771286679
 30
0.0
 40
0.0798794670943839
 50
269.1109276478118773
 51
2.9922440426830921
  0
LINE
  5
2440D
  8
0
 10
4504.4201910365864023
 20
618.0366699471607035
 30
0.0
 11
4504.4201248180852417
 21
620.40376517766083
 31
0.0
  0
LINE
  5
2440E
  8
0
 10
4500.0814695148847022
 20
621.9973456292607352
 30
0.0
 11
4500.0814695136632508
 21
620.8580880188441142
 31
0.0
  0
ARC
  5
2440F
  8
0
 10
4506.9600986895347887
 20
550.3100052376212261
 30
0.0
 40
1.29566681802296
 50
199.9400361569529139
 51
262.7029947938511896
  0
ARC
  5
24410
  8
0
 10
4529.4337173135181729
 20
561.0680623475058155
 30
0.0
 40
26.2055482306979499
 50
182.6631481929044014
 51
205.3018855942688958
  0
LINE
  5
24411
  8
0
 10
4499.9814695148852479
 20
622.0618966925607083
 30
0.0
 11
4499.9814695148852479
 21
564.2995322409607297
 31
0.0
  0
ARC
  5
24412
  8
0
 10
4502.1565734218220314
 20
595.053626446370231
 30
0.0
 40
0.7885450019640446
 50
183.6435038812498988
 51
265.5337334520377794
  0
ARC
  5
24413
  8
0
 10
4501.7158893540699864
 20
589.2228163017916813
 30
0.0
 40
3.3030006539860381
 50
89.7350740765655246
 51
97.2517978587669631
  0
LINE
  5
24414
  8
0
 10
4500.0222405151853309
 20
622.0597599749606843
 30
0.0
 11
4499.9814695148852479
 21
622.0618966925607083
 31
0.0
  0
ARC
  5
24415
  8
0
 10
4504.0801878718411899
 20
644.6895262431531819
 30
0.0
 40
23.8808080705674399
 50
263.9089540979667845
 51
270.8323847087735885
  0
ARC
  5
24416
  8
0
 10
4500.5174233711222769
 20
616.0561701963081305
 30
0.0
 40
4.994475415925443
 50
78.112639939368222
 51
86.9725203722566107
  0
ARC
  5
24417
  8
0
 10
-4328.784382164651106
 20
-167535.9393084589974023
 30
0.0
 40
168388.6342796013050247
 50
86.9942807629816315
 51
86.9944453648086551
  0
ARC
  5
24418
  8
0
 10
4500.3014744245865586
 20
621.1314983321085492
 30
0.0
 40
0.0625483017807696
 50
180.1467563129814948
 51
266.9232501539567011
  0
LINE
  5
24419
  8
0
 10
4500.2389263279856095
 20
621.1313381222606722
 30
0.0
 11
4500.2389263279856095
 21
622.0014131755607423
 31
0.0
  0
ARC
  5
2441A
  8
0
 10
4500.1680814031451519
 20
621.9977495860025556
 30
0.0
 40
0.0709395888361981
 50
2.9602883554346788
 51
83.3205326536761959
  0
LINE
  5
2441B
  8
0
 10
4500.0253443819847234
 20
542.9991766925605816
 30
0.0
 11
4500.0253392651848117
 21
563.5491933059170151
 31
0.0
  0
ARC
  5
2441C
  8
0
 10
4518.9405677640670547
 20
620.4027945594434641
 30
0.0
 40
0.082590736034968
 50
3.942111706233248
 51
81.2913706712691635
  0
LINE
  5
2441D
  8
0
 10
4518.9530728022846233
 20
620.4844331146606464
 30
0.0
 11
4511.8119628703843773
 21
620.4869156662606429
 31
0.0
  0
ARC
  5
2441E
  8
0
 10
4511.8212308214351651
 20
620.4014692974784566
 30
0.0
 40
0.0859475238429649
 50
96.1903935601906568
 51
175.3450164775254052
  0
LINE
  5
2441F
  8
0
 10
4511.7355667991851078
 20
620.4084444065606476
 30
0.0
 11
4511.7355759442843919
 21
618.0318758113496642
 31
0.0
  0
ARC
  5
24420
  8
0
 10
4511.8178102554065845
 20
618.0374056768040418
 30
0.0
 40
0.0824200299533133
 50
183.8470763153692076
 51
261.3864160044975051
  0
LINE
  5
24421
  8
0
 10
4511.8054662273852955
 20
617.9559152705606948
 30
0.0
 11
4518.9465761521851164
 21
617.9534327188607676
 31
0.0
  0
ARC
  5
24422
  8
0
 10
4518.9373140786592558
 20
618.0388733725674228
 30
0.0
 40
0.0859412084614658
 50
276.1869088070799876
 51
355.3485027668336897
  0
LINE
  5
24423
  8
0
 10
4519.0229722305857649
 20
618.0319039880607761
 30
0.0
 11
4519.02296309198573
 21
620.4084725534607969
 31
0.0
  0
ARC
  5
24424
  8
0
 10
4526.2416677640667331
 20
620.4027945594434641
 30
0.0
 40
0.082590736034968
 50
3.942111706233248
 51
81.2913706712691635
  0
LINE
  5
24425
  8
0
 10
4526.2541728022852112
 20
620.4844331146606464
 30
0.0
 11
4519.1130628703858747
 21
620.4869156662606429
 31
0.0
  0
ARC
  5
24426
  8
0
 10
4519.122330821433934
 20
620.4014692974784566
 30
0.0
 40
0.0859475238429649
 50
96.1903935601906568
 51
175.3450164775254052
  0
LINE
  5
24427
  8
0
 10
4519.0366667991856957
 20
620.4084444065606476
 30
0.0
 11
4519.0366759442849798
 21
618.0318758113496642
 31
0.0
  0
ARC
  5
24428
  8
0
 10
4519.1189102554062629
 20
618.0374056768040418
 30
0.0
 40
0.0824200299533133
 50
183.8470763153692076
 51
261.3864160044975051
  0
LINE
  5
24429
  8
0
 10
4519.1065662273840644
 20
617.9559152705606948
 30
0.0
 11
4526.2476761521857043
 21
617.9534327188607676
 31
0.0
  0
ARC
  5
2442A
  8
0
 10
4526.2384140786580247
 20
618.0388733725674228
 30
0.0
 40
0.0859412084614658
 50
276.1869088070799876
 51
355.3485027668336897
  0
LINE
  5
2442B
  8
0
 10
4526.3240722305854433
 20
618.0319039880607761
 30
0.0
 11
4526.3240630919854084
 21
620.4084725534607969
 31
0.0
  0
ARC
  5
2442C
  8
0
 10
4529.892217764067027
 20
617.8547445594434748
 30
0.0
 40
0.082590736034968
 50
3.942111706233248
 51
81.2913706712691635
  0
LINE
  5
2442D
  8
0
 10
4529.9047228022845957
 20
617.9363831146606572
 30
0.0
 11
4522.7636128703852592
 21
617.9388656662607673
 31
0.0
  0
ARC
  5
2442E
  8
0
 10
4522.7728808214351375
 20
617.8534192974783537
 30
0.0
 40
0.0859475238429649
 50
96.1903935601906568
 51
175.3450164775254052
  0
LINE
  5
2442F
  8
0
 10
4522.6872167991850802
 20
617.8603944065606584
 30
0.0
 11
4522.6872259442852737
 21
615.4838258113499023
 31
0.0
  0
ARC
  5
24430
  8
0
 10
4522.7694602554065568
 20
615.4893556768040526
 30
0.0
 40
0.0824200299533133
 50
183.8470763153692076
 51
261.3864160044975051
  0
LINE
  5
24431
  8
0
 10
4522.7571162273852678
 20
615.4078652705607055
 30
0.0
 11
4529.8982261521850887
 21
615.4053827188606647
 31
0.0
  0
ARC
  5
24432
  8
0
 10
4529.8889640786592281
 20
615.4908233725674336
 30
0.0
 40
0.0859412084614658
 50
276.1869088070799876
 51
355.3485027668336897
  0
LINE
  5
24433
  8
0
 10
4529.9746222305848278
 20
615.4838539880606731
 30
0.0
 11
4529.9746130919857023
 21
617.860422553460694
 31
0.0
  0
ARC
  5
24434
  8
0
 10
4522.5911177640682581
 20
617.8547445594434748
 30
0.0
 40
0.082590736034968
 50
3.942111706233248
 51
81.2913706712691635
  0
LINE
  5
24435
  8
0
 10
4522.6036228022849173
 20
617.9363831146606572
 30
0.0
 11
4515.4625128703846713
 21
617.9388656662607673
 31
0.0
  0
ARC
  5
24436
  8
0
 10
4515.4717808214345496
 20
617.8534192974783537
 30
0.0
 40
0.0859475238429649
 50
96.1903935601906568
 51
175.3450164775254052
  0
LINE
  5
24437
  8
0
 10
4515.3861167991854018
 20
617.8603944065606584
 30
0.0
 11
4515.3861259442837763
 21
615.4838258113499023
 31
0.0
  0
ARC
  5
24438
  8
0
 10
4515.4683602554068784
 20
615.4893556768040526
 30
0.0
 40
0.0824200299533133
 50
183.8470763153692076
 51
261.3864160044975051
  0
LINE
  5
24439
  8
0
 10
4515.45601622738468
 20
615.4078652705607055
 30
0.0
 11
4522.5971261521854103
 21
615.4053827188606647
 31
0.0
  0
ARC
  5
2443A
  8
0
 10
4522.5878640786577307
 20
615.4908233725674336
 30
0.0
 40
0.0859412084614658
 50
276.1869088070799876
 51
355.3485027668336897
  0
LINE
  5
2443B
  8
0
 10
4522.6735222305860589
 20
615.4838539880606731
 30
0.0
 11
4522.6735130919851144
 21
617.860422553460694
 31
0.0
  0
ARC
  5
2443C
  8
0
 10
4515.2900177640667607
 20
617.8547445594434748
 30
0.0
 40
0.082590736034968
 50
3.942111706233248
 51
81.2913706712691635
  0
LINE
  5
2443D
  8
0
 10
4515.3025228022861484
 20
617.9363831146606572
 30
0.0
 11
4508.1614128703849929
 21
617.9388656662607673
 31
0.0
  0
ARC
  5
2443E
  8
0
 10
4508.1706808214348712
 20
617.8534192974783537
 30
0.0
 40
0.0859475238429649
 50
96.1903935601906568
 51
175.3450164775254052
  0
LINE
  5
2443F
  8
0
 10
4508.0850167991848139
 20
617.8603944065606584
 30
0.0
 11
4508.0850259442850074
 21
615.4838258113499023
 31
0.0
  0
ARC
  5
24440
  8
0
 10
4508.1672602554072
 20
615.4893556768040526
 30
0.0
 40
0.0824200299533133
 50
183.8470763153692076
 51
261.3864160044975051
  0
LINE
  5
24441
  8
0
 10
4508.1549162273850015
 20
615.4078652705607055
 30
0.0
 11
4515.2960261521848224
 21
615.4053827188606647
 31
0.0
  0
ARC
  5
24442
  8
0
 10
4515.2867640786580523
 20
615.4908233725674336
 30
0.0
 40
0.0859412084614658
 50
276.1869088070799876
 51
355.3485027668336897
  0
LINE
  5
24443
  8
0
 10
4515.3724222305845615
 20
615.4838539880606731
 30
0.0
 11
4515.372413091985436
 21
617.860422553460694
 31
0.0
  0
ARC
  5
24444
  8
0
 10
4526.2416677640667331
 20
615.3066945594433719
 30
0.0
 40
0.082590736034968
 50
3.942111706233248
 51
81.2913706712691635
  0
LINE
  5
24445
  8
0
 10
4526.2541728022852112
 20
615.3883331146607816
 30
0.0
 11
4519.1130628703858747
 21
615.3908156662605506
 31
0.0
  0
ARC
  5
24446
  8
0
 10
4519.122330821433934
 20
615.3053692974783644
 30
0.0
 40
0.0859475238429649
 50
96.1903935601906568
 51
175.3450164775254052
  0
LINE
  5
24447
  8
0
 10
4519.0366667991856957
 20
615.3123444065607828
 30
0.0
 11
4519.0366759442849798
 21
612.9357758113496857
 31
0.0
  0
ARC
  5
24448
  8
0
 10
4519.1189102554062629
 20
612.9413056768039496
 30
0.0
 40
0.0824200299533133
 50
183.8470763153692076
 51
261.3864160044975051
  0
LINE
  5
24449
  8
0
 10
4519.1065662273840644
 20
612.8598152705607163
 30
0.0
 11
4526.2476761521857043
 21
612.8573327188607891
 31
0.0
  0
ARC
  5
2444A
  8
0
 10
4526.2384140786580247
 20
612.9427733725674443
 30
0.0
 40
0.0859412084614658
 50
276.1869088070799876
 51
355.3485027668336897
  0
LINE
  5
2444B
  8
0
 10
4526.3240722305854433
 20
612.9358039880606839
 30
0.0
 11
4526.3240630919854084
 21
615.3123725534607047
 31
0.0
  0
ARC
  5
2444C
  8
0
 10
4518.9405677640670547
 20
615.3066945594433719
 30
0.0
 40
0.082590736034968
 50
3.942111706233248
 51
81.2913706712691635
  0
LINE
  5
2444D
  8
0
 10
4518.9530728022846233
 20
615.3883331146607816
 30
0.0
 11
4511.8119628703843773
 21
615.3908156662605506
 31
0.0
  0
ARC
  5
2444E
  8
0
 10
4511.8212308214351651
 20
615.3053692974783644
 30
0.0
 40
0.0859475238429649
 50
96.1903935601906568
 51
175.3450164775254052
  0
LINE
  5
2444F
  8
0
 10
4511.7355667991851078
 20
615.3123444065607828
 30
0.0
 11
4511.7355759442843919
 21
612.9357758113496857
 31
0.0
  0
ARC
  5
24450
  8
0
 10
4511.8178102554065845
 20
612.9413056768039496
 30
0.0
 40
0.0824200299533133
 50
183.8470763153692076
 51
261.3864160044975051
  0
LINE
  5
24451
  8
0
 10
4511.8054662273852955
 20
612.8598152705607163
 30
0.0
 11
4518.9465761521851164
 21
612.8573327188607891
 31
0.0
  0
ARC
  5
24452
  8
0
 10
4518.9373140786592558
 20
612.9427733725674443
 30
0.0
 40
0.0859412084614658
 50
276.1869088070799876
 51
355.3485027668336897
  0
LINE
  5
24453
  8
0
 10
4519.0229722305857649
 20
612.9358039880606839
 30
0.0
 11
4519.02296309198573
 21
615.3123725534607047
 31
0.0
  0
ARC
  5
24454
  8
0
 10
4511.6394677640682858
 20
615.3066945594433719
 30
0.0
 40
0.082590736034968
 50
3.942111706233248
 51
81.2913706712691635
  0
LINE
  5
24455
  8
0
 10
4511.6519728022858544
 20
615.3883331146607816
 30
0.0
 11
4504.5108628703846989
 21
615.3908156662605506
 31
0.0
  0
ARC
  5
24456
  8
0
 10
4504.5201308214345772
 20
615.3053692974783644
 30
0.0
 40
0.0859475238429649
 50
96.1903935601906568
 51
175.3450164775254052
  0
LINE
  5
24457
  8
0
 10
4504.4344667991854294
 20
615.3123444065607828
 30
0.0
 11
4504.4344759442847135
 21
612.9357758113496857
 31
0.0
  0
ARC
  5
24458
  8
0
 10
4504.5167102554069061
 20
612.9413056768039496
 30
0.0
 40
0.0824200299533133
 50
183.8470763153692076
 51
261.3864160044975051
  0
LINE
  5
24459
  8
0
 10
4504.5043662273847076
 20
612.8598152705607163
 30
0.0
 11
4511.645476152185438
 21
612.8573327188607891
 31
0.0
  0
ARC
  5
2445A
  8
0
 10
4511.6362140786586679
 20
612.9427733725674443
 30
0.0
 40
0.0859412084614658
 50
276.1869088070799876
 51
355.3485027668336897
  0
LINE
  5
2445B
  8
0
 10
4511.721872230585177
 20
612.9358039880606839
 30
0.0
 11
4511.7218630919851421
 21
615.3123725534607047
 31
0.0
  0
ARC
  5
2445C
  8
0
 10
4515.2900177640667607
 20
612.7586445594434963
 30
0.0
 40
0.082590736034968
 50
3.942111706233248
 51
81.2913706712691635
  0
LINE
  5
2445D
  8
0
 10
4515.3025228022861484
 20
612.8402831146606786
 30
0.0
 11
4508.1614128703849929
 21
612.8427656662606751
 31
0.0
  0
ARC
  5
2445E
  8
0
 10
4508.1706808214348712
 20
612.7573192974784888
 30
0.0
 40
0.0859475238429649
 50
96.1903935601906568
 51
175.3450164775254052
  0
LINE
  5
2445F
  8
0
 10
4508.0850167991848139
 20
612.7642944065606798
 30
0.0
 11
4508.0850259442850074
 21
610.3877258113498101
 31
0.0
  0
ARC
  5
24460
  8
0
 10
4508.1672602554072
 20
610.3932556768039603
 30
0.0
 40
0.0824200299533133
 50
183.8470763153692076
 51
261.3864160044975051
  0
LINE
  5
24461
  8
0
 10
4508.1549162273850015
 20
610.311765270560727
 30
0.0
 11
4515.2960261521848224
 21
610.3092827188607998
 31
0.0
  0
ARC
  5
24462
  8
0
 10
4515.2867640786580523
 20
610.394723372567455
 30
0.0
 40
0.0859412084614658
 50
276.1869088070799876
 51
355.3485027668336897
  0
LINE
  5
24463
  8
0
 10
4515.3724222305845615
 20
610.3877539880608083
 30
0.0
 11
4515.372413091985436
 21
612.7643225534608291
 31
0.0
  0
ARC
  5
24464
  8
0
 10
4522.5911177640682581
 20
612.7586445594434963
 30
0.0
 40
0.082590736034968
 50
3.942111706233248
 51
81.2913706712691635
  0
LINE
  5
24465
  8
0
 10
4522.6036228022849173
 20
612.8402831146606786
 30
0.0
 11
4515.4625128703846713
 21
612.8427656662606751
 31
0.0
  0
ARC
  5
24466
  8
0
 10
4515.4717808214345496
 20
612.7573192974784888
 30
0.0
 40
0.0859475238429649
 50
96.1903935601906568
 51
175.3450164775254052
  0
LINE
  5
24467
  8
0
 10
4515.3861167991854018
 20
612.7642944065606798
 30
0.0
 11
4515.3861259442837763
 21
610.3877258113498101
 31
0.0
  0
ARC
  5
24468
  8
0
 10
4515.4683602554068784
 20
610.3932556768039603
 30
0.0
 40
0.0824200299533133
 50
183.8470763153692076
 51
261.3864160044975051
  0
LINE
  5
24469
  8
0
 10
4515.45601622738468
 20
610.311765270560727
 30
0.0
 11
4522.5971261521854103
 21
610.3092827188607998
 31
0.0
  0
ARC
  5
2446A
  8
0
 10
4522.5878640786577307
 20
610.394723372567455
 30
0.0
 40
0.0859412084614658
 50
276.1869088070799876
 51
355.3485027668336897
  0
LINE
  5
2446B
  8
0
 10
4522.6735222305860589
 20
610.3877539880608083
 30
0.0
 11
4522.6735130919851144
 21
612.7643225534608291
 31
0.0
  0
ARC
  5
2446C
  8
0
 10
4529.892217764067027
 20
612.7586445594434963
 30
0.0
 40
0.082590736034968
 50
3.942111706233248
 51
81.2913706712691635
  0
LINE
  5
2446D
  8
0
 10
4529.9047228022845957
 20
612.8402831146606786
 30
0.0
 11
4522.7636128703852592
 21
612.8427656662606751
 31
0.0
  0
ARC
  5
2446E
  8
0
 10
4522.7728808214351375
 20
612.7573192974784888
 30
0.0
 40
0.0859475238429649
 50
96.1903935601906568
 51
175.3450164775254052
  0
LINE
  5
2446F
  8
0
 10
4522.6872167991850802
 20
612.7642944065606798
 30
0.0
 11
4522.6872259442852737
 21
610.3877258113498101
 31
0.0
  0
ARC
  5
24470
  8
0
 10
4522.7694602554065568
 20
610.3932556768039603
 30
0.0
 40
0.0824200299533133
 50
183.8470763153692076
 51
261.3864160044975051
  0
LINE
  5
24471
  8
0
 10
4522.7571162273852678
 20
610.311765270560727
 30
0.0
 11
4529.8982261521850887
 21
610.3092827188607998
 31
0.0
  0
ARC
  5
24472
  8
0
 10
4529.8889640786592281
 20
610.394723372567455
 30
0.0
 40
0.0859412084614658
 50
276.1869088070799876
 51
355.3485027668336897
  0
LINE
  5
24473
  8
0
 10
4529.9746222305848278
 20
610.3877539880608083
 30
0.0
 11
4529.9746130919857023
 21
612.7643225534608291
 31
0.0
  0
ARC
  5
24474
  8
0
 10
4526.2416677640667331
 20
610.210594559443507
 30
0.0
 40
0.082590736034968
 50
3.942111706233248
 51
81.2913706712691635
  0
LINE
  5
24475
  8
0
 10
4526.2541728022852112
 20
610.2922331146606894
 30
0.0
 11
4519.1130628703858747
 21
610.2947156662605721
 31
0.0
  0
ARC
  5
24476
  8
0
 10
4519.122330821433934
 20
610.2092692974783859
 30
0.0
 40
0.0859475238429649
 50
96.1903935601906568
 51
175.3450164775254052
  0
LINE
  5
24477
  8
0
 10
4519.0366667991856957
 20
610.2162444065608042
 30
0.0
 11
4519.0366759442849798
 21
607.8396758113498208
 31
0.0
  0
ARC
  5
24478
  8
0
 10
4519.1189102554062629
 20
607.8452056768040848
 30
0.0
 40
0.0824200299533133
 50
183.8470763153692076
 51
261.3864160044975051
  0
LINE
  5
24479
  8
0
 10
4519.1065662273840644
 20
607.7637152705607377
 30
0.0
 11
4526.2476761521857043
 21
607.7612327188606969
 31
0.0
  0
ARC
  5
2447A
  8
0
 10
4526.2384140786580247
 20
607.8466733725673521
 30
0.0
 40
0.0859412084614658
 50
276.1869088070799876
 51
355.3485027668336897
  0
LINE
  5
2447B
  8
0
 10
4526.3240722305854433
 20
607.8397039880607053
 30
0.0
 11
4526.3240630919854084
 21
610.2162725534607262
 31
0.0
  0
ARC
  5
2447C
  8
0
 10
4518.9405677640670547
 20
610.210594559443507
 30
0.0
 40
0.082590736034968
 50
3.942111706233248
 51
81.2913706712691635
  0
LINE
  5
2447D
  8
0
 10
4518.9530728022846233
 20
610.2922331146606894
 30
0.0
 11
4511.8119628703843773
 21
610.2947156662605721
 31
0.0
  0
ARC
  5
2447E
  8
0
 10
4511.8212308214351651
 20
610.2092692974783859
 30
0.0
 40
0.0859475238429649
 50
96.1903935601906568
 51
175.3450164775254052
  0
LINE
  5
2447F
  8
0
 10
4511.7355667991851078
 20
610.2162444065608042
 30
0.0
 11
4511.7355759442843919
 21
607.8396758113498208
 31
0.0
  0
ARC
  5
24480
  8
0
 10
4511.8178102554065845
 20
607.8452056768040848
 30
0.0
 40
0.0824200299533133
 50
183.8470763153692076
 51
261.3864160044975051
  0
LINE
  5
24481
  8
0
 10
4511.8054662273852955
 20
607.7637152705607377
 30
0.0
 11
4518.9465761521851164
 21
607.7612327188606969
 31
0.0
  0
ARC
  5
24482
  8
0
 10
4518.9373140786592558
 20
607.8466733725673521
 30
0.0
 40
0.0859412084614658
 50
276.1869088070799876
 51
355.3485027668336897
  0
LINE
  5
24483
  8
0
 10
4519.0229722305857649
 20
607.8397039880607053
 30
0.0
 11
4519.02296309198573
 21
610.2162725534607262
 31
0.0
  0
ARC
  5
24484
  8
0
 10
4511.6394677640682858
 20
610.210594559443507
 30
0.0
 40
0.082590736034968
 50
3.942111706233248
 51
81.2913706712691635
  0
LINE
  5
24485
  8
0
 10
4511.6519728022858544
 20
610.2922331146606894
 30
0.0
 11
4504.5108628703846989
 21
610.2947156662605721
 31
0.0
  0
ARC
  5
24486
  8
0
 10
4504.5201308214345772
 20
610.2092692974783859
 30
0.0
 40
0.0859475238429649
 50
96.1903935601906568
 51
175.3450164775254052
  0
LINE
  5
24487
  8
0
 10
4504.4344667991854294
 20
610.2162444065608042
 30
0.0
 11
4504.4344759442847135
 21
607.8396758113498208
 31
0.0
  0
ARC
  5
24488
  8
0
 10
4504.5167102554069061
 20
607.8452056768040848
 30
0.0
 40
0.0824200299533133
 50
183.8470763153692076
 51
261.3864160044975051
  0
LINE
  5
24489
  8
0
 10
4504.5043662273847076
 20
607.7637152705607377
 30
0.0
 11
4511.645476152185438
 21
607.7612327188606969
 31
0.0
  0
ARC
  5
2448A
  8
0
 10
4511.6362140786586679
 20
607.8466733725673521
 30
0.0
 40
0.0859412084614658
 50
276.1869088070799876
 51
355.3485027668336897
  0
LINE
  5
2448B
  8
0
 10
4511.721872230585177
 20
607.8397039880607053
 30
0.0
 11
4511.7218630919851421
 21
610.2162725534607262
 31
0.0
  0
ARC
  5
2448C
  8
0
 10
4515.2900177640667607
 20
607.6625445594435178
 30
0.0
 40
0.082590736034968
 50
3.942111706233248
 51
81.2913706712691635
  0
LINE
  5
2448D
  8
0
 10
4515.3025228022861484
 20
607.7441831146607001
 30
0.0
 11
4508.1614128703849929
 21
607.7466656662606965
 31
0.0
  0
ARC
  5
2448E
  8
0
 10
4508.1706808214348712
 20
607.6612192974785103
 30
0.0
 40
0.0859475238429649
 50
96.1903935601906568
 51
175.3450164775254052
  0
LINE
  5
2448F
  8
0
 10
4508.0850167991848139
 20
607.6681944065605876
 30
0.0
 11
4508.0850259442850074
 21
605.2916258113498316
 31
0.0
  0
ARC
  5
24490
  8
0
 10
4508.1672602554072
 20
605.2971556768039818
 30
0.0
 40
0.0824200299533133
 50
183.8470763153692076
 51
261.3864160044975051
  0
LINE
  5
24491
  8
0
 10
4508.1549162273850015
 20
605.2156652705606348
 30
0.0
 11
4515.2960261521848224
 21
605.2131827188608213
 31
0.0
  0
ARC
  5
24492
  8
0
 10
4515.2867640786580523
 20
605.2986233725674765
 30
0.0
 40
0.0859412084614658
 50
276.1869088070799876
 51
355.3485027668336897
  0
LINE
  5
24493
  8
0
 10
4515.3724222305845615
 20
605.2916539880608298
 30
0.0
 11
4515.372413091985436
 21
607.6682225534607369
 31
0.0
  0
ARC
  5
24494
  8
0
 10
4522.5911177640682581
 20
607.6625445594435178
 30
0.0
 40
0.082590736034968
 50
3.942111706233248
 51
81.2913706712691635
  0
LINE
  5
24495
  8
0
 10
4522.6036228022849173
 20
607.7441831146607001
 30
0.0
 11
4515.4625128703846713
 21
607.7466656662606965
 31
0.0
  0
ARC
  5
24496
  8
0
 10
4515.4717808214345496
 20
607.6612192974785103
 30
0.0
 40
0.0859475238429649
 50
96.1903935601906568
 51
175.3450164775254052
  0
LINE
  5
24497
  8
0
 10
4515.3861167991854018
 20
607.6681944065605876
 30
0.0
 11
4515.3861259442837763
 21
605.2916258113498316
 31
0.0
  0
ARC
  5
24498
  8
0
 10
4515.4683602554068784
 20
605.2971556768039818
 30
0.0
 40
0.0824200299533133
 50
183.8470763153692076
 51
261.3864160044975051
  0
LINE
  5
24499
  8
0
 10
4515.45601622738468
 20
605.2156652705606348
 30
0.0
 11
4522.5971261521854103
 21
605.2131827188608213
 31
0.0
  0
ARC
  5
2449A
  8
0
 10
4522.5878640786577307
 20
605.2986233725674765
 30
0.0
 40
0.0859412084614658
 50
276.1869088070799876
 51
355.3485027668336897
  0
LINE
  5
2449B
  8
0
 10
4522.6735222305860589
 20
605.2916539880608298
 30
0.0
 11
4522.6735130919851144
 21
607.6682225534607369
 31
0.0
  0
ARC
  5
2449C
  8
0
 10
4529.892217764067027
 20
607.6625445594435178
 30
0.0
 40
0.082590736034968
 50
3.942111706233248
 51
81.2913706712691635
  0
LINE
  5
2449D
  8
0
 10
4529.9047228022845957
 20
607.7441831146607001
 30
0.0
 11
4522.7636128703852592
 21
607.7466656662606965
 31
0.0
  0
ARC
  5
2449E
  8
0
 10
4522.7728808214351375
 20
607.6612192974785103
 30
0.0
 40
0.0859475238429649
 50
96.1903935601906568
 51
175.3450164775254052
  0
LINE
  5
2449F
  8
0
 10
4522.6872167991850802
 20
607.6681944065605876
 30
0.0
 11
4522.6872259442852737
 21
605.2916258113498316
 31
0.0
  0
ARC
  5
244A0
  8
0
 10
4522.7694602554065568
 20
605.2971556768039818
 30
0.0
 40
0.0824200299533133
 50
183.8470763153692076
 51
261.3864160044975051
  0
LINE
  5
244A1
  8
0
 10
4522.7571162273852678
 20
605.2156652705606348
 30
0.0
 11
4529.8982261521850887
 21
605.2131827188608213
 31
0.0
  0
ARC
  5
244A2
  8
0
 10
4529.8889640786592281
 20
605.2986233725674765
 30
0.0
 40
0.0859412084614658
 50
276.1869088070799876
 51
355.3485027668336897
  0
LINE
  5
244A3
  8
0
 10
4529.9746222305848278
 20
605.2916539880608298
 30
0.0
 11
4529.9746130919857023
 21
607.6682225534607369
 31
0.0
  0
ARC
  5
244A4
  8
0
 10
4526.2416677640667331
 20
605.1144945594435285
 30
0.0
 40
0.082590736034968
 50
3.942111706233248
 51
81.2913706712691635
  0
LINE
  5
244A5
  8
0
 10
4526.2541728022852112
 20
605.1961331146607108
 30
0.0
 11
4519.1130628703858747
 21
605.1986156662607073
 31
0.0
  0
ARC
  5
244A6
  8
0
 10
4519.122330821433934
 20
605.1131692974784073
 30
0.0
 40
0.0859475238429649
 50
96.1903935601906568
 51
175.3450164775254052
  0
LINE
  5
244A7
  8
0
 10
4519.0366667991856957
 20
605.1201444065608257
 30
0.0
 11
4519.0366759442849798
 21
602.7435758113498423
 31
0.0
  0
ARC
  5
244A8
  8
0
 10
4519.1189102554062629
 20
602.7491056768041062
 30
0.0
 40
0.0824200299533133
 50
183.8470763153692076
 51
261.3864160044975051
  0
LINE
  5
244A9
  8
0
 10
4519.1065662273840644
 20
602.6676152705606455
 30
0.0
 11
4526.2476761521857043
 21
602.6651327188607183
 31
0.0
  0
ARC
  5
244AA
  8
0
 10
4526.2384140786580247
 20
602.7505733725672599
 30
0.0
 40
0.0859412084614658
 50
276.1869088070799876
 51
355.3485027668336897
  0
LINE
  5
244AB
  8
0
 10
4526.3240722305854433
 20
602.7436039880607268
 30
0.0
 11
4526.3240630919854084
 21
605.1201725534607476
 31
0.0
  0
ARC
  5
244AC
  8
0
 10
4518.9405677640670547
 20
605.1144945594435285
 30
0.0
 40
0.082590736034968
 50
3.942111706233248
 51
81.2913706712691635
  0
LINE
  5
244AD
  8
0
 10
4518.9530728022846233
 20
605.1961331146607108
 30
0.0
 11
4511.8119628703843773
 21
605.1986156662607073
 31
0.0
  0
ARC
  5
244AE
  8
0
 10
4511.8212308214351651
 20
605.1131692974784073
 30
0.0
 40
0.0859475238429649
 50
96.1903935601906568
 51
175.3450164775254052
  0
LINE
  5
244AF
  8
0
 10
4511.7355667991851078
 20
605.1201444065608257
 30
0.0
 11
4511.7355759442843919
 21
602.7435758113498423
 31
0.0
  0
ARC
  5
244B0
  8
0
 10
4511.8178102554065845
 20
602.7491056768041062
 30
0.0
 40
0.0824200299533133
 50
183.8470763153692076
 51
261.3864160044975051
  0
LINE
  5
244B1
  8
0
 10
4511.8054662273852955
 20
602.6676152705606455
 30
0.0
 11
4518.9465761521851164
 21
602.6651327188607183
 31
0.0
  0
ARC
  5
244B2
  8
0
 10
4518.9373140786592558
 20
602.7505733725672599
 30
0.0
 40
0.0859412084614658
 50
276.1869088070799876
 51
355.3485027668336897
  0
LINE
  5
244B3
  8
0
 10
4519.0229722305857649
 20
602.7436039880607268
 30
0.0
 11
4519.02296309198573
 21
605.1201725534607476
 31
0.0
  0
ARC
  5
244B4
  8
0
 10
4511.6394677640682858
 20
605.1144945594435285
 30
0.0
 40
0.082590736034968
 50
3.942111706233248
 51
81.2913706712691635
  0
LINE
  5
244B5
  8
0
 10
4511.6519728022858544
 20
605.1961331146607108
 30
0.0
 11
4504.5108628703846989
 21
605.1986156662607073
 31
0.0
  0
ARC
  5
244B6
  8
0
 10
4504.5201308214345772
 20
605.1131692974784073
 30
0.0
 40
0.0859475238429649
 50
96.1903935601906568
 51
175.3450164775254052
  0
LINE
  5
244B7
  8
0
 10
4504.4344667991854294
 20
605.1201444065608257
 30
0.0
 11
4504.4344759442847135
 21
602.7435758113498423
 31
0.0
  0
ARC
  5
244B8
  8
0
 10
4504.5167102554069061
 20
602.7491056768041062
 30
0.0
 40
0.0824200299533133
 50
183.8470763153692076
 51
261.3864160044975051
  0
LINE
  5
244B9
  8
0
 10
4504.5043662273847076
 20
602.6676152705606455
 30
0.0
 11
4511.645476152185438
 21
602.6651327188607183
 31
0.0
  0
ARC
  5
244BA
  8
0
 10
4511.6362140786586679
 20
602.7505733725672599
 30
0.0
 40
0.0859412084614658
 50
276.1869088070799876
 51
355.3485027668336897
  0
LINE
  5
244BB
  8
0
 10
4511.721872230585177
 20
602.7436039880607268
 30
0.0
 11
4511.7218630919851421
 21
605.1201725534607476
 31
0.0
  0
ARC
  5
244BC
  8
0
 10
4515.289693671790701
 20
602.5663787149884456
 30
0.0
 40
0.082590736034968
 50
3.942111706233248
 51
81.2913706712691635
  0
LINE
  5
244BD
  8
0
 10
4515.3021987100091792
 20
602.6480172702057416
 30
0.0
 11
4508.1610887781080237
 21
602.6504998218057381
 31
0.0
  0
ARC
  5
244BE
  8
0
 10
4508.170356729157902
 20
602.5650534530235518
 30
0.0
 40
0.0859475238429649
 50
96.1903935601906568
 51
175.3450164775254052
  0
LINE
  5
244BF
  8
0
 10
4508.0846927069078447
 20
602.5720285621058565
 30
0.0
 11
4508.0847018520080383
 21
600.1954599668947594
 31
0.0
  0
ARC
  5
244C0
  8
0
 10
4508.1669361631311403
 20
600.200989832349137
 30
0.0
 40
0.0824200299533133
 50
183.8470763153692076
 51
261.3864160044975051
  0
LINE
  5
244C1
  8
0
 10
4508.1545921351089419
 20
600.11949942610579
 30
0.0
 11
4515.2957020599078533
 21
600.1170168744057491
 31
0.0
  0
ARC
  5
244C2
  8
0
 10
4515.2864399863819926
 20
600.2024575281124044
 30
0.0
 40
0.0859412084614658
 50
276.1869088070799876
 51
355.3485027668336897
  0
LINE
  5
244C3
  8
0
 10
4515.3720981383103208
 20
600.1954881436056439
 30
0.0
 11
4515.3720889997093764
 21
602.5720567090057784
 31
0.0
  0
ARC
  5
244C4
  8
0
 10
4522.5911177640682581
 20
602.5664445594435392
 30
0.0
 40
0.082590736034968
 50
3.942111706233248
 51
81.2913706712691635
  0
LINE
  5
244C5
  8
0
 10
4522.6036228022849173
 20
602.6480831146608352
 30
0.0
 11
4515.4625128703846713
 21
602.650565666260718
 31
0.0
  0
ARC
  5
244C6
  8
0
 10
4515.4717808214345496
 20
602.565119297478418
 30
0.0
 40
0.0859475238429649
 50
96.1903935601906568
 51
175.3450164775254052
  0
LINE
  5
244C7
  8
0
 10
4515.3861167991854018
 20
602.5720944065607227
 30
0.0
 11
4515.3861259442837763
 21
600.195525811349853
 31
0.0
  0
ARC
  5
244C8
  8
0
 10
4515.4683602554068784
 20
600.201055676804117
 30
0.0
 40
0.0824200299533133
 50
183.8470763153692076
 51
261.3864160044975051
  0
LINE
  5
244C9
  8
0
 10
4515.45601622738468
 20
600.1195652705606562
 30
0.0
 11
4522.5971261521854103
 21
600.1170827188608428
 31
0.0
  0
ARC
  5
244CA
  8
0
 10
4522.5878640786577307
 20
600.2025233725673843
 30
0.0
 40
0.0859412084614658
 50
276.1869088070799876
 51
355.3485027668336897
  0
LINE
  5
244CB
  8
0
 10
4522.6735222305860589
 20
600.1955539880607375
 30
0.0
 11
4522.6735130919851144
 21
602.5721225534606447
 31
0.0
  0
ARC
  5
244CC
  8
0
 10
4529.892217764067027
 20
602.5664445594435392
 30
0.0
 40
0.082590736034968
 50
3.942111706233248
 51
81.2913706712691635
  0
LINE
  5
244CD
  8
0
 10
4529.9047228022845957
 20
602.6480831146608352
 30
0.0
 11
4522.7636128703852592
 21
602.650565666260718
 31
0.0
  0
ARC
  5
244CE
  8
0
 10
4522.7728808214351375
 20
602.565119297478418
 30
0.0
 40
0.0859475238429649
 50
96.1903935601906568
 51
175.3450164775254052
  0
LINE
  5
244CF
  8
0
 10
4522.6872167991850802
 20
602.5720944065607227
 30
0.0
 11
4522.6872259442852737
 21
600.195525811349853
 31
0.0
  0
ARC
  5
244D0
  8
0
 10
4522.7694602554065568
 20
600.201055676804117
 30
0.0
 40
0.0824200299533133
 50
183.8470763153692076
 51
261.3864160044975051
  0
LINE
  5
244D1
  8
0
 10
4522.7571162273852678
 20
600.1195652705606562
 30
0.0
 11
4529.8982261521850887
 21
600.1170827188608428
 31
0.0
  0
ARC
  5
244D2
  8
0
 10
4529.8889640786592281
 20
600.2025233725673843
 30
0.0
 40
0.0859412084614658
 50
276.1869088070799876
 51
355.3485027668336897
  0
LINE
  5
244D3
  8
0
 10
4529.9746222305848278
 20
600.1955539880607375
 30
0.0
 11
4529.9746130919857023
 21
602.5721225534606447
 31
0.0
  0
ARC
  5
244D4
  8
0
 10
4526.2416677640667331
 20
600.01839455944355
 30
0.0
 40
0.082590736034968
 50
3.942111706233248
 51
81.2913706712691635
  0
LINE
  5
244D5
  8
0
 10
4526.2541728022852112
 20
600.1000331146607323
 30
0.0
 11
4519.1130628703858747
 21
600.1025156662607287
 31
0.0
  0
ARC
  5
244D6
  8
0
 10
4519.122330821433934
 20
600.0170692974785425
 30
0.0
 40
0.0859475238429649
 50
96.1903935601906568
 51
175.3450164775254052
  0
LINE
  5
244D7
  8
0
 10
4519.0366667991856957
 20
600.0240444065607335
 30
0.0
 11
4519.0366759442849798
 21
597.6474758113497501
 31
0.0
  0
ARC
  5
244D8
  8
0
 10
4519.1189102554062629
 20
597.6530056768041277
 30
0.0
 40
0.0824200299533133
 50
183.8470763153692076
 51
261.3864160044975051
  0
LINE
  5
244D9
  8
0
 10
4519.1065662273840644
 20
597.5715152705605533
 30
0.0
 11
4526.2476761521857043
 21
597.5690327188607398
 31
0.0
  0
ARC
  5
244DA
  8
0
 10
4526.2384140786580247
 20
597.654473372567395
 30
0.0
 40
0.0859412084614658
 50
276.1869088070799876
 51
355.3485027668336897
  0
LINE
  5
244DB
  8
0
 10
4526.3240722305854433
 20
597.6475039880607483
 30
0.0
 11
4526.3240630919854084
 21
600.0240725534607691
 31
0.0
  0
ARC
  5
244DC
  8
0
 10
4518.9405677640670547
 20
600.01839455944355
 30
0.0
 40
0.082590736034968
 50
3.942111706233248
 51
81.2913706712691635
  0
LINE
  5
244DD
  8
0
 10
4518.9530728022846233
 20
600.1000331146607323
 30
0.0
 11
4511.8119628703843773
 21
600.1025156662607287
 31
0.0
  0
ARC
  5
244DE
  8
0
 10
4511.8212308214351651
 20
600.0170692974785425
 30
0.0
 40
0.0859475238429649
 50
96.1903935601906568
 51
175.3450164775254052
  0
LINE
  5
244DF
  8
0
 10
4511.7355667991851078
 20
600.0240444065607335
 30
0.0
 11
4511.7355759442843919
 21
597.6474758113497501
 31
0.0
  0
ARC
  5
244E0
  8
0
 10
4511.8178102554065845
 20
597.6530056768041277
 30
0.0
 40
0.0824200299533133
 50
183.8470763153692076
 51
261.3864160044975051
  0
LINE
  5
244E1
  8
0
 10
4511.8054662273852955
 20
597.5715152705605533
 30
0.0
 11
4518.9465761521851164
 21
597.5690327188607398
 31
0.0
  0
ARC
  5
244E2
  8
0
 10
4518.9373140786592558
 20
597.654473372567395
 30
0.0
 40
0.0859412084614658
 50
276.1869088070799876
 51
355.3485027668336897
  0
LINE
  5
244E3
  8
0
 10
4519.0229722305857649
 20
597.6475039880607483
 30
0.0
 11
4519.02296309198573
 21
600.0240725534607691
 31
0.0
  0
ARC
  5
244E4
  8
0
 10
4511.6394677640682858
 20
600.01839455944355
 30
0.0
 40
0.082590736034968
 50
3.942111706233248
 51
81.2913706712691635
  0
LINE
  5
244E5
  8
0
 10
4511.6519728022858544
 20
600.1000331146607323
 30
0.0
 11
4504.5108628703846989
 21
600.1025156662607287
 31
0.0
  0
ARC
  5
244E6
  8
0
 10
4504.5201308214345772
 20
600.0170692974785425
 30
0.0
 40
0.0859475238429649
 50
96.1903935601906568
 51
175.3450164775254052
  0
LINE
  5
244E7
  8
0
 10
4504.4344667991854294
 20
600.0240444065607335
 30
0.0
 11
4504.4344759442847135
 21
597.6474758113497501
 31
0.0
  0
ARC
  5
244E8
  8
0
 10
4504.5167102554069061
 20
597.6530056768041277
 30
0.0
 40
0.0824200299533133
 50
183.8470763153692076
 51
261.3864160044975051
  0
LINE
  5
244E9
  8
0
 10
4504.5043662273847076
 20
597.5715152705605533
 30
0.0
 11
4511.645476152185438
 21
597.5690327188607398
 31
0.0
  0
ARC
  5
244EA
  8
0
 10
4511.6362140786586679
 20
597.654473372567395
 30
0.0
 40
0.0859412084614658
 50
276.1869088070799876
 51
355.3485027668336897
  0
LINE
  5
244EB
  8
0
 10
4511.721872230585177
 20
597.6475039880607483
 30
0.0
 11
4511.7218630919851421
 21
600.0240725534607691
 31
0.0
  0
ARC
  5
244EC
  8
0
 10
4515.2900177640667607
 20
597.470344559443447
 30
0.0
 40
0.082590736034968
 50
3.942111706233248
 51
81.2913706712691635
  0
LINE
  5
244ED
  8
0
 10
4515.3025228022861484
 20
597.551983114660743
 30
0.0
 11
4508.1614128703849929
 21
597.5544656662607395
 31
0.0
  0
ARC
  5
244EE
  8
0
 10
4508.1706808214348712
 20
597.4690192974784395
 30
0.0
 40
0.0859475238429649
 50
96.1903935601906568
 51
175.3450164775254052
  0
LINE
  5
244EF
  8
0
 10
4508.0850167991848139
 20
597.4759944065607442
 30
0.0
 11
4508.0850259442850074
 21
595.0994258113498745
 31
0.0
  0
ARC
  5
244F0
  8
0
 10
4508.1672602554072
 20
595.104955676803911
 30
0.0
 40
0.0824200299533133
 50
183.8470763153692076
 51
261.3864160044975051
  0
LINE
  5
244F1
  8
0
 10
4508.1549162273850015
 20
595.023465270560564
 30
0.0
 11
4515.2960261521848224
 21
595.0209827188607505
 31
0.0
  0
ARC
  5
244F2
  8
0
 10
4515.2867640786580523
 20
595.1064233725674057
 30
0.0
 40
0.0859412084614658
 50
276.1869088070799876
 51
355.3485027668336897
  0
LINE
  5
244F3
  8
0
 10
4515.3724222305845615
 20
595.0994539880606453
 30
0.0
 11
4515.372413091985436
 21
597.4760225534606661
 31
0.0
  0
ARC
  5
244F4
  8
0
 10
4522.5911177640682581
 20
597.470344559443447
 30
0.0
 40
0.082590736034968
 50
3.942111706233248
 51
81.2913706712691635
  0
LINE
  5
244F5
  8
0
 10
4522.6036228022849173
 20
597.551983114660743
 30
0.0
 11
4515.4625128703846713
 21
597.5544656662607395
 31
0.0
  0
ARC
  5
244F6
  8
0
 10
4515.4717808214345496
 20
597.4690192974784395
 30
0.0
 40
0.0859475238429649
 50
96.1903935601906568
 51
175.3450164775254052
  0
LINE
  5
244F7
  8
0
 10
4515.3861167991854018
 20
597.4759944065607442
 30
0.0
 11
4515.3861259442837763
 21
595.0994258113498745
 31
0.0
  0
ARC
  5
244F8
  8
0
 10
4515.4683602554068784
 20
595.104955676803911
 30
0.0
 40
0.0824200299533133
 50
183.8470763153692076
 51
261.3864160044975051
  0
LINE
  5
244F9
  8
0
 10
4515.45601622738468
 20
595.023465270560564
 30
0.0
 11
4522.5971261521854103
 21
595.0209827188607505
 31
0.0
  0
ARC
  5
244FA
  8
0
 10
4522.5878640786577307
 20
595.1064233725674057
 30
0.0
 40
0.0859412084614658
 50
276.1869088070799876
 51
355.3485027668336897
  0
LINE
  5
244FB
  8
0
 10
4522.6735222305860589
 20
595.0994539880606453
 30
0.0
 11
4522.6735130919851144
 21
597.4760225534606661
 31
0.0
  0
ARC
  5
244FC
  8
0
 10
4529.892217764067027
 20
597.470344559443447
 30
0.0
 40
0.082590736034968
 50
3.942111706233248
 51
81.2913706712691635
  0
LINE
  5
244FD
  8
0
 10
4529.9047228022845957
 20
597.551983114660743
 30
0.0
 11
4522.7636128703852592
 21
597.5544656662607395
 31
0.0
  0
ARC
  5
244FE
  8
0
 10
4522.7728808214351375
 20
597.4690192974784395
 30
0.0
 40
0.0859475238429649
 50
96.1903935601906568
 51
175.3450164775254052
  0
LINE
  5
244FF
  8
0
 10
4522.6872167991850802
 20
597.4759944065607442
 30
0.0
 11
4522.6872259442852737
 21
595.0994258113498745
 31
0.0
  0
ARC
  5
24500
  8
0
 10
4522.7694602554065568
 20
595.104955676803911
 30
0.0
 40
0.0824200299533133
 50
183.8470763153692076
 51
261.3864160044975051
  0
LINE
  5
24501
  8
0
 10
4522.7571162273852678
 20
595.023465270560564
 30
0.0
 11
4529.8982261521850887
 21
595.0209827188607505
 31
0.0
  0
ARC
  5
24502
  8
0
 10
4529.8889640786592281
 20
595.1064233725674057
 30
0.0
 40
0.0859412084614658
 50
276.1869088070799876
 51
355.3485027668336897
  0
LINE
  5
24503
  8
0
 10
4529.9746222305848278
 20
595.0994539880606453
 30
0.0
 11
4529.9746130919857023
 21
597.4760225534606661
 31
0.0
  0
ARC
  5
24504
  8
0
 10
4499.7345312311772432
 20
615.0014103669736869
 30
0.0
 40
1.6165649126030699
 50
1.299682892622533
 51
13.9631559315515705
  0
LINE
  5
24505
  8
0
 10
4501.3506802579995565
 20
615.0380769697021606
 30
0.0
 11
4501.3506802586853155
 21
613.2100741925615921
 31
0.0
  0
ARC
  5
24506
  8
0
 10
4499.7328864520923162
 20
613.2469581117867392
 30
0.0
 40
1.618214208364283
 50
346.0433338061095014
 51
358.6939455120976845
  0
ARC
  5
24507
  8
0
 10
4504.3406045976662426
 20
615.311846091792745
 30
0.0
 40
0.0796300539901669
 50
356.9903457378686085
 51
90.9176753425472413
  0
LINE
  5
24508
  8
0
 10
4504.3393292609243872
 20
615.3914659323769456
 30
0.0
 11
4501.3033284184857621
 21
615.3914840802020763
 31
0.0
  0
LINE
  5
24509
  8
0
 10
4501.3033284178709437
 20
612.8566643041616544
 30
0.0
 11
4504.3391810172379337
 21
612.8565303267200761
 31
0.0
  0
ARC
  5
2450A
  8
0
 10
4504.3404204763446614
 20
612.9364001771293715
 30
0.0
 40
0.0798794670943839
 50
269.1109276478118773
 51
2.9922440426830921
  0
LINE
  5
2450B
  8
0
 10
4504.4201910365864023
 20
612.9405699471616344
 30
0.0
 11
4504.4201248180852417
 21
615.3076651776615336
 31
0.0
  0
ARC
  5
2450C
  8
0
 10
4504.3406045976662426
 20
610.2157460917927665
 30
0.0
 40
0.0796300539901669
 50
356.9903457378686085
 51
90.9176753425472413
  0
LINE
  5
2450D
  8
0
 10
4504.3393292609243872
 20
610.2953659323770808
 30
0.0
 11
4501.3033284184857621
 21
610.2953840802022114
 31
0.0
  0
LINE
  5
2450E
  8
0
 10
4501.3033284178709437
 20
607.7605643041619032
 30
0.0
 11
4504.3391810172379337
 21
607.7604303267204386
 31
0.0
  0
ARC
  5
2450F
  8
0
 10
4504.3404204763446614
 20
607.840300177129734
 30
0.0
 40
0.0798794670943839
 50
269.1109276478118773
 51
2.9922440426830921
  0
LINE
  5
24510
  8
0
 10
4504.4201910365864023
 20
607.8444699471616559
 30
0.0
 11
4504.4201248180852417
 21
610.2115651776616687
 31
0.0
  0
ARC
  5
24511
  8
0
 10
4499.7345431243938947
 20
604.8092103660826524
 30
0.0
 40
1.6165649126030699
 50
1.299682892622533
 51
13.9631559315515705
  0
LINE
  5
24512
  8
0
 10
4501.3506921512171175
 20
604.8458769688112397
 30
0.0
 11
4501.3506921519010575
 21
603.0178741916705576
 31
0.0
  0
ARC
  5
24513
  8
0
 10
4499.7328983453080582
 20
603.054758110895591
 30
0.0
 40
1.618214208364283
 50
346.0433338061095014
 51
358.6939455120976845
  0
ARC
  5
24514
  8
0
 10
4504.3406164908828941
 20
605.1196460909017105
 30
0.0
 40
0.0796300539901669
 50
356.9903457378686085
 51
90.9176753425472413
  0
LINE
  5
24515
  8
0
 10
4504.3393411541401292
 20
605.1992659314857974
 30
0.0
 11
4501.3033403117033231
 21
605.1992840793110418
 31
0.0
  0
LINE
  5
24516
  8
0
 10
4501.3033403110866857
 20
602.6644643032707336
 30
0.0
 11
4504.3391929104536757
 21
602.6643303258291553
 31
0.0
  0
ARC
  5
24517
  8
0
 10
4504.340432369561313
 20
602.7442001762384507
 30
0.0
 40
0.0798794670943839
 50
269.1109276478118773
 51
2.9922440426830921
  0
LINE
  5
24518
  8
0
 10
4504.4202029298030538
 20
602.7483699462705999
 30
0.0
 11
4504.4201367113018932
 21
605.1154651767704991
 31
0.0
  0
ARC
  5
24519
  8
0
 10
4499.7345309059010106
 20
599.7131103245103532
 30
0.0
 40
1.616565238696688
 50
1.299683531892341
 51
13.9631546363549397
  0
LINE
  5
2451A
  8
0
 10
4501.3506802583251556
 20
599.7497769526671618
 30
0.0
 11
4501.3506802590100051
 21
597.9217741755265934
 31
0.0
  0
ARC
  5
2451B
  8
0
 10
4499.7328868165013773
 20
597.958658066297744
 30
0.0
 40
1.6182138437253071
 50
346.0433322594868741
 51
358.6939462254762248
  0
ARC
  5
2451C
  8
0
 10
4504.3406045673582412
 20
600.0235460645316152
 30
0.0
 40
0.0796300831407492
 50
356.9903662663987234
 51
90.9176531959950154
  0
LINE
  5
2451D
  8
0
 10
4504.3393292609243872
 20
600.1031659347556797
 30
0.0
 11
4501.3033284184857621
 21
600.1031840809606592
 31
0.0
  0
LINE
  5
2451E
  8
0
 10
4501.3033284178709437
 20
597.5683643042274298
 30
0.0
 11
4504.3391785702078778
 21
597.5682302880173893
 31
0.0
  0
ARC
  5
2451F
  8
0
 10
4504.3404209812833869
 20
597.6480987515307106
 30
0.0
 40
0.0798781262253188
 50
269.1087950493950984
 51
2.9933279778973221
  0
LINE
  5
24520
  8
0
 10
4504.420190123584689
 20
597.6522699606606466
 30
0.0
 11
4504.420124818385375
 21
600.0193651773612373
 31
0.0
  0
ARC
  5
24521
  8
0
 10
4507.9889177640670823
 20
617.8547445594434748
 30
0.0
 40
0.082590736034968
 50
3.942111706233248
 51
81.2913706712691635
  0
LINE
  5
24522
  8
0
 10
4508.001422802284651
 20
617.9363831146606572
 30
0.0
 11
4501.3033284208604528
 21
617.9387116553332362
 31
0.0
  0
LINE
  5
24523
  8
0
 10
4501.3033284184857621
 20
615.4077090011199971
 30
0.0
 11
4507.994926152185144
 21
615.4053827188606647
 31
0.0
  0
ARC
  5
24524
  8
0
 10
4507.9856640786592834
 20
615.4908233725674336
 30
0.0
 40
0.0859412084614658
 50
276.1869088070799876
 51
355.3485027668336897
  0
LINE
  5
24525
  8
0
 10
4508.0713222305848831
 20
615.4838539880606731
 30
0.0
 11
4508.0713130919839386
 21
617.860422553460694
 31
0.0
  0
ARC
  5
24526
  8
0
 10
4499.8371069445283865
 20
615.7774933828668509
 30
0.0
 40
1.4985765344588109
 50
348.9364325403482781
 51
359.2597315836163716
  0
LINE
  5
24527
  8
0
 10
4501.3355584023847769
 20
615.7581321310638032
 30
0.0
 11
4501.3355474686168236
 21
617.5861386116140466
 31
0.0
  0
ARC
  5
24528
  8
0
 10
4499.8074251540137993
 20
617.5638075414096875
 30
0.0
 40
1.5282854723782999
 50
0.8372268345937923
 51
10.9127617161005208
  0
ARC
  5
24529
  8
0
 10
4507.9889177640670823
 20
612.7586445594434963
 30
0.0
 40
0.082590736034968
 50
3.942111706233248
 51
81.2913706712691635
  0
LINE
  5
2452A
  8
0
 10
4508.001422802284651
 20
612.8402831146606786
 30
0.0
 11
4501.3033284179846305
 21
612.8426116553342808
 31
0.0
  0
LINE
  5
2452B
  8
0
 10
4501.3033284180037299
 20
610.3116090011200185
 30
0.0
 11
4507.994926152185144
 21
610.3092827188607998
 31
0.0
  0
ARC
  5
2452C
  8
0
 10
4507.9856640786592834
 20
610.394723372567455
 30
0.0
 40
0.0859412084614658
 50
276.1869088070799876
 51
355.3485027668336897
  0
LINE
  5
2452D
  8
0
 10
4508.0713222305848831
 20
610.3877539880608083
 30
0.0
 11
4508.0713130919839386
 21
612.7643225534608291
 31
0.0
  0
ARC
  5
2452E
  8
0
 10
4499.8371069445283865
 20
610.681393382866986
 30
0.0
 40
1.4985765344588109
 50
348.9364325403482781
 51
359.2597315836163716
  0
LINE
  5
2452F
  8
0
 10
4501.3355584023847769
 20
610.6620321310639383
 30
0.0
 11
4501.3355474686168236
 21
612.490038611614068
 31
0.0
  0
ARC
  5
24530
  8
0
 10
4499.8074251540137993
 20
612.4677075414097089
 30
0.0
 40
1.5282854723782999
 50
0.8372268345937923
 51
10.9127617161005208
  0
ARC
  5
24531
  8
0
 10
4507.9889177640670823
 20
607.6625445594435178
 30
0.0
 40
0.082590736034968
 50
3.942111706233248
 51
81.2913706712691635
  0
LINE
  5
24532
  8
0
 10
4508.001422802284651
 20
607.7441831146607001
 30
0.0
 11
4501.3033284179864495
 21
607.7465116553343023
 31
0.0
  0
LINE
  5
24533
  8
0
 10
4501.3033377240517439
 20
605.2155089978849674
 30
0.0
 11
4507.994926152185144
 21
605.2131827188608213
 31
0.0
  0
ARC
  5
24534
  8
0
 10
4507.9856640786592834
 20
605.2986233725674765
 30
0.0
 40
0.0859412084614658
 50
276.1869088070799876
 51
355.3485027668336897
  0
LINE
  5
24535
  8
0
 10
4508.0713222305848831
 20
605.2916539880608298
 30
0.0
 11
4508.0713130919839386
 21
607.6682225534607369
 31
0.0
  0
ARC
  5
24536
  8
0
 10
4499.8371069445283865
 20
605.5852933828668938
 30
0.0
 40
1.4985765344588109
 50
348.9364325403482781
 51
359.2597315836163716
  0
LINE
  5
24537
  8
0
 10
4501.3355584023847769
 20
605.5659321310638461
 30
0.0
 11
4501.3355474686168236
 21
607.3939386116140895
 31
0.0
  0
ARC
  5
24538
  8
0
 10
4499.8074251540137993
 20
607.3716075414097304
 30
0.0
 40
1.528285472378432
 50
0.8372268345937923
 51
10.9127617161005208
  0
ARC
  5
24539
  8
0
 10
4507.9889177640670823
 20
602.5664445594435392
 30
0.0
 40
0.082590736034968
 50
3.942111706233248
 51
81.2913706712691635
  0
LINE
  5
2453A
  8
0
 10
4508.001422802284651
 20
602.6480831146608352
 30
0.0
 11
4501.3033380663664502
 21
602.6504116519799936
 31
0.0
  0
LINE
  5
2453B
  8
0
 10
4501.3033284184857621
 20
600.1194090011199478
 30
0.0
 11
4507.994926152185144
 21
600.1170827188608428
 31
0.0
  0
ARC
  5
2453C
  8
0
 10
4507.9856640786592834
 20
600.2025233725673843
 30
0.0
 40
0.0859412084614658
 50
276.1869088070799876
 51
355.3485027668336897
  0
LINE
  5
2453D
  8
0
 10
4508.0713222305848831
 20
600.1955539880607375
 30
0.0
 11
4508.0713130919839386
 21
602.5721225534606447
 31
0.0
  0
ARC
  5
2453E
  8
0
 10
4499.8371069445283865
 20
600.4891933828669153
 30
0.0
 40
1.4985765344588109
 50
348.9364325403482781
 51
359.2597315836163716
  0
LINE
  5
2453F
  8
0
 10
4501.3355584023847769
 20
600.4698321310638676
 30
0.0
 11
4501.3355474686168236
 21
602.297838611614111
 31
0.0
  0
ARC
  5
24540
  8
0
 10
4499.8074251540128898
 20
602.2755075414096382
 30
0.0
 40
1.528285472378651
 50
0.8372268346003053
 51
10.9127617161005208
  0
ARC
  5
24541
  8
0
 10
4507.9889177640670823
 20
597.470344559443447
 30
0.0
 40
0.082590736034968
 50
3.942111706233248
 51
81.2913706712691635
  0
LINE
  5
24542
  8
0
 10
4508.001422802284651
 20
597.551983114660743
 30
0.0
 11
4501.3033284167222519
 21
597.5543116553345726
 31
0.0
  0
LINE
  5
24543
  8
0
 10
4501.3033281914686086
 20
595.0233090011987542
 30
0.0
 11
4507.994926152185144
 21
595.0209827188607505
 31
0.0
  0
ARC
  5
24544
  8
0
 10
4507.9856640786592834
 20
595.1064233725674057
 30
0.0
 40
0.0859412084614658
 50
276.1869088070799876
 51
355.3485027668336897
  0
LINE
  5
24545
  8
0
 10
4508.0713222305848831
 20
595.0994539880606453
 30
0.0
 11
4508.0713130919839386
 21
597.4760225534606661
 31
0.0
  0
ARC
  5
24546
  8
0
 10
4499.8371069445283865
 20
595.3930933828669367
 30
0.0
 40
1.4985765344588109
 50
348.9364325403482781
 51
359.2597315836163716
  0
LINE
  5
24547
  8
0
 10
4501.3355584023847769
 20
595.3737321310637753
 30
0.0
 11
4501.3355474686168236
 21
597.2017386116140187
 31
0.0
  0
ARC
  5
24548
  8
0
 10
4499.8074251540137993
 20
597.179407541409546
 30
0.0
 40
1.528285472378432
 50
0.8372268345937923
 51
10.9127617161005208
  0
LINE
  5
24549
  8
0
 10
4501.3033284214116065
 20
617.9527643041607234
 30
0.0
 11
4501.3033284184857621
 21
617.8783130641344314
 31
0.0
  0
LINE
  5
2454A
  8
0
 10
4501.3033284184857621
 20
617.8783130641344314
 30
0.0
 11
4501.3080739835850181
 21
617.8531336124607378
 31
0.0
  0
LINE
  5
2454B
  8
0
 10
4501.3033284184857621
 20
615.3914840802020763
 30
0.0
 11
4501.3033284184857621
 21
615.4660561882607226
 31
0.0
  0
LINE
  5
2454C
  8
0
 10
4501.3033284184857621
 20
615.4660561882607226
 30
0.0
 11
4501.3078322604351342
 21
615.4899196101106327
 31
0.0
  0
LINE
  5
2454D
  8
0
 10
4501.3033284178682152
 20
612.8566643041533553
 30
0.0
 11
4501.3033284184857621
 21
612.7822129045607653
 31
0.0
  0
LINE
  5
2454E
  8
0
 10
4501.3033284184857621
 20
612.7822129045607653
 30
0.0
 11
4501.3080739835850181
 21
612.7570336124606456
 31
0.0
  0
LINE
  5
2454F
  8
0
 10
4501.3033284178709437
 20
610.2953840801014849
 30
0.0
 11
4501.3033284184857621
 21
610.3699561882607441
 31
0.0
  0
LINE
  5
24550
  8
0
 10
4501.3033284184857621
 20
610.3699561882607441
 30
0.0
 11
4501.3078322604351342
 21
610.3938196101097446
 31
0.0
  0
LINE
  5
24551
  8
0
 10
4501.3033284178709437
 20
607.7605643042229531
 30
0.0
 11
4501.3033284184857621
 21
607.6861129045607868
 31
0.0
  0
LINE
  5
24552
  8
0
 10
4501.3033284184857621
 20
607.6861129045607868
 30
0.0
 11
4501.3080739835850181
 21
607.6609336124606671
 31
0.0
  0
LINE
  5
24553
  8
0
 10
4501.3033284184857621
 20
605.2738561882606518
 30
0.0
 11
4501.3078322604351342
 21
605.2977196101098798
 31
0.0
  0
LINE
  5
24554
  8
0
 10
4501.3033403110866857
 20
602.6644643032706199
 30
0.0
 11
4501.3033284184857621
 21
602.5900129045608082
 31
0.0
  0
LINE
  5
24555
  8
0
 10
4501.3033284184857621
 20
602.5900129045608082
 30
0.0
 11
4501.3080739835850181
 21
602.5648336124608022
 31
0.0
  0
LINE
  5
24556
  8
0
 10
4501.3033284184857621
 20
600.1031840809606592
 30
0.0
 11
4501.3033284184857621
 21
600.1777561882606733
 31
0.0
  0
LINE
  5
24557
  8
0
 10
4501.3033284184857621
 20
600.1777561882606733
 30
0.0
 11
4501.3078322610417672
 21
600.2016196132118466
 31
0.0
  0
LINE
  5
24558
  8
0
 10
4501.3033284178709437
 20
597.5683643042274298
 30
0.0
 11
4501.3033284117846051
 21
597.4939129393605981
 31
0.0
  0
LINE
  5
24559
  8
0
 10
4501.3033284117846051
 20
597.4939129393605981
 30
0.0
 11
4501.3080739835850181
 21
597.4687336124608237
 31
0.0
  0
LINE
  5
2455A
  8
0
 10
4501.3083000613605691
 20
594.9343460405681299
 30
0.0
 11
4501.3033281856887697
 21
594.9586539188976531
 31
0.0
  0
LINE
  5
2455B
  8
0
 10
4501.3033281856887697
 20
594.9586539188976531
 30
0.0
 11
4501.3033281966845607
 21
595.0816550306607269
 31
0.0
  0
LINE
  5
2455C
  8
0
 10
4501.3033281966845607
 20
595.0816550306607269
 30
0.0
 11
4501.3078322604351342
 21
595.105519610109468
 31
0.0
  0
ARC
  5
2455D
  8
0
 10
4499.8910209913019571
 20
594.6404875470307161
 30
0.0
 40
1.447422805074277
 50
0.5219727126558151
 51
11.7137260136696799
  0
LINE
  5
2455E
  8
0
 10
4501.3383837325845889
 20
594.6536735925607218
 30
0.0
 11
4501.3383837325845889
 21
592.8256735925607472
 31
0.0
  0
ARC
  5
2455F
  8
0
 10
4499.7544544546663019
 20
592.8515789203466966
 30
0.0
 40
1.584141105917636
 50
346.3960380263504248
 51
359.0630051169919739
  0
ARC
  5
24560
  8
0
 10
4501.4783482727398223
 20
593.4360528790546141
 30
0.0
 40
1.5712292105843659
 50
90.2063085999914875
 51
93.9679279216225041
  0
ARC
  5
24561
  8
0
 10
4501.9172985240065827
 20
546.729208960515848
 30
0.0
 40
45.8125990487561694
 50
90.518727870877342
 51
90.7630485284395547
  0
ARC
  5
24562
  8
0
 10
4529.8921601092379206
 20
592.3741884989357231
 30
0.0
 40
0.0826573140842531
 50
3.9583061792597301
 51
81.2117058123482281
  0
LINE
  5
24563
  8
0
 10
4529.904788818785164
 20
592.4558753844607963
 30
0.0
 11
4522.757050459785205
 21
592.4558739282606439
 31
0.0
  0
ARC
  5
24564
  8
0
 10
4522.7696664610948574
 20
592.3742067948385284
 30
0.0
 40
0.0826358528148742
 50
98.7816787481328902
 51
176.036030093163788
  0
LINE
  5
24565
  8
0
 10
4522.6872282964659462
 20
592.379919340943502
 30
0.0
 11
4522.6872187817425583
 21
590.0033540067687454
 31
0.0
  0
ARC
  5
24566
  8
0
 10
4522.7696967617457631
 20
590.009076283241825
 30
0.0
 40
0.0826762458821125
 50
183.9687895936694986
 51
261.2012228403298195
  0
LINE
  5
24567
  8
0
 10
4522.7570502108846995
 20
589.9273730006607366
 30
0.0
 11
4529.9047885668860545
 21
589.9276241128607126
 31
0.0
  0
ARC
  5
24568
  8
0
 10
4529.8927184133681294
 20
590.0088072910378969
 30
0.0
 40
0.0820755568051146
 50
278.4566736798342959
 51
356.1706186007590986
  0
LINE
  5
24569
  8
0
 10
4529.9746107243208826
 20
590.0033258284885278
 30
0.0
 11
4529.9746202482283479
 21
592.3798943774260124
 31
0.0
  0
ARC
  5
2456A
  8
0
 10
4522.5910601092373327
 20
592.3741884989357231
 30
0.0
 40
0.0826573140842531
 50
3.9583061792597301
 51
81.2117058123482281
  0
LINE
  5
2456B
  8
0
 10
4522.6036888187863951
 20
592.4558753844607963
 30
0.0
 11
4515.4559504597846171
 21
592.4558739282606439
 31
0.0
  0
ARC
  5
2456C
  8
0
 10
4515.4685664610942695
 20
592.3742067948385284
 30
0.0
 40
0.0826358528148742
 50
98.7816787481328902
 51
176.036030093163788
  0
LINE
  5
2456D
  8
0
 10
4515.3861282964653583
 20
592.379919340943502
 30
0.0
 11
4515.3861187817428799
 21
590.0033540067686317
 31
0.0
  0
ARC
  5
2456E
  8
0
 10
4515.4685967617460847
 20
590.009076283241825
 30
0.0
 40
0.0826762458821125
 50
183.9687895936694986
 51
261.2012228403298195
  0
LINE
  5
2456F
  8
0
 10
4515.4559502108859306
 20
589.9273730006607366
 30
0.0
 11
4522.6036885668845571
 21
589.9276241128607126
 31
0.0
  0
ARC
  5
24570
  8
0
 10
4522.591618413368451
 20
590.0088072910378969
 30
0.0
 40
0.0820755568051146
 50
278.4566736798342959
 51
356.1706186007590986
  0
LINE
  5
24571
  8
0
 10
4522.6735107243212042
 20
590.0033258284885278
 30
0.0
 11
4522.67352024822776
 21
592.3798943774260124
 31
0.0
  0
ARC
  5
24572
  8
0
 10
4515.2899601092376543
 20
592.3741884989357231
 30
0.0
 40
0.0826573140842531
 50
3.9583061792597301
 51
81.2117058123482281
  0
LINE
  5
24573
  8
0
 10
4515.3025888187858072
 20
592.4558753844607963
 30
0.0
 11
4508.1548504597858482
 21
592.4558739282606439
 31
0.0
  0
ARC
  5
24574
  8
0
 10
4508.1674664610936816
 20
592.3742067948385284
 30
0.0
 40
0.0826358528148742
 50
98.7816787481328902
 51
176.036030093163788
  0
LINE
  5
24575
  8
0
 10
4508.0850282964647704
 20
592.379919340943502
 30
0.0
 11
4508.0850187817432015
 21
590.0033540067686317
 31
0.0
  0
ARC
  5
24576
  8
0
 10
4508.1674967617464063
 20
590.009076283241825
 30
0.0
 40
0.0826762458821125
 50
183.9687895936694986
 51
261.2012228403298195
  0
LINE
  5
24577
  8
0
 10
4508.1548502108853427
 20
589.9273730006607366
 30
0.0
 11
4515.3025885668857882
 21
589.9276241128607126
 31
0.0
  0
ARC
  5
24578
  8
0
 10
4515.2905184133678631
 20
590.0088072910378969
 30
0.0
 40
0.0820755568051146
 50
278.4566736798342959
 51
356.1706186007590986
  0
LINE
  5
24579
  8
0
 10
4515.3724107243206163
 20
590.0033258284885278
 30
0.0
 11
4515.3724202482280816
 21
592.3798943774260124
 31
0.0
  0
ARC
  5
2457A
  8
0
 10
4511.6394101092382698
 20
589.8261384989356202
 30
0.0
 40
0.0826573140842531
 50
3.9583061792597301
 51
81.2117058123482281
  0
LINE
  5
2457B
  8
0
 10
4511.6520388187864228
 20
589.9078253844606934
 30
0.0
 11
4504.5043004597846448
 21
589.9078239282607683
 31
0.0
  0
ARC
  5
2457C
  8
0
 10
4504.5169164610952066
 20
589.8261567948385391
 30
0.0
 40
0.0826358528148742
 50
98.7816787481328902
 51
176.036030093163788
  0
LINE
  5
2457D
  8
0
 10
4504.4344782964662954
 20
589.8318693409436264
 30
0.0
 11
4504.4344687817429076
 21
587.4553040067686425
 31
0.0
  0
ARC
  5
2457E
  8
0
 10
4504.5169467617461123
 20
587.461026283241722
 30
0.0
 40
0.0826762458821125
 50
183.9687895936694986
 51
261.2012228403298195
  0
LINE
  5
2457F
  8
0
 10
4504.5043002108859582
 20
587.3793230006607473
 30
0.0
 11
4511.6520385668845847
 21
587.3795741128607233
 31
0.0
  0
ARC
  5
24580
  8
0
 10
4511.6399684133675692
 20
587.4607572910377939
 30
0.0
 40
0.0820755568051146
 50
278.4566736798342959
 51
356.1706186007590986
  0
LINE
  5
24581
  8
0
 10
4511.7218607243203223
 20
587.4552758284884248
 30
0.0
 11
4511.7218702482286972
 21
589.8318443774260231
 31
0.0
  0
ARC
  5
24582
  8
0
 10
4518.9405101092379482
 20
589.8261384989356202
 30
0.0
 40
0.0826573140842531
 50
3.9583061792597301
 51
81.2117058123482281
  0
LINE
  5
24583
  8
0
 10
4518.9531388187851917
 20
589.9078253844606934
 30
0.0
 11
4511.8054004597852327
 21
589.9078239282607683
 31
0.0
  0
ARC
  5
24584
  8
0
 10
4511.8180164610939755
 20
589.8261567948385391
 30
0.0
 40
0.0826358528148742
 50
98.7816787481328902
 51
176.036030093163788
  0
LINE
  5
24585
  8
0
 10
4511.7355782964650643
 20
589.8318693409436264
 30
0.0
 11
4511.735568781744405
 21
587.4553040067686425
 31
0.0
  0
ARC
  5
24586
  8
0
 10
4511.8180467617448812
 20
587.461026283241722
 30
0.0
 40
0.0826762458821125
 50
183.9687895936694986
 51
261.2012228403298195
  0
LINE
  5
24587
  8
0
 10
4511.8054002108847271
 20
587.3793230006607473
 30
0.0
 11
4518.9531385668860821
 21
587.3795741128607233
 31
0.0
  0
ARC
  5
24588
  8
0
 10
4518.9410684133681571
 20
587.4607572910377939
 30
0.0
 40
0.0820755568051146
 50
278.4566736798342959
 51
356.1706186007590986
  0
LINE
  5
24589
  8
0
 10
4519.0229607243209102
 20
587.4552758284884248
 30
0.0
 11
4519.0229702482283756
 21
589.8318443774260231
 31
0.0
  0
ARC
  5
2458A
  8
0
 10
4526.2416101092376266
 20
589.8261384989356202
 30
0.0
 40
0.0826573140842531
 50
3.9583061792597301
 51
81.2117058123482281
  0
LINE
  5
2458B
  8
0
 10
4526.2542388187848701
 20
589.9078253844606934
 30
0.0
 11
4519.1065004597858206
 21
589.9078239282607683
 31
0.0
  0
ARC
  5
2458C
  8
0
 10
4519.1191164610936539
 20
589.8261567948385391
 30
0.0
 40
0.0826358528148742
 50
98.7816787481328902
 51
176.036030093163788
  0
LINE
  5
2458D
  8
0
 10
4519.0366782964647427
 20
589.8318693409436264
 30
0.0
 11
4519.0366687817431739
 21
587.4553040067686425
 31
0.0
  0
ARC
  5
2458E
  8
0
 10
4519.1191467617463786
 20
587.461026283241722
 30
0.0
 40
0.0826762458821125
 50
183.9687895936694986
 51
261.2012228403298195
  0
LINE
  5
2458F
  8
0
 10
4519.106500210885315
 20
587.3793230006607473
 30
0.0
 11
4526.2542385668857605
 21
587.3795741128607233
 31
0.0
  0
ARC
  5
24590
  8
0
 10
4526.242168413366926
 20
587.4607572910377939
 30
0.0
 40
0.0820755568051146
 50
278.4566736798342959
 51
356.1706186007590986
  0
LINE
  5
24591
  8
0
 10
4526.3240607243224076
 20
587.4552758284884248
 30
0.0
 11
4526.324070248228054
 21
589.8318443774260231
 31
0.0
  0
ARC
  5
24592
  8
0
 10
4529.8921601092379206
 20
587.2780884989356309
 30
0.0
 40
0.0826573140842531
 50
3.9583061792597301
 51
81.2117058123482281
  0
LINE
  5
24593
  8
0
 10
4529.904788818785164
 20
587.3597753844607041
 30
0.0
 11
4522.757050459785205
 21
587.3597739282606653
 31
0.0
  0
ARC
  5
24594
  8
0
 10
4522.7696664610948574
 20
587.2781067948385498
 30
0.0
 40
0.0826358528148742
 50
98.7816787481328902
 51
176.036030093163788
  0
LINE
  5
24595
  8
0
 10
4522.6872282964659462
 20
587.2838193409434098
 30
0.0
 11
4522.6872187817425583
 21
584.9072540067686532
 31
0.0
  0
ARC
  5
24596
  8
0
 10
4522.7696967617457631
 20
584.9129762832417327
 30
0.0
 40
0.0826762458821125
 50
183.9687895936694986
 51
261.2012228403298195
  0
LINE
  5
24597
  8
0
 10
4522.7570502108846995
 20
584.831273000660758
 30
0.0
 11
4529.9047885668860545
 21
584.831524112860734
 31
0.0
  0
ARC
  5
24598
  8
0
 10
4529.8927184133681294
 20
584.9127072910379184
 30
0.0
 40
0.0820755568051146
 50
278.4566736798342959
 51
356.1706186007590986
  0
LINE
  5
24599
  8
0
 10
4529.9746107243208826
 20
584.9072258284884356
 30
0.0
 11
4529.9746202482283479
 21
587.2837943774260339
 31
0.0
  0
ARC
  5
2459A
  8
0
 10
4522.5910601092373327
 20
587.2780884989356309
 30
0.0
 40
0.0826573140842531
 50
3.9583061792597301
 51
81.2117058123482281
  0
LINE
  5
2459B
  8
0
 10
4522.6036888187863951
 20
587.3597753844607041
 30
0.0
 11
4515.4559504597846171
 21
587.3597739282606653
 31
0.0
  0
ARC
  5
2459C
  8
0
 10
4515.4685664610942695
 20
587.2781067948385498
 30
0.0
 40
0.0826358528148742
 50
98.7816787481328902
 51
176.036030093163788
  0
LINE
  5
2459D
  8
0
 10
4515.3861282964653583
 20
587.2838193409434098
 30
0.0
 11
4515.3861187817428799
 21
584.9072540067686532
 31
0.0
  0
ARC
  5
2459E
  8
0
 10
4515.4685967617460847
 20
584.9129762832417327
 30
0.0
 40
0.0826762458821125
 50
183.9687895936694986
 51
261.2012228403298195
  0
LINE
  5
2459F
  8
0
 10
4515.4559502108859306
 20
584.831273000660758
 30
0.0
 11
4522.6036885668845571
 21
584.831524112860734
 31
0.0
  0
ARC
  5
245A0
  8
0
 10
4522.591618413368451
 20
584.9127072910379184
 30
0.0
 40
0.0820755568051146
 50
278.4566736798342959
 51
356.1706186007590986
  0
LINE
  5
245A1
  8
0
 10
4522.6735107243212042
 20
584.9072258284884356
 30
0.0
 11
4522.67352024822776
 21
587.2837943774260339
 31
0.0
  0
ARC
  5
245A2
  8
0
 10
4515.2899601092376543
 20
587.2780884989356309
 30
0.0
 40
0.0826573140842531
 50
3.9583061792597301
 51
81.2117058123482281
  0
LINE
  5
245A3
  8
0
 10
4515.3025888187858072
 20
587.3597753844607041
 30
0.0
 11
4508.1548504597858482
 21
587.3597739282606653
 31
0.0
  0
ARC
  5
245A4
  8
0
 10
4508.1674664610936816
 20
587.2781067948385498
 30
0.0
 40
0.0826358528148742
 50
98.7816787481328902
 51
176.036030093163788
  0
LINE
  5
245A5
  8
0
 10
4508.0850282964647704
 20
587.2838193409434098
 30
0.0
 11
4508.0850187817432015
 21
584.9072540067686532
 31
0.0
  0
ARC
  5
245A6
  8
0
 10
4508.1674967617464063
 20
584.9129762832417327
 30
0.0
 40
0.0826762458821125
 50
183.9687895936694986
 51
261.2012228403298195
  0
LINE
  5
245A7
  8
0
 10
4508.1548502108853427
 20
584.831273000660758
 30
0.0
 11
4515.3025885668857882
 21
584.831524112860734
 31
0.0
  0
ARC
  5
245A8
  8
0
 10
4515.2905184133678631
 20
584.9127072910379184
 30
0.0
 40
0.0820755568051146
 50
278.4566736798342959
 51
356.1706186007590986
  0
LINE
  5
245A9
  8
0
 10
4515.3724107243206163
 20
584.9072258284884356
 30
0.0
 11
4515.3724202482280816
 21
587.2837943774260339
 31
0.0
  0
ARC
  5
245AA
  8
0
 10
4526.2416101092376266
 20
584.7300384989356417
 30
0.0
 40
0.0826573140842531
 50
3.9583061792597301
 51
81.2117058123482281
  0
LINE
  5
245AB
  8
0
 10
4526.2542388187848701
 20
584.8117253844608285
 30
0.0
 11
4519.1065004597858206
 21
584.8117239282607898
 31
0.0
  0
ARC
  5
245AC
  8
0
 10
4519.1191164610936539
 20
584.7300567948384469
 30
0.0
 40
0.0826358528148742
 50
98.7816787481328902
 51
176.036030093163788
  0
LINE
  5
245AD
  8
0
 10
4519.0366782964647427
 20
584.7357693409436479
 30
0.0
 11
4519.0366687817431739
 21
582.3592040067685502
 31
0.0
  0
ARC
  5
245AE
  8
0
 10
4519.1191467617463786
 20
582.3649262832417435
 30
0.0
 40
0.0826762458821125
 50
183.9687895936694986
 51
261.2012228403298195
  0
LINE
  5
245AF
  8
0
 10
4519.106500210885315
 20
582.2832230006606551
 30
0.0
 11
4526.2542385668857605
 21
582.2834741128607448
 31
0.0
  0
ARC
  5
245B0
  8
0
 10
4526.242168413366926
 20
582.3646572910379291
 30
0.0
 40
0.0820755568051146
 50
278.4566736798342959
 51
356.1706186007590986
  0
LINE
  5
245B1
  8
0
 10
4526.3240607243224076
 20
582.3591758284884463
 30
0.0
 11
4526.324070248228054
 21
584.7357443774259309
 31
0.0
  0
ARC
  5
245B2
  8
0
 10
4518.9405101092379482
 20
584.7300384989356417
 30
0.0
 40
0.0826573140842531
 50
3.9583061792597301
 51
81.2117058123482281
  0
LINE
  5
245B3
  8
0
 10
4518.9531388187851917
 20
584.8117253844608285
 30
0.0
 11
4511.8054004597852327
 21
584.8117239282607898
 31
0.0
  0
ARC
  5
245B4
  8
0
 10
4511.8180164610939755
 20
584.7300567948384469
 30
0.0
 40
0.0826358528148742
 50
98.7816787481328902
 51
176.036030093163788
  0
LINE
  5
245B5
  8
0
 10
4511.7355782964650643
 20
584.7357693409436479
 30
0.0
 11
4511.735568781744405
 21
582.3592040067685502
 31
0.0
  0
ARC
  5
245B6
  8
0
 10
4511.8180467617448812
 20
582.3649262832417435
 30
0.0
 40
0.0826762458821125
 50
183.9687895936694986
 51
261.2012228403298195
  0
LINE
  5
245B7
  8
0
 10
4511.8054002108847271
 20
582.2832230006606551
 30
0.0
 11
4518.9531385668860821
 21
582.2834741128607448
 31
0.0
  0
ARC
  5
245B8
  8
0
 10
4518.9410684133681571
 20
582.3646572910379291
 30
0.0
 40
0.0820755568051146
 50
278.4566736798342959
 51
356.1706186007590986
  0
LINE
  5
245B9
  8
0
 10
4519.0229607243209102
 20
582.3591758284884463
 30
0.0
 11
4519.0229702482283756
 21
584.7357443774259309
 31
0.0
  0
ARC
  5
245BA
  8
0
 10
4511.6394101092382698
 20
584.7300384989356417
 30
0.0
 40
0.0826573140842531
 50
3.9583061792597301
 51
81.2117058123482281
  0
LINE
  5
245BB
  8
0
 10
4511.6520388187864228
 20
584.8117253844608285
 30
0.0
 11
4504.5043004597846448
 21
584.8117239282607898
 31
0.0
  0
ARC
  5
245BC
  8
0
 10
4504.5169164610952066
 20
584.7300567948384469
 30
0.0
 40
0.0826358528148742
 50
98.7816787481328902
 51
176.036030093163788
  0
LINE
  5
245BD
  8
0
 10
4504.4344782964662954
 20
584.7357693409436479
 30
0.0
 11
4504.4344687817429076
 21
582.3592040067685502
 31
0.0
  0
ARC
  5
245BE
  8
0
 10
4504.5169467617461123
 20
582.3649262832417435
 30
0.0
 40
0.0826762458821125
 50
183.9687895936694986
 51
261.2012228403298195
  0
LINE
  5
245BF
  8
0
 10
4504.5043002108859582
 20
582.2832230006606551
 30
0.0
 11
4511.6520385668845847
 21
582.2834741128607448
 31
0.0
  0
ARC
  5
245C0
  8
0
 10
4511.6399684133675692
 20
582.3646572910379291
 30
0.0
 40
0.0820755568051146
 50
278.4566736798342959
 51
356.1706186007590986
  0
LINE
  5
245C1
  8
0
 10
4511.7218607243203223
 20
582.3591758284884463
 30
0.0
 11
4511.7218702482286972
 21
584.7357443774259309
 31
0.0
  0
ARC
  5
245C2
  8
0
 10
4529.8921601092379206
 20
582.1819884989356524
 30
0.0
 40
0.0826573140842531
 50
3.9583061792597301
 51
81.2117058123482281
  0
LINE
  5
245C3
  8
0
 10
4529.904788818785164
 20
582.2636753844607256
 30
0.0
 11
4522.757050459785205
 21
582.2636739282606868
 31
0.0
  0
ARC
  5
245C4
  8
0
 10
4522.7696664610948574
 20
582.1820067948385713
 30
0.0
 40
0.0826358528148742
 50
98.7816787481328902
 51
176.036030093163788
  0
LINE
  5
245C5
  8
0
 10
4522.6872282964659462
 20
582.1877193409435449
 30
0.0
 11
4522.6872187817425583
 21
579.8111540067686747
 31
0.0
  0
ARC
  5
245C6
  8
0
 10
4522.7696967617457631
 20
579.8168762832417542
 30
0.0
 40
0.0826762458821125
 50
183.9687895936694986
 51
261.2012228403298195
  0
LINE
  5
245C7
  8
0
 10
4522.7570502108846995
 20
579.7351730006606658
 30
0.0
 11
4529.9047885668860545
 21
579.7354241128607555
 31
0.0
  0
ARC
  5
245C8
  8
0
 10
4529.8927184133681294
 20
579.8166072910379398
 30
0.0
 40
0.0820755568051146
 50
278.4566736798342959
 51
356.1706186007590986
  0
LINE
  5
245C9
  8
0
 10
4529.9746107243208826
 20
579.8111258284883434
 30
0.0
 11
4529.9746202482283479
 21
582.1876943774260553
 31
0.0
  0
ARC
  5
245CA
  8
0
 10
4522.5910601092373327
 20
582.1819884989356524
 30
0.0
 40
0.0826573140842531
 50
3.9583061792597301
 51
81.2117058123482281
  0
LINE
  5
245CB
  8
0
 10
4522.6036888187863951
 20
582.2636753844607256
 30
0.0
 11
4515.4559504597846171
 21
582.2636739282606868
 31
0.0
  0
ARC
  5
245CC
  8
0
 10
4515.4685664610942695
 20
582.1820067948385713
 30
0.0
 40
0.0826358528148742
 50
98.7816787481328902
 51
176.036030093163788
  0
LINE
  5
245CD
  8
0
 10
4515.3861282964653583
 20
582.1877193409435449
 30
0.0
 11
4515.3861187817428799
 21
579.8111540067686747
 31
0.0
  0
ARC
  5
245CE
  8
0
 10
4515.4685967617460847
 20
579.8168762832417542
 30
0.0
 40
0.0826762458821125
 50
183.9687895936694986
 51
261.2012228403298195
  0
LINE
  5
245CF
  8
0
 10
4515.4559502108859306
 20
579.7351730006606658
 30
0.0
 11
4522.6036885668845571
 21
579.7354241128607555
 31
0.0
  0
ARC
  5
245D0
  8
0
 10
4522.591618413368451
 20
579.8166072910379398
 30
0.0
 40
0.0820755568051146
 50
278.4566736798342959
 51
356.1706186007590986
  0
LINE
  5
245D1
  8
0
 10
4522.6735107243212042
 20
579.8111258284883434
 30
0.0
 11
4522.67352024822776
 21
582.1876943774260553
 31
0.0
  0
ARC
  5
245D2
  8
0
 10
4515.2899601092376543
 20
582.1819884989356524
 30
0.0
 40
0.0826573140842531
 50
3.9583061792597301
 51
81.2117058123482281
  0
LINE
  5
245D3
  8
0
 10
4515.3025888187858072
 20
582.2636753844607256
 30
0.0
 11
4508.1548504597858482
 21
582.2636739282606868
 31
0.0
  0
ARC
  5
245D4
  8
0
 10
4508.1674664610936816
 20
582.1820067948385713
 30
0.0
 40
0.0826358528148742
 50
98.7816787481328902
 51
176.036030093163788
  0
LINE
  5
245D5
  8
0
 10
4508.0850282964647704
 20
582.1877193409435449
 30
0.0
 11
4508.0850187817432015
 21
579.8111540067686747
 31
0.0
  0
ARC
  5
245D6
  8
0
 10
4508.1674967617464063
 20
579.8168762832417542
 30
0.0
 40
0.0826762458821125
 50
183.9687895936694986
 51
261.2012228403298195
  0
LINE
  5
245D7
  8
0
 10
4508.1548502108853427
 20
579.7351730006606658
 30
0.0
 11
4515.3025885668857882
 21
579.7354241128607555
 31
0.0
  0
ARC
  5
245D8
  8
0
 10
4515.2905184133678631
 20
579.8166072910379398
 30
0.0
 40
0.0820755568051146
 50
278.4566736798342959
 51
356.1706186007590986
  0
LINE
  5
245D9
  8
0
 10
4515.3724107243206163
 20
579.8111258284883434
 30
0.0
 11
4515.3724202482280816
 21
582.1876943774260553
 31
0.0
  0
ARC
  5
245DA
  8
0
 10
4526.2416101092376266
 20
579.6339384989355494
 30
0.0
 40
0.0826573140842531
 50
3.9583061792597301
 51
81.2117058123482281
  0
LINE
  5
245DB
  8
0
 10
4526.2542388187848701
 20
579.7156253844607363
 30
0.0
 11
4519.1065004597858206
 21
579.7156239282606975
 31
0.0
  0
ARC
  5
245DC
  8
0
 10
4519.1191164610936539
 20
579.6339567948384683
 30
0.0
 40
0.0826358528148742
 50
98.7816787481328902
 51
176.036030093163788
  0
LINE
  5
245DD
  8
0
 10
4519.0366782964647427
 20
579.6396693409435557
 30
0.0
 11
4519.0366687817431739
 21
577.2631040067685717
 31
0.0
  0
ARC
  5
245DE
  8
0
 10
4519.1191467617463786
 20
577.2688262832416513
 30
0.0
 40
0.0826762458821125
 50
183.9687895936694986
 51
261.2012228403298195
  0
LINE
  5
245DF
  8
0
 10
4519.106500210885315
 20
577.1871230006607902
 30
0.0
 11
4526.2542385668857605
 21
577.1873741128606525
 31
0.0
  0
ARC
  5
245E0
  8
0
 10
4526.242168413366926
 20
577.2685572910378369
 30
0.0
 40
0.0820755568051146
 50
278.4566736798342959
 51
356.1706186007590986
  0
LINE
  5
245E1
  8
0
 10
4526.3240607243224076
 20
577.2630758284884678
 30
0.0
 11
4526.324070248228054
 21
579.6396443774259524
 31
0.0
  0
ARC
  5
245E2
  8
0
 10
4518.9405101092379482
 20
579.6339384989355494
 30
0.0
 40
0.0826573140842531
 50
3.9583061792597301
 51
81.2117058123482281
  0
LINE
  5
245E3
  8
0
 10
4518.9531388187851917
 20
579.7156253844607363
 30
0.0
 11
4511.8054004597852327
 21
579.7156239282606975
 31
0.0
  0
ARC
  5
245E4
  8
0
 10
4511.8180164610939755
 20
579.6339567948384683
 30
0.0
 40
0.0826358528148742
 50
98.7816787481328902
 51
176.036030093163788
  0
LINE
  5
245E5
  8
0
 10
4511.7355782964650643
 20
579.6396693409435557
 30
0.0
 11
4511.735568781744405
 21
577.2631040067685717
 31
0.0
  0
ARC
  5
245E6
  8
0
 10
4511.8180467617448812
 20
577.2688262832416513
 30
0.0
 40
0.0826762458821125
 50
183.9687895936694986
 51
261.2012228403298195
  0
LINE
  5
245E7
  8
0
 10
4511.8054002108847271
 20
577.1871230006607902
 30
0.0
 11
4518.9531385668860821
 21
577.1873741128606525
 31
0.0
  0
ARC
  5
245E8
  8
0
 10
4518.9410684133681571
 20
577.2685572910378369
 30
0.0
 40
0.0820755568051146
 50
278.4566736798342959
 51
356.1706186007590986
  0
LINE
  5
245E9
  8
0
 10
4519.0229607243209102
 20
577.2630758284884678
 30
0.0
 11
4519.0229702482283756
 21
579.6396443774259524
 31
0.0
  0
ARC
  5
245EA
  8
0
 10
4511.6394101092382698
 20
579.6339384989355494
 30
0.0
 40
0.0826573140842531
 50
3.9583061792597301
 51
81.2117058123482281
  0
LINE
  5
245EB
  8
0
 10
4511.6520388187864228
 20
579.7156253844607363
 30
0.0
 11
4504.5043004597846448
 21
579.7156239282606975
 31
0.0
  0
ARC
  5
245EC
  8
0
 10
4504.5169164610952066
 20
579.6339567948384683
 30
0.0
 40
0.0826358528148742
 50
98.7816787481328902
 51
176.036030093163788
  0
LINE
  5
245ED
  8
0
 10
4504.4344782964662954
 20
579.6396693409435557
 30
0.0
 11
4504.4344687817429076
 21
577.2631040067685717
 31
0.0
  0
ARC
  5
245EE
  8
0
 10
4504.5169467617461123
 20
577.2688262832416513
 30
0.0
 40
0.0826762458821125
 50
183.9687895936694986
 51
261.2012228403298195
  0
LINE
  5
245EF
  8
0
 10
4504.5043002108859582
 20
577.1871230006607902
 30
0.0
 11
4511.6520385668845847
 21
577.1873741128606525
 31
0.0
  0
ARC
  5
245F0
  8
0
 10
4511.6399684133675692
 20
577.2685572910378369
 30
0.0
 40
0.0820755568051146
 50
278.4566736798342959
 51
356.1706186007590986
  0
LINE
  5
245F1
  8
0
 10
4511.7218607243203223
 20
577.2630758284884678
 30
0.0
 11
4511.7218702482286972
 21
579.6396443774259524
 31
0.0
  0
ARC
  5
245F2
  8
0
 10
4515.2899601092376543
 20
577.0858884989355602
 30
0.0
 40
0.0826573140842531
 50
3.9583061792597301
 51
81.2117058123482281
  0
LINE
  5
245F3
  8
0
 10
4515.3025888187858072
 20
577.167575384460747
 30
0.0
 11
4508.1548504597858482
 21
577.167573928260822
 31
0.0
  0
ARC
  5
245F4
  8
0
 10
4508.1674664610936816
 20
577.0859067948385928
 30
0.0
 40
0.0826358528148742
 50
98.7816787481328902
 51
176.036030093163788
  0
LINE
  5
245F5
  8
0
 10
4508.0850282964647704
 20
577.0916193409434527
 30
0.0
 11
4508.0850187817432015
 21
574.7150540067685824
 31
0.0
  0
ARC
  5
245F6
  8
0
 10
4508.1674967617464063
 20
574.7207762832417757
 30
0.0
 40
0.0826762458821125
 50
183.9687895936694986
 51
261.2012228403298195
  0
LINE
  5
245F7
  8
0
 10
4508.1548502108853427
 20
574.6390730006606873
 30
0.0
 11
4515.3025885668857882
 21
574.6393241128606633
 31
0.0
  0
ARC
  5
245F8
  8
0
 10
4515.2905184133678631
 20
574.7205072910379613
 30
0.0
 40
0.0820755568051146
 50
278.4566736798342959
 51
356.1706186007590986
  0
LINE
  5
245F9
  8
0
 10
4515.3724107243206163
 20
574.7150258284883648
 30
0.0
 11
4515.3724202482280816
 21
577.0915943774259631
 31
0.0
  0
ARC
  5
245FA
  8
0
 10
4522.5910601092373327
 20
577.0858884989355602
 30
0.0
 40
0.0826573140842531
 50
3.9583061792597301
 51
81.2117058123482281
  0
LINE
  5
245FB
  8
0
 10
4522.6036888187863951
 20
577.167575384460747
 30
0.0
 11
4515.4559504597846171
 21
577.167573928260822
 31
0.0
  0
ARC
  5
245FC
  8
0
 10
4515.4685664610942695
 20
577.0859067948385928
 30
0.0
 40
0.0826358528148742
 50
98.7816787481328902
 51
176.036030093163788
  0
LINE
  5
245FD
  8
0
 10
4515.3861282964653583
 20
577.0916193409434527
 30
0.0
 11
4515.3861187817428799
 21
574.7150540067685824
 31
0.0
  0
ARC
  5
245FE
  8
0
 10
4515.4685967617460847
 20
574.7207762832417757
 30
0.0
 40
0.0826762458821125
 50
183.9687895936694986
 51
261.2012228403298195
  0
LINE
  5
245FF
  8
0
 10
4515.4559502108859306
 20
574.6390730006606873
 30
0.0
 11
4522.6036885668845571
 21
574.6393241128606633
 31
0.0
  0
ARC
  5
24600
  8
0
 10
4522.591618413368451
 20
574.7205072910379613
 30
0.0
 40
0.0820755568051146
 50
278.4566736798342959
 51
356.1706186007590986
  0
LINE
  5
24601
  8
0
 10
4522.6735107243212042
 20
574.7150258284883648
 30
0.0
 11
4522.67352024822776
 21
577.0915943774259631
 31
0.0
  0
ARC
  5
24602
  8
0
 10
4529.8921601092379206
 20
577.0858884989355602
 30
0.0
 40
0.0826573140842531
 50
3.9583061792597301
 51
81.2117058123482281
  0
LINE
  5
24603
  8
0
 10
4529.904788818785164
 20
577.167575384460747
 30
0.0
 11
4522.757050459785205
 21
577.167573928260822
 31
0.0
  0
ARC
  5
24604
  8
0
 10
4522.7696664610948574
 20
577.0859067948385928
 30
0.0
 40
0.0826358528148742
 50
98.7816787481328902
 51
176.036030093163788
  0
LINE
  5
24605
  8
0
 10
4522.6872282964659462
 20
577.0916193409434527
 30
0.0
 11
4522.6872187817425583
 21
574.7150540067685824
 31
0.0
  0
ARC
  5
24606
  8
0
 10
4522.7696967617457631
 20
574.7207762832417757
 30
0.0
 40
0.0826762458821125
 50
183.9687895936694986
 51
261.2012228403298195
  0
LINE
  5
24607
  8
0
 10
4522.7570502108846995
 20
574.6390730006606873
 30
0.0
 11
4529.9047885668860545
 21
574.6393241128606633
 31
0.0
  0
ARC
  5
24608
  8
0
 10
4529.8927184133681294
 20
574.7205072910379613
 30
0.0
 40
0.0820755568051146
 50
278.4566736798342959
 51
356.1706186007590986
  0
LINE
  5
24609
  8
0
 10
4529.9746107243208826
 20
574.7150258284883648
 30
0.0
 11
4529.9746202482283479
 21
577.0915943774259631
 31
0.0
  0
ARC
  5
2460A
  8
0
 10
4526.2416101092376266
 20
574.5378384989356846
 30
0.0
 40
0.0826573140842531
 50
3.9583061792597301
 51
81.2117058123482281
  0
LINE
  5
2460B
  8
0
 10
4526.2542388187848701
 20
574.6195253844606441
 30
0.0
 11
4519.1065004597858206
 21
574.619523928260719
 31
0.0
  0
ARC
  5
2460C
  8
0
 10
4519.1191164610936539
 20
574.5378567948384898
 30
0.0
 40
0.0826358528148742
 50
98.7816787481328902
 51
176.036030093163788
  0
LINE
  5
2460D
  8
0
 10
4519.0366782964647427
 20
574.5435693409435771
 30
0.0
 11
4519.0366687817431739
 21
572.1670040067687069
 31
0.0
  0
ARC
  5
2460E
  8
0
 10
4519.1191467617463786
 20
572.1727262832416727
 30
0.0
 40
0.0826762458821125
 50
183.9687895936694986
 51
261.2012228403298195
  0
LINE
  5
2460F
  8
0
 10
4519.106500210885315
 20
572.0910230006608117
 30
0.0
 11
4526.2542385668857605
 21
572.091274112860674
 31
0.0
  0
ARC
  5
24610
  8
0
 10
4526.242168413366926
 20
572.1724572910377447
 30
0.0
 40
0.0820755568051146
 50
278.4566736798342959
 51
356.1706186007590986
  0
LINE
  5
24611
  8
0
 10
4526.3240607243224076
 20
572.1669758284883756
 30
0.0
 11
4526.324070248228054
 21
574.5435443774258601
 31
0.0
  0
ARC
  5
24612
  8
0
 10
4518.9405101092379482
 20
574.5378384989356846
 30
0.0
 40
0.0826573140842531
 50
3.9583061792597301
 51
81.2117058123482281
  0
LINE
  5
24613
  8
0
 10
4518.9531388187851917
 20
574.6195253844606441
 30
0.0
 11
4511.8054004597852327
 21
574.619523928260719
 31
0.0
  0
ARC
  5
24614
  8
0
 10
4511.8180164610939755
 20
574.5378567948384898
 30
0.0
 40
0.0826358528148742
 50
98.7816787481328902
 51
176.036030093163788
  0
LINE
  5
24615
  8
0
 10
4511.7355782964650643
 20
574.5435693409435771
 30
0.0
 11
4511.735568781744405
 21
572.1670040067687069
 31
0.0
  0
ARC
  5
24616
  8
0
 10
4511.8180467617448812
 20
572.1727262832416727
 30
0.0
 40
0.0826762458821125
 50
183.9687895936694986
 51
261.2012228403298195
  0
LINE
  5
24617
  8
0
 10
4511.8054002108847271
 20
572.0910230006608117
 30
0.0
 11
4518.9531385668860821
 21
572.091274112860674
 31
0.0
  0
ARC
  5
24618
  8
0
 10
4518.9410684133681571
 20
572.1724572910377447
 30
0.0
 40
0.0820755568051146
 50
278.4566736798342959
 51
356.1706186007590986
  0
LINE
  5
24619
  8
0
 10
4519.0229607243209102
 20
572.1669758284883756
 30
0.0
 11
4519.0229702482283756
 21
574.5435443774258601
 31
0.0
  0
ARC
  5
2461A
  8
0
 10
4511.6394101092382698
 20
574.5378384989356846
 30
0.0
 40
0.0826573140842531
 50
3.9583061792597301
 51
81.2117058123482281
  0
LINE
  5
2461B
  8
0
 10
4511.6520388187864228
 20
574.6195253844606441
 30
0.0
 11
4504.5043004597846448
 21
574.619523928260719
 31
0.0
  0
ARC
  5
2461C
  8
0
 10
4504.5169164610952066
 20
574.5378567948384898
 30
0.0
 40
0.0826358528148742
 50
98.7816787481328902
 51
176.036030093163788
  0
LINE
  5
2461D
  8
0
 10
4504.4344782964662954
 20
574.5435693409435771
 30
0.0
 11
4504.4344687817429076
 21
572.1670040067687069
 31
0.0
  0
ARC
  5
2461E
  8
0
 10
4504.5169467617461123
 20
572.1727262832416727
 30
0.0
 40
0.0826762458821125
 50
183.9687895936694986
 51
261.2012228403298195
  0
LINE
  5
2461F
  8
0
 10
4504.5043002108859582
 20
572.0910230006608117
 30
0.0
 11
4511.6520385668845847
 21
572.091274112860674
 31
0.0
  0
ARC
  5
24620
  8
0
 10
4511.6399684133675692
 20
572.1724572910377447
 30
0.0
 40
0.0820755568051146
 50
278.4566736798342959
 51
356.1706186007590986
  0
LINE
  5
24621
  8
0
 10
4511.7218607243203223
 20
572.1669758284883756
 30
0.0
 11
4511.7218702482286972
 21
574.5435443774258601
 31
0.0
  0
ARC
  5
24622
  8
0
 10
4515.2899601092376543
 20
571.9897884989355816
 30
0.0
 40
0.0826573140842531
 50
3.9583061792597301
 51
81.2117058123482281
  0
LINE
  5
24623
  8
0
 10
4515.3025888187858072
 20
572.0714753844607685
 30
0.0
 11
4508.1548504597858482
 21
572.0714739282607297
 31
0.0
  0
ARC
  5
24624
  8
0
 10
4508.1674664610936816
 20
571.9898067948385005
 30
0.0
 40
0.0826358528148742
 50
98.7816787481328902
 51
176.036030093163788
  0
LINE
  5
24625
  8
0
 10
4508.0850282964647704
 20
571.9955193409434742
 30
0.0
 11
4508.0850187817432015
 21
569.6189540067686039
 31
0.0
  0
ARC
  5
24626
  8
0
 10
4508.1674967617464063
 20
569.6246762832417971
 30
0.0
 40
0.0826762458821125
 50
183.9687895936694986
 51
261.2012228403298195
  0
LINE
  5
24627
  8
0
 10
4508.1548502108853427
 20
569.5429730006607087
 30
0.0
 11
4515.3025885668857882
 21
569.5432241128606847
 31
0.0
  0
ARC
  5
24628
  8
0
 10
4515.2905184133678631
 20
569.6244072910378691
 30
0.0
 40
0.0820755568051146
 50
278.4566736798342959
 51
356.1706186007590986
  0
LINE
  5
24629
  8
0
 10
4515.3724107243206163
 20
569.6189258284885
 30
0.0
 11
4515.3724202482280816
 21
571.9954943774259846
 31
0.0
  0
ARC
  5
2462A
  8
0
 10
4522.5910601092373327
 20
571.9897884989355816
 30
0.0
 40
0.0826573140842531
 50
3.9583061792597301
 51
81.2117058123482281
  0
LINE
  5
2462B
  8
0
 10
4522.6036888187863951
 20
572.0714753844607685
 30
0.0
 11
4515.4559504597846171
 21
572.0714739282607297
 31
0.0
  0
ARC
  5
2462C
  8
0
 10
4515.4685664610942695
 20
571.9898067948385005
 30
0.0
 40
0.0826358528148742
 50
98.7816787481328902
 51
176.036030093163788
  0
LINE
  5
2462D
  8
0
 10
4515.3861282964653583
 20
571.9955193409434742
 30
0.0
 11
4515.3861187817428799
 21
569.6189540067686039
 31
0.0
  0
ARC
  5
2462E
  8
0
 10
4515.4685967617460847
 20
569.6246762832417971
 30
0.0
 40
0.0826762458821125
 50
183.9687895936694986
 51
261.2012228403298195
  0
LINE
  5
2462F
  8
0
 10
4515.4559502108859306
 20
569.5429730006607087
 30
0.0
 11
4522.6036885668845571
 21
569.5432241128606847
 31
0.0
  0
ARC
  5
24630
  8
0
 10
4522.591618413368451
 20
569.6244072910378691
 30
0.0
 40
0.0820755568051146
 50
278.4566736798342959
 51
356.1706186007590986
  0
LINE
  5
24631
  8
0
 10
4522.6735107243212042
 20
569.6189258284885
 30
0.0
 11
4522.67352024822776
 21
571.9954943774259846
 31
0.0
  0
ARC
  5
24632
  8
0
 10
4529.8921601092379206
 20
571.9897884989355816
 30
0.0
 40
0.0826573140842531
 50
3.9583061792597301
 51
81.2117058123482281
  0
LINE
  5
24633
  8
0
 10
4529.904788818785164
 20
572.0714753844607685
 30
0.0
 11
4522.757050459785205
 21
572.0714739282607297
 31
0.0
  0
ARC
  5
24634
  8
0
 10
4522.7696664610948574
 20
571.9898067948385005
 30
0.0
 40
0.0826358528148742
 50
98.7816787481328902
 51
176.036030093163788
  0
LINE
  5
24635
  8
0
 10
4522.6872282964659462
 20
571.9955193409434742
 30
0.0
 11
4522.6872187817425583
 21
569.6189540067686039
 31
0.0
  0
ARC
  5
24636
  8
0
 10
4522.7696967617457631
 20
569.6246762832417971
 30
0.0
 40
0.0826762458821125
 50
183.9687895936694986
 51
261.2012228403298195
  0
LINE
  5
24637
  8
0
 10
4522.7570502108846995
 20
569.5429730006607087
 30
0.0
 11
4529.9047885668860545
 21
569.5432241128606847
 31
0.0
  0
ARC
  5
24638
  8
0
 10
4529.8927184133681294
 20
569.6244072910378691
 30
0.0
 40
0.0820755568051146
 50
278.4566736798342959
 51
356.1706186007590986
  0
LINE
  5
24639
  8
0
 10
4529.9746107243208826
 20
569.6189258284885
 30
0.0
 11
4529.9746202482283479
 21
571.9954943774259846
 31
0.0
  0
ARC
  5
2463A
  8
0
 10
4526.2416101092376266
 20
569.441738498935706
 30
0.0
 40
0.0826573140842531
 50
3.9583061792597301
 51
81.2117058123482281
  0
LINE
  5
2463B
  8
0
 10
4526.2542388187848701
 20
569.5234253844606656
 30
0.0
 11
4519.1065004597858206
 21
569.5234239282607405
 31
0.0
  0
ARC
  5
2463C
  8
0
 10
4519.1191164610936539
 20
569.441756794838625
 30
0.0
 40
0.0826358528148742
 50
98.7816787481328902
 51
176.036030093163788
  0
LINE
  5
2463D
  8
0
 10
4519.0366782964647427
 20
569.4474693409435986
 30
0.0
 11
4519.0366687817431739
 21
567.0709040067687283
 31
0.0
  0
ARC
  5
2463E
  8
0
 10
4519.1191467617463786
 20
567.0766262832418079
 30
0.0
 40
0.0826762458821125
 50
183.9687895936694986
 51
261.2012228403298195
  0
LINE
  5
2463F
  8
0
 10
4519.106500210885315
 20
566.9949230006608332
 30
0.0
 11
4526.2542385668857605
 21
566.9951741128605818
 31
0.0
  0
ARC
  5
24640
  8
0
 10
4526.242168413366926
 20
567.0763572910377661
 30
0.0
 40
0.0820755568051146
 50
278.4566736798342959
 51
356.1706186007590986
  0
LINE
  5
24641
  8
0
 10
4526.3240607243224076
 20
567.070875828488397
 30
0.0
 11
4526.324070248228054
 21
569.4474443774259953
 31
0.0
  0
ARC
  5
24642
  8
0
 10
4518.9405101092379482
 20
569.441738498935706
 30
0.0
 40
0.0826573140842531
 50
3.9583061792597301
 51
81.2117058123482281
  0
LINE
  5
24643
  8
0
 10
4518.9531388187851917
 20
569.5234253844606656
 30
0.0
 11
4511.8054004597852327
 21
569.5234239282607405
 31
0.0
  0
ARC
  5
24644
  8
0
 10
4511.8180164610939755
 20
569.441756794838625
 30
0.0
 40
0.0826358528148742
 50
98.7816787481328902
 51
176.036030093163788
  0
LINE
  5
24645
  8
0
 10
4511.7355782964650643
 20
569.4474693409435986
 30
0.0
 11
4511.735568781744405
 21
567.0709040067687283
 31
0.0
  0
ARC
  5
24646
  8
0
 10
4511.8180467617448812
 20
567.0766262832418079
 30
0.0
 40
0.0826762458821125
 50
183.9687895936694986
 51
261.2012228403298195
  0
LINE
  5
24647
  8
0
 10
4511.8054002108847271
 20
566.9949230006608332
 30
0.0
 11
4518.9531385668860821
 21
566.9951741128605818
 31
0.0
  0
ARC
  5
24648
  8
0
 10
4518.9410684133681571
 20
567.0763572910377661
 30
0.0
 40
0.0820755568051146
 50
278.4566736798342959
 51
356.1706186007590986
  0
LINE
  5
24649
  8
0
 10
4519.0229607243209102
 20
567.070875828488397
 30
0.0
 11
4519.0229702482283756
 21
569.4474443774259953
 31
0.0
  0
ARC
  5
2464A
  8
0
 10
4511.6394101092382698
 20
569.441738498935706
 30
0.0
 40
0.0826573140842531
 50
3.9583061792597301
 51
81.2117058123482281
  0
LINE
  5
2464B
  8
0
 10
4511.6520388187864228
 20
569.5234253844606656
 30
0.0
 11
4504.5043004597846448
 21
569.5234239282607405
 31
0.0
  0
ARC
  5
2464C
  8
0
 10
4504.5169164610952066
 20
569.441756794838625
 30
0.0
 40
0.0826358528148742
 50
98.7816787481328902
 51
176.036030093163788
  0
LINE
  5
2464D
  8
0
 10
4504.4344782964662954
 20
569.4474693409435986
 30
0.0
 11
4504.4344687817429076
 21
567.0709040067687283
 31
0.0
  0
ARC
  5
2464E
  8
0
 10
4504.5169467617461123
 20
567.0766262832418079
 30
0.0
 40
0.0826762458821125
 50
183.9687895936694986
 51
261.2012228403298195
  0
LINE
  5
2464F
  8
0
 10
4504.5043002108859582
 20
566.9949230006608332
 30
0.0
 11
4511.6520385668845847
 21
566.9951741128605818
 31
0.0
  0
ARC
  5
24650
  8
0
 10
4511.6399684133675692
 20
567.0763572910377661
 30
0.0
 40
0.0820755568051146
 50
278.4566736798342959
 51
356.1706186007590986
  0
LINE
  5
24651
  8
0
 10
4511.7218607243203223
 20
567.070875828488397
 30
0.0
 11
4511.7218702482286972
 21
569.4474443774259953
 31
0.0
  0
ARC
  5
24652
  8
0
 10
4515.2899601092376543
 20
566.8936884989354894
 30
0.0
 40
0.0826573140842531
 50
3.9583061792597301
 51
81.2117058123482281
  0
LINE
  5
24653
  8
0
 10
4515.3025888187858072
 20
566.97537538446079
 30
0.0
 11
4508.1548504597858482
 21
566.9753739282607512
 31
0.0
  0
ARC
  5
24654
  8
0
 10
4508.1674664610936816
 20
566.893706794838522
 30
0.0
 40
0.0826358528148742
 50
98.7816787481328902
 51
176.036030093163788
  0
LINE
  5
24655
  8
0
 10
4508.0850282964647704
 20
566.8994193409436093
 30
0.0
 11
4508.0850187817432015
 21
564.5228540067686254
 31
0.0
  0
ARC
  5
24656
  8
0
 10
4508.1674967617464063
 20
564.5285762832417049
 30
0.0
 40
0.0826762458821125
 50
183.9687895936694986
 51
261.2012228403298195
  0
LINE
  5
24657
  8
0
 10
4508.1548502108853427
 20
564.4468730006606165
 30
0.0
 11
4515.3025885668857882
 21
564.4471241128607062
 31
0.0
  0
ARC
  5
24658
  8
0
 10
4515.2905184133678631
 20
564.5283072910378905
 30
0.0
 40
0.0820755568051146
 50
278.4566736798342959
 51
356.1706186007590986
  0
LINE
  5
24659
  8
0
 10
4515.3724107243206163
 20
564.5228258284884078
 30
0.0
 11
4515.3724202482280816
 21
566.899394377426006
 31
0.0
  0
ARC
  5
2465A
  8
0
 10
4522.5910601092373327
 20
566.8936884989354894
 30
0.0
 40
0.0826573140842531
 50
3.9583061792597301
 51
81.2117058123482281
  0
LINE
  5
2465B
  8
0
 10
4522.6036888187863951
 20
566.97537538446079
 30
0.0
 11
4515.4559504597846171
 21
566.9753739282607512
 31
0.0
  0
ARC
  5
2465C
  8
0
 10
4515.4685664610942695
 20
566.893706794838522
 30
0.0
 40
0.0826358528148742
 50
98.7816787481328902
 51
176.036030093163788
  0
LINE
  5
2465D
  8
0
 10
4515.3861282964653583
 20
566.8994193409436093
 30
0.0
 11
4515.3861187817428799
 21
564.5228540067686254
 31
0.0
  0
ARC
  5
2465E
  8
0
 10
4515.4685967617460847
 20
564.5285762832417049
 30
0.0
 40
0.0826762458821125
 50
183.9687895936694986
 51
261.2012228403298195
  0
LINE
  5
2465F
  8
0
 10
4515.4559502108859306
 20
564.4468730006606165
 30
0.0
 11
4522.6036885668845571
 21
564.4471241128607062
 31
0.0
  0
ARC
  5
24660
  8
0
 10
4522.591618413368451
 20
564.5283072910378905
 30
0.0
 40
0.0820755568051146
 50
278.4566736798342959
 51
356.1706186007590986
  0
LINE
  5
24661
  8
0
 10
4522.6735107243212042
 20
564.5228258284884078
 30
0.0
 11
4522.67352024822776
 21
566.899394377426006
 31
0.0
  0
ARC
  5
24662
  8
0
 10
4529.8921601092379206
 20
566.8936884989354894
 30
0.0
 40
0.0826573140842531
 50
3.9583061792597301
 51
81.2117058123482281
  0
LINE
  5
24663
  8
0
 10
4529.904788818785164
 20
566.97537538446079
 30
0.0
 11
4522.757050459785205
 21
566.9753739282607512
 31
0.0
  0
ARC
  5
24664
  8
0
 10
4522.7696664610948574
 20
566.893706794838522
 30
0.0
 40
0.0826358528148742
 50
98.7816787481328902
 51
176.036030093163788
  0
LINE
  5
24665
  8
0
 10
4522.6872282964659462
 20
566.8994193409436093
 30
0.0
 11
4522.6872187817425583
 21
564.5228540067686254
 31
0.0
  0
ARC
  5
24666
  8
0
 10
4522.7696967617457631
 20
564.5285762832417049
 30
0.0
 40
0.0826762458821125
 50
183.9687895936694986
 51
261.2012228403298195
  0
LINE
  5
24667
  8
0
 10
4522.7570502108846995
 20
564.4468730006606165
 30
0.0
 11
4529.9047885668860545
 21
564.4471241128607062
 31
0.0
  0
ARC
  5
24668
  8
0
 10
4529.8927184133681294
 20
564.5283072910378905
 30
0.0
 40
0.0820755568051146
 50
278.4566736798342959
 51
356.1706186007590986
  0
LINE
  5
24669
  8
0
 10
4529.9746107243208826
 20
564.5228258284884078
 30
0.0
 11
4529.9746202482283479
 21
566.899394377426006
 31
0.0
  0
ARC
  5
2466A
  8
0
 10
4507.9890519779000897
 20
587.278264842150179
 30
0.0
 40
0.0824538872278029
 50
3.845279495477858
 51
81.3247449837255516
  0
LINE
  5
2466B
  8
0
 10
4508.0014888187852193
 20
587.3597753844607041
 30
0.0
 11
4501.3034345467631283
 21
587.3595237077149704
 31
0.0
  0
LINE
  5
2466C
  8
0
 10
4501.3034345265014053
 20
584.8315241216828326
 30
0.0
 11
4508.0014885668852003
 21
584.8315241128608477
 31
0.0
  0
ARC
  5
2466D
  8
0
 10
4507.9898444764958185
 20
584.912314318868539
 30
0.0
 40
0.0816250098177938
 50
278.2014199949196041
 51
356.4258718554817165
  0
LINE
  5
2466E
  8
0
 10
4508.0713107240117097
 20
584.9072258275831473
 30
0.0
 11
4508.071320243455375
 21
587.2837943992386727
 31
0.0
  0
ARC
  5
2466F
  8
0
 10
4499.8535185692189771
 20
585.1992084898148505
 30
0.0
 40
1.48214524480013
 50
348.9203875080023067
 51
359.3163938465949059
  0
LINE
  5
24670
  8
0
 10
4501.3355583213506179
 20
585.1815251703870899
 30
0.0
 11
4501.335547804052112
 21
587.0095158623606721
 31
0.0
  0
ARC
  5
24671
  8
0
 10
4499.8252014386580413
 20
586.9889804458122171
 30
0.0
 40
1.5104859637853101
 50
0.7789737707169913
 51
10.9736382729854096
  0
LINE
  5
24672
  8
0
 10
4501.3034038934847558
 20
587.3013175163606547
 30
0.0
 11
4501.3080679710756158
 21
587.2765125202412264
 31
0.0
  0
LINE
  5
24673
  8
0
 10
4501.3034038934847558
 20
584.8898501726606582
 30
0.0
 11
4501.3080382670850668
 21
584.9143805150605431
 31
0.0
  0
ARC
  5
24674
  8
0
 10
4507.9890519779000897
 20
592.3743648421500438
 30
0.0
 40
0.0824538872278029
 50
3.845279495477858
 51
81.3247449837255516
  0
LINE
  5
24675
  8
0
 10
4508.0014888187852193
 20
592.4558753844607963
 30
0.0
 11
4502.0243956818749211
 21
592.4444560551087307
 31
0.0
  0
LINE
  5
24676
  8
0
 10
4501.3034345265032243
 20
589.9276241216829249
 30
0.0
 11
4508.0014885668852003
 21
589.9276241128608262
 31
0.0
  0
ARC
  5
24677
  8
0
 10
4507.9898444764958185
 20
590.0084143188685175
 30
0.0
 40
0.0816250098177938
 50
278.2014199949196041
 51
356.4258718554817165
  0
LINE
  5
24678
  8
0
 10
4508.0713107240117097
 20
590.0033258275831258
 30
0.0
 11
4508.071320243455375
 21
592.3798943992386512
 31
0.0
  0
ARC
  5
24679
  8
0
 10
4499.8535185692189771
 20
590.295308489814829
 30
0.0
 40
1.48214524480013
 50
348.9203875080023067
 51
359.3163938465949059
  0
LINE
  5
2467A
  8
0
 10
4501.3355583213506179
 20
590.2776251703869548
 30
0.0
 11
4501.335547804052112
 21
592.1056158623606507
 31
0.0
  0
ARC
  5
2467B
  8
0
 10
4499.8252014386562223
 20
592.0850804458121956
 30
0.0
 40
1.510485963787308
 50
0.7789737707235044
 51
10.9067373699272903
  0
LINE
  5
2467C
  8
0
 10
4501.3034038934847558
 20
592.397417516360747
 30
0.0
 11
4501.3084026943879508
 21
592.3708808688196541
 31
0.0
  0
LINE
  5
2467D
  8
0
 10
4501.3034038934847558
 20
589.9859501726607505
 30
0.0
 11
4501.3080382670850668
 21
590.0104805150605216
 31
0.0
  0
ARC
  5
2467E
  8
0
 10
4507.9890519779000897
 20
582.1821648421502005
 30
0.0
 40
0.0824538872278029
 50
3.845279495477858
 51
81.3247449837255516
  0
LINE
  5
2467F
  8
0
 10
4508.0014888187852193
 20
582.2636753844607256
 30
0.0
 11
4501.3034345467622188
 21
582.2634237077151056
 31
0.0
  0
LINE
  5
24680
  8
0
 10
4501.3034345265068623
 20
579.7354241216828541
 30
0.0
 11
4508.0014885668852003
 21
579.7354241128607555
 31
0.0
  0
ARC
  5
24681
  8
0
 10
4507.9898444764958185
 20
579.8162143188684468
 30
0.0
 40
0.0816250098177938
 50
278.2014199949196041
 51
356.4258718554817165
  0
LINE
  5
24682
  8
0
 10
4508.0713107240117097
 20
579.8111258275830551
 30
0.0
 11
4508.071320243455375
 21
582.1876943992385804
 31
0.0
  0
ARC
  5
24683
  8
0
 10
4499.8535185692189771
 20
580.103108489814872
 30
0.0
 40
1.48214524480013
 50
348.9203875080023067
 51
359.3163938465949059
  0
LINE
  5
24684
  8
0
 10
4501.3355583213506179
 20
580.0854251703871114
 30
0.0
 11
4501.335547804052112
 21
581.9134158623608073
 31
0.0
  0
ARC
  5
24685
  8
0
 10
4499.8252014386580413
 20
581.8928804458122386
 30
0.0
 40
1.5104859637853101
 50
0.7789737707169913
 51
10.9736382729854096
  0
LINE
  5
24686
  8
0
 10
4501.3034038934847558
 20
582.2052175163607899
 30
0.0
 11
4501.3080679710756158
 21
582.1804125202412479
 31
0.0
  0
LINE
  5
24687
  8
0
 10
4501.3034038934847558
 20
579.7937501726606797
 30
0.0
 11
4501.3080382670850668
 21
579.8182805150604509
 31
0.0
  0
ARC
  5
24688
  8
0
 10
4507.9890519779000897
 20
577.0860648421502219
 30
0.0
 40
0.0824538872278029
 50
3.845279495477858
 51
81.3247449837255516
  0
LINE
  5
24689
  8
0
 10
4508.0014888187852193
 20
577.167575384460747
 30
0.0
 11
4501.3034345467622188
 21
577.1673237077150134
 31
0.0
  0
LINE
  5
2468A
  8
0
 10
4501.3034345264968579
 20
574.6393241216828756
 30
0.0
 11
4508.0014885668852003
 21
574.6393241128607769
 31
0.0
  0
ARC
  5
2468B
  8
0
 10
4507.9898444764958185
 20
574.7201143188683545
 30
0.0
 40
0.0816250098177938
 50
278.2014199949196041
 51
356.4258718554817165
  0
LINE
  5
2468C
  8
0
 10
4508.0713107240117097
 20
574.7150258275829628
 30
0.0
 11
4508.071320243455375
 21
577.0915943992386019
 31
0.0
  0
ARC
  5
2468D
  8
0
 10
4499.8535185692189771
 20
575.0070084898147798
 30
0.0
 40
1.48214524480013
 50
348.9203875080023067
 51
359.3163938465949059
  0
LINE
  5
2468E
  8
0
 10
4501.3355583213506179
 20
574.9893251703871329
 30
0.0
 11
4501.335547804052112
 21
576.8173158623607151
 31
0.0
  0
ARC
  5
2468F
  8
0
 10
4499.8252014386580413
 20
576.7967804458121464
 30
0.0
 40
1.5104859637853101
 50
0.7789737707169913
 51
10.9736382729854096
  0
LINE
  5
24690
  8
0
 10
4501.3034038934847558
 20
577.1091175163608114
 30
0.0
 11
4501.3080679710756158
 21
577.0843125202412693
 31
0.0
  0
LINE
  5
24691
  8
0
 10
4501.3034038934847558
 20
574.6976501726607012
 30
0.0
 11
4501.3080382670850668
 21
574.722180515060586
 31
0.0
  0
ARC
  5
24692
  8
0
 10
4507.9890519779000897
 20
571.9899648421501297
 30
0.0
 40
0.0824538872278029
 50
3.845279495477858
 51
81.3247449837255516
  0
LINE
  5
24693
  8
0
 10
4508.0014888187852193
 20
572.0714753844607685
 30
0.0
 11
4501.3034345467449384
 21
572.0712237077150348
 31
0.0
  0
LINE
  5
24694
  8
0
 10
4501.3034345265723459
 20
569.543224121682897
 30
0.0
 11
4508.0014885668852003
 21
569.5432241128607984
 31
0.0
  0
ARC
  5
24695
  8
0
 10
4507.9898444764958185
 20
569.6240143188684897
 30
0.0
 40
0.0816250098177938
 50
278.2014199949196041
 51
356.4258718554817165
  0
LINE
  5
24696
  8
0
 10
4508.0713107240117097
 20
569.618925827583098
 30
0.0
 11
4508.071320243455375
 21
571.9954943992387371
 31
0.0
  0
ARC
  5
24697
  8
0
 10
4499.8535185692189771
 20
569.9109084898148012
 30
0.0
 40
1.48214524480013
 50
348.9203875080023067
 51
359.3163938465949059
  0
LINE
  5
24698
  8
0
 10
4501.3355583213506179
 20
569.8932251703871543
 30
0.0
 11
4501.335547804052112
 21
571.7212158623607365
 31
0.0
  0
ARC
  5
24699
  8
0
 10
4499.8252014386580413
 20
571.7006804458121678
 30
0.0
 40
1.5104859637853101
 50
0.7789737707169913
 51
10.9736382729854096
  0
LINE
  5
2469A
  8
0
 10
4501.3034038934847558
 20
572.0130175163607191
 30
0.0
 11
4501.3080679710756158
 21
571.9882125202412908
 31
0.0
  0
LINE
  5
2469B
  8
0
 10
4501.3034038934847558
 20
569.601550172660609
 30
0.0
 11
4501.3080382670850668
 21
569.6260805150606075
 31
0.0
  0
ARC
  5
2469C
  8
0
 10
4507.9890519779000897
 20
566.8938648421501512
 30
0.0
 40
0.0824538872278029
 50
3.845279495477858
 51
81.3247449837255516
  0
LINE
  5
2469D
  8
0
 10
4508.0014888187852193
 20
566.97537538446079
 30
0.0
 11
4501.3034345468349784
 21
566.9751237077150563
 31
0.0
  0
LINE
  5
2469E
  8
0
 10
4501.2933929088858349
 20
564.4471241216961062
 30
0.0
 11
4508.0014885668852003
 21
564.4471241128607062
 31
0.0
  0
ARC
  5
2469F
  8
0
 10
4507.9898444764958185
 20
564.5279143188685111
 30
0.0
 40
0.0816250098177938
 50
278.2014199949196041
 51
356.4258718554817165
  0
LINE
  5
246A0
  8
0
 10
4508.0713107240117097
 20
564.5228258275831195
 30
0.0
 11
4508.071320243455375
 21
566.8993943992386448
 31
0.0
  0
ARC
  5
246A1
  8
0
 10
4499.8535185692189771
 20
564.8148084898148227
 30
0.0
 40
1.48214524480013
 50
348.9203875080023067
 51
359.3163938465949059
  0
LINE
  5
246A2
  8
0
 10
4501.3355583213506179
 20
564.7971251703870621
 30
0.0
 11
4501.335547804052112
 21
566.6251158623606443
 31
0.0
  0
ARC
  5
246A3
  8
0
 10
4499.8252014386580413
 20
566.6045804458121893
 30
0.0
 40
1.5104859637853101
 50
0.7789737707169913
 51
10.9736382729854096
  0
LINE
  5
246A4
  8
0
 10
4501.3034038934847558
 20
566.9169175163607406
 30
0.0
 11
4501.3080679710756158
 21
566.8921125202411986
 31
0.0
  0
LINE
  5
246A5
  8
0
 10
4501.2933929088858349
 20
564.4498129911607975
 30
0.0
 11
4501.3080382670850668
 21
564.5299805150606289
 31
0.0
  0
ARC
  5
246A6
  8
0
 10
4499.7988121209600649
 20
589.5259903274727549
 30
0.0
 40
1.552264963746703
 50
1.1658750917399781
 51
14.2305303175386992
  0
LINE
  5
246A7
  8
0
 10
4501.3507557337061371
 20
589.5575741925607645
 30
0.0
 11
4501.3507557337807157
 21
587.7295741925753418
 31
0.0
  0
ARC
  5
246A8
  8
0
 10
4499.7988092538980709
 20
587.7611582340331324
 30
0.0
 40
1.5522678338785421
 50
345.7694898360028901
 51
358.8341205529117133
  0
ARC
  5
246A9
  8
0
 10
4504.3447544492109955
 20
589.8328302449026523
 30
0.0
 40
0.0755817696212508
 50
355.7014757931273721
 51
89.1652228172156214
  0
LINE
  5
246AA
  8
0
 10
4504.3458556071846033
 20
589.9084039926607375
 30
0.0
 11
4501.3034450567829481
 21
589.9075741925802276
 31
0.0
  0
LINE
  5
246AB
  8
0
 10
4501.3034451060029824
 20
587.3795741926277287
 30
0.0
 11
4504.3391800415392936
 21
587.3760785424100277
 31
0.0
  0
ARC
  5
246AC
  8
0
 10
4504.340572971608708
 20
587.4557989147333501
 30
0.0
 40
0.0797325405187388
 50
268.9989899497351757
 51
3.0706347438357979
  0
LINE
  5
246AD
  8
0
 10
4504.4201910365864023
 20
587.4600699505607508
 30
0.0
 11
4504.4201236121853071
 21
589.8271651613607673
 31
0.0
  0
ARC
  5
246AE
  8
0
 10
4499.798812120956427
 20
584.4298903274727763
 30
0.0
 40
1.552264963746703
 50
1.1658750917399781
 51
14.2305303175386992
  0
LINE
  5
246AF
  8
0
 10
4501.3507557337006801
 20
584.4614741925607859
 30
0.0
 11
4501.3507557337770777
 21
582.6334741925752496
 31
0.0
  0
ARC
  5
246B0
  8
0
 10
4499.7988092538953424
 20
582.6650582340331539
 30
0.0
 40
1.5522678338785421
 50
345.7694898360028901
 51
358.8341205529117133
  0
ARC
  5
246B1
  8
0
 10
4504.344754449206448
 20
584.7367302449026738
 30
0.0
 40
0.0755817696212508
 50
355.7014757931273721
 51
89.1652228172156214
  0
LINE
  5
246B2
  8
0
 10
4504.3458556071809653
 20
584.8123039926606452
 30
0.0
 11
4501.3034450567793101
 21
584.8114741925802491
 31
0.0
  0
LINE
  5
246B3
  8
0
 10
4501.3034451059993444
 20
582.2834741926277502
 30
0.0
 11
4504.3391800415347461
 21
582.2799785424100492
 31
0.0
  0
ARC
  5
246B4
  8
0
 10
4504.3405729716050701
 20
582.3596989147333716
 30
0.0
 40
0.0797325405187388
 50
268.9989899497351757
 51
3.0706347438357979
  0
LINE
  5
246B5
  8
0
 10
4504.4201910365800359
 20
582.3639699505607723
 30
0.0
 11
4504.4201236121798502
 21
584.7310651613606751
 31
0.0
  0
ARC
  5
246B6
  8
0
 10
4499.798812120956427
 20
579.3337903274726841
 30
0.0
 40
1.552264963746703
 50
1.1658750917399781
 51
14.2305303175386992
  0
LINE
  5
246B7
  8
0
 10
4501.3507557337006801
 20
579.3653741925608074
 30
0.0
 11
4501.3507557337770777
 21
577.5373741925752711
 31
0.0
  0
ARC
  5
246B8
  8
0
 10
4499.7988092538953424
 20
577.568958234032948
 30
0.0
 40
1.5522678338785421
 50
345.7694898360028901
 51
358.8341205529117133
  0
ARC
  5
246B9
  8
0
 10
4504.344754449206448
 20
579.6406302449025816
 30
0.0
 40
0.0755817696212508
 50
355.7014757931273721
 51
89.1652228172156214
  0
LINE
  5
246BA
  8
0
 10
4504.3458556071809653
 20
579.7162039926606667
 30
0.0
 11
4501.3034450567793101
 21
579.7153741925802706
 31
0.0
  0
LINE
  5
246BB
  8
0
 10
4501.3034451059993444
 20
577.1873741926277717
 30
0.0
 11
4504.3391800415347461
 21
577.1838785424098432
 31
0.0
  0
ARC
  5
246BC
  8
0
 10
4504.3405729716050701
 20
577.263598914733393
 30
0.0
 40
0.0797325405187388
 50
268.9989899497351757
 51
3.0706347438357979
  0
LINE
  5
246BD
  8
0
 10
4504.4201910365800359
 20
577.2678699505607938
 30
0.0
 11
4504.4201236121798502
 21
579.6349651613608103
 31
0.0
  0
ARC
  5
246BE
  8
0
 10
4499.798812120956427
 20
574.2376903274727056
 30
0.0
 40
1.552264963746703
 50
1.1658750917399781
 51
14.2305303175386992
  0
LINE
  5
246BF
  8
0
 10
4501.3507557337006801
 20
574.2692741925607152
 30
0.0
 11
4501.3507557337770777
 21
572.4412741925751789
 31
0.0
  0
ARC
  5
246C0
  8
0
 10
4499.7988092538953424
 20
572.4728582340330831
 30
0.0
 40
1.5522678338785421
 50
345.7694898360028901
 51
358.8341205529117133
  0
ARC
  5
246C1
  8
0
 10
4504.344754449206448
 20
574.544530244902603
 30
0.0
 40
0.0755817696212508
 50
355.7014757931273721
 51
89.1652228172156214
  0
LINE
  5
246C2
  8
0
 10
4504.3458556071809653
 20
574.6201039926606882
 30
0.0
 11
4501.3034450567793101
 21
574.619274192580292
 31
0.0
  0
LINE
  5
246C3
  8
0
 10
4501.3034451059993444
 20
572.0912741926276794
 30
0.0
 11
4504.3391800415347461
 21
572.0877785424098647
 31
0.0
  0
ARC
  5
246C4
  8
0
 10
4504.3405729716050701
 20
572.1674989147335282
 30
0.0
 40
0.0797325405187388
 50
268.9989899497351757
 51
3.0706347438357979
  0
LINE
  5
246C5
  8
0
 10
4504.4201910365800359
 20
572.1717699505608152
 30
0.0
 11
4504.4201236121798502
 21
574.5388651613608317
 31
0.0
  0
ARC
  5
246C6
  8
0
 10
4499.7988121210546524
 20
569.141590327472727
 30
0.0
 40
1.552264963746703
 50
1.1658750917399781
 51
14.2305303175386992
  0
LINE
  5
246C7
  8
0
 10
4501.3507557338016341
 20
569.1731741925607366
 30
0.0
 11
4501.3507557338762126
 21
567.3451741925752003
 31
0.0
  0
ARC
  5
246C8
  8
0
 10
4499.7988092539935678
 20
567.3767582340331046
 30
0.0
 40
1.5522678338785421
 50
345.7694898360028901
 51
358.8341205529117133
  0
ARC
  5
246C9
  8
0
 10
4504.344754449305583
 20
569.4484302449027382
 30
0.0
 40
0.0755817696212508
 50
355.7014757931273721
 51
89.1652228172156214
  0
LINE
  5
246CA
  8
0
 10
4504.3458556072810097
 20
569.5240039926608233
 30
0.0
 11
4501.3034450568793545
 21
569.5231741925803135
 31
0.0
  0
LINE
  5
246CB
  8
0
 10
4501.3034451060993888
 20
566.9951741926277009
 30
0.0
 11
4504.3391800416347905
 21
566.9916785424098862
 31
0.0
  0
ARC
  5
246CC
  8
0
 10
4504.3405729717051145
 20
567.0713989147335496
 30
0.0
 40
0.0797325405187388
 50
268.9989899497351757
 51
3.0706347438357979
  0
LINE
  5
246CD
  8
0
 10
4504.4201910366809898
 20
567.075669950560723
 30
0.0
 11
4504.4201236122798946
 21
569.4427651613608532
 31
0.0
  0
LINE
  5
246CE
  8
0
 10
4501.3034038934847558
 20
566.9169175163607406
 30
0.0
 11
4501.3034451060993888
 21
566.9951741926277009
 31
0.0
  0
LINE
  5
246CF
  8
0
 10
4501.3034038934847558
 20
569.601550172660609
 30
0.0
 11
4501.3034450568793545
 21
569.5231741925803135
 31
0.0
  0
LINE
  5
246D0
  8
0
 10
4501.303445105976607
 20
572.0912741926276794
 30
0.0
 11
4501.3034038934847558
 21
572.0130175163607191
 31
0.0
  0
LINE
  5
246D1
  8
0
 10
4501.3034038934847558
 20
574.6976501726607012
 30
0.0
 11
4501.3034450567793101
 21
574.619274192580292
 31
0.0
  0
LINE
  5
246D2
  8
0
 10
4501.3034451059993444
 20
577.1873741926277717
 30
0.0
 11
4501.3034038934847558
 21
577.1091175163608114
 31
0.0
  0
LINE
  5
246D3
  8
0
 10
4501.3034038934847558
 20
579.7937501726606797
 30
0.0
 11
4501.3034450567911335
 21
579.7153741925802706
 31
0.0
  0
LINE
  5
246D4
  8
0
 10
4501.3034451059993444
 20
582.2834741926275228
 30
0.0
 11
4501.3034038934847558
 21
582.2052175163607899
 31
0.0
  0
LINE
  5
246D5
  8
0
 10
4501.3034450567829481
 20
584.811474192585024
 30
0.0
 11
4501.3034038934847558
 21
584.8898501726606582
 31
0.0
  0
LINE
  5
246D6
  8
0
 10
4501.3034451060029824
 20
587.379574192627615
 30
0.0
 11
4501.3034038934847558
 21
587.3013175163606547
 31
0.0
  0
LINE
  5
246D7
  8
0
 10
4501.3034038934847558
 20
589.9859501726607505
 30
0.0
 11
4501.3034450567865861
 21
589.9075741925680632
 31
0.0
  0
ARC
  5
246D8
  8
0
 10
4501.5989704240500942
 20
592.4722498184816004
 30
0.0
 40
0.3048925178335519
 50
178.7362503745150946
 51
194.2077375342720131
  0
ARC
  5
246D9
  8
0
 10
4499.7328754718691926
 20
609.9050888041537064
 30
0.0
 40
1.618225219196606
 50
1.3060976323918549
 51
13.9566228784806992
  0
LINE
  5
246DA
  8
0
 10
4501.3506802586589401
 20
609.9419741925775043
 30
0.0
 11
4501.3506802864267229
 21
608.1139741925607041
 31
0.0
  0
ARC
  5
246DB
  8
0
 10
4499.7328842790366252
 20
608.1508585300022105
 30
0.0
 40
1.6182164181199781
 50
346.0433379948966035
 51
358.6939324843651207
  0
ARC
  5
246DC
  8
0
 10
4501.5571948462757064
 20
563.8113816396024731
 30
0.0
 40
0.0622799297156135
 50
272.8118206547271143
 51
6.8022238238249688
  0
ARC
  5
246DD
  8
0
 10
4501.4722812132049512
 20
563.8741803355163711
 30
0.0
 40
0.1250036442470351
 50
270.0082357213067894
 51
9.2064206335219385
  0
ARC
  5
246DE
  8
0
 10
4500.0340410482967854
 20
563.6368120584581902
 30
0.0
 40
1.595404217641563
 50
6.5484836707045213
 51
20.1033847732450113
  0
ARC
  5
246DF
  8
0
 10
4500.0097898184585574
 20
563.6371371108849644
 30
0.0
 40
1.6065806992969269
 50
9.2065302959291841
 51
19.945230435916411
  0
ARC
  5
246E0
  8
0
 10
4501.3061214536883199
 20
564.1027125105763389
 30
0.0
 40
0.2406897594336453
 50
20.0363402094571903
 51
65.7954441448804062
  0
ARC
  5
246E1
  8
0
 10
4501.2944405987518621
 20
564.1033387432676136
 30
0.0
 40
0.2399528833841081
 50
19.9413713469166005
 51
65.8221682422480399
  0
ARC
  5
246E2
  8
0
 10
4501.4864663357648169
 20
564.5080600862131632
 30
0.0
 40
0.202970428398175
 50
207.7927801673226895
 51
246.2754466610830093
  0
ARC
  5
246E3
  8
0
 10
4501.4730779678156978
 20
564.5030198331327256
 30
0.0
 40
0.197833514560077
 50
206.9302288959223972
 51
246.0336940051979013
  0
LINE
  5
246E4
  8
0
 10
4501.2933929088858349
 20
564.4498129911607975
 30
0.0
 11
4501.2933929088858349
 21
564.4271120645606743
 31
0.0
  0
ARC
  5
246E5
  8
0
 10
4501.3235155415859481
 20
564.4271379271159503
 30
0.0
 40
0.030122643800803
 50
180.0491928132078101
 51
207.0908011621793889
  0
ARC
  5
246E6
  8
0
 10
4502.0798466955338881
 20
577.9827244868949947
 30
0.0
 40
14.4618378764934992
 50
90.2196897009142305
 51
93.0990204830858374
  0
ARC
  5
246E7
  8
0
 10
4526.4201739884647395
 20
620.4027945594434641
 30
0.0
 40
0.082590736034968
 50
98.7086293287308223
 51
176.0578882937666947
  0
LINE
  5
246E8
  8
0
 10
4526.4076689502471709
 20
620.4844331146606464
 30
0.0
 11
4533.5487788821474169
 21
620.4869156662606429
 31
0.0
  0
ARC
  5
246E9
  8
0
 10
4533.5395109310966291
 20
620.4014692974784566
 30
0.0
 40
0.0859475238429649
 50
4.6549835224746277
 51
83.8096064398093432
  0
LINE
  5
246EA
  8
0
 10
4533.6251749533457769
 20
620.4084444065606476
 30
0.0
 11
4533.6251658082474023
 21
618.0318758113496642
 31
0.0
  0
ARC
  5
246EB
  8
0
 10
4533.5429314971252097
 20
618.0374056768040418
 30
0.0
 40
0.0824200299533133
 50
278.6135839955026086
 51
356.1529236846308208
  0
LINE
  5
246EC
  8
0
 10
4533.5552755251483177
 20
617.9559152705606948
 30
0.0
 11
4526.4141656003466778
 21
617.9534327188607676
 31
0.0
  0
ARC
  5
246ED
  8
0
 10
4526.4234276738734479
 20
618.0388733725674228
 30
0.0
 40
0.0859412084614658
 50
184.6514972331663103
 51
263.8130911929200124
  0
LINE
  5
246EE
  8
0
 10
4526.3377695219469388
 20
618.0319039880607761
 30
0.0
 11
4526.3377786605460642
 21
620.4084725534607969
 31
0.0
  0
ARC
  5
246EF
  8
0
 10
4526.4201739884647395
 20
615.3066945594433719
 30
0.0
 40
0.082590736034968
 50
98.7086293287308223
 51
176.0578882937666947
  0
LINE
  5
246F0
  8
0
 10
4526.4076689502471709
 20
615.3883331146607816
 30
0.0
 11
4533.5487788821474169
 21
615.3908156662605506
 31
0.0
  0
ARC
  5
246F1
  8
0
 10
4533.5395109310966291
 20
615.3053692974783644
 30
0.0
 40
0.0859475238429649
 50
4.6549835224746277
 51
83.8096064398093432
  0
LINE
  5
246F2
  8
0
 10
4533.6251749533457769
 20
615.3123444065607828
 30
0.0
 11
4533.6251658082474023
 21
612.9357758113496857
 31
0.0
  0
ARC
  5
246F3
  8
0
 10
4533.5429314971252097
 20
612.9413056768039496
 30
0.0
 40
0.0824200299533133
 50
278.6135839955026086
 51
356.1529236846308208
  0
LINE
  5
246F4
  8
0
 10
4533.5552755251483177
 20
612.8598152705607163
 30
0.0
 11
4526.4141656003466778
 21
612.8573327188607891
 31
0.0
  0
ARC
  5
246F5
  8
0
 10
4526.4234276738734479
 20
612.9427733725674443
 30
0.0
 40
0.0859412084614658
 50
184.6514972331663103
 51
263.8130911929200124
  0
LINE
  5
246F6
  8
0
 10
4526.3377695219469388
 20
612.9358039880606839
 30
0.0
 11
4526.3377786605460642
 21
615.3123725534607047
 31
0.0
  0
ARC
  5
246F7
  8
0
 10
4526.4201739884647395
 20
610.210594559443507
 30
0.0
 40
0.082590736034968
 50
98.7086293287308223
 51
176.0578882937666947
  0
LINE
  5
246F8
  8
0
 10
4526.4076689502471709
 20
610.2922331146606894
 30
0.0
 11
4533.5487788821474169
 21
610.2947156662605721
 31
0.0
  0
ARC
  5
246F9
  8
0
 10
4533.5395109310966291
 20
610.2092692974783859
 30
0.0
 40
0.0859475238429649
 50
4.6549835224746277
 51
83.8096064398093432
  0
LINE
  5
246FA
  8
0
 10
4533.6251749533457769
 20
610.2162444065608042
 30
0.0
 11
4533.6251658082474023
 21
607.8396758113498208
 31
0.0
  0
ARC
  5
246FB
  8
0
 10
4533.5429314971252097
 20
607.8452056768040848
 30
0.0
 40
0.0824200299533133
 50
278.6135839955026086
 51
356.1529236846308208
  0
LINE
  5
246FC
  8
0
 10
4533.5552755251483177
 20
607.7637152705607377
 30
0.0
 11
4526.4141656003466778
 21
607.7612327188606969
 31
0.0
  0
ARC
  5
246FD
  8
0
 10
4526.4234276738734479
 20
607.8466733725673521
 30
0.0
 40
0.0859412084614658
 50
184.6514972331663103
 51
263.8130911929200124
  0
LINE
  5
246FE
  8
0
 10
4526.3377695219469388
 20
607.8397039880607053
 30
0.0
 11
4526.3377786605460642
 21
610.2162725534607262
 31
0.0
  0
ARC
  5
246FF
  8
0
 10
4526.4201739884647395
 20
605.1144945594435285
 30
0.0
 40
0.082590736034968
 50
98.7086293287308223
 51
176.0578882937666947
  0
LINE
  5
24700
  8
0
 10
4526.4076689502471709
 20
605.1961331146607108
 30
0.0
 11
4533.5487788821474169
 21
605.1986156662607073
 31
0.0
  0
ARC
  5
24701
  8
0
 10
4533.5395109310966291
 20
605.1131692974784073
 30
0.0
 40
0.0859475238429649
 50
4.6549835224746277
 51
83.8096064398093432
  0
LINE
  5
24702
  8
0
 10
4533.6251749533457769
 20
605.1201444065608257
 30
0.0
 11
4533.6251658082474023
 21
602.7435758113498423
 31
0.0
  0
ARC
  5
24703
  8
0
 10
4533.5429314971252097
 20
602.7491056768041062
 30
0.0
 40
0.0824200299533133
 50
278.6135839955026086
 51
356.1529236846308208
  0
LINE
  5
24704
  8
0
 10
4533.5552755251483177
 20
602.6676152705606455
 30
0.0
 11
4526.4141656003466778
 21
602.6651327188607183
 31
0.0
  0
ARC
  5
24705
  8
0
 10
4526.4234276738734479
 20
602.7505733725672599
 30
0.0
 40
0.0859412084614658
 50
184.6514972331663103
 51
263.8130911929200124
  0
LINE
  5
24706
  8
0
 10
4526.3377695219469388
 20
602.7436039880607268
 30
0.0
 11
4526.3377786605460642
 21
605.1201725534607476
 31
0.0
  0
ARC
  5
24707
  8
0
 10
4526.4201739884647395
 20
600.01839455944355
 30
0.0
 40
0.082590736034968
 50
98.7086293287308223
 51
176.0578882937666947
  0
LINE
  5
24708
  8
0
 10
4526.4076689502471709
 20
600.1000331146607323
 30
0.0
 11
4533.5487788821474169
 21
600.1025156662607287
 31
0.0
  0
ARC
  5
24709
  8
0
 10
4533.5395109310966291
 20
600.0170692974785425
 30
0.0
 40
0.0859475238429649
 50
4.6549835224746277
 51
83.8096064398093432
  0
LINE
  5
2470A
  8
0
 10
4533.6251749533457769
 20
600.0240444065607335
 30
0.0
 11
4533.6251658082474023
 21
597.6474758113497501
 31
0.0
  0
ARC
  5
2470B
  8
0
 10
4533.5429314971252097
 20
597.6530056768041277
 30
0.0
 40
0.0824200299533133
 50
278.6135839955026086
 51
356.1529236846308208
  0
LINE
  5
2470C
  8
0
 10
4533.5552755251483177
 20
597.5715152705605533
 30
0.0
 11
4526.4141656003466778
 21
597.5690327188607398
 31
0.0
  0
ARC
  5
2470D
  8
0
 10
4526.4234276738734479
 20
597.654473372567395
 30
0.0
 40
0.0859412084614658
 50
184.6514972331663103
 51
263.8130911929200124
  0
LINE
  5
2470E
  8
0
 10
4526.3377695219469388
 20
597.6475039880607483
 30
0.0
 11
4526.3377786605460642
 21
600.0240725534607691
 31
0.0
  0
ARC
  5
2470F
  8
0
 10
4526.4202407992952431
 20
589.8261666999355839
 30
0.0
 40
0.0826573140842531
 50
98.7882941876517862
 51
176.0416938207403064
  0
LINE
  5
24710
  8
0
 10
4526.4076120897470901
 20
589.9078535854607708
 30
0.0
 11
4533.5553504487470491
 21
589.907852129260732
 31
0.0
  0
ARC
  5
24711
  8
0
 10
4533.5427344474383062
 20
589.8261849958386165
 30
0.0
 40
0.0826358528148742
 50
3.9639699068362289
 51
81.218321251867124
  0
LINE
  5
24712
  8
0
 10
4533.6251726120672174
 20
589.8318975419434764
 30
0.0
 11
4533.6251821267878768
 21
587.4553322077686062
 31
0.0
  0
ARC
  5
24713
  8
0
 10
4533.5427041467855815
 20
587.4610544842416857
 30
0.0
 40
0.0826762458821125
 50
278.7987771596701805
 51
356.0312104063303877
  0
LINE
  5
24714
  8
0
 10
4533.5553506976466451
 20
587.3793512016608247
 30
0.0
 11
4526.4076123416471091
 21
587.379602313860687
 31
0.0
  0
ARC
  5
24715
  8
0
 10
4526.4196824951641247
 20
587.4607854920378713
 30
0.0
 40
0.0820755568051146
 50
183.8293813992409014
 51
261.5433263201658178
  0
LINE
  5
24716
  8
0
 10
4526.3377901842113715
 20
587.4553040294885022
 30
0.0
 11
4526.3377806603039062
 21
589.8318725784258731
 31
0.0
  0
ARC
  5
24717
  8
0
 10
4526.4202407924940417
 20
584.7300666789357138
 30
0.0
 40
0.0826573140842531
 50
98.7882941876517862
 51
176.0416938207403064
  0
LINE
  5
24718
  8
0
 10
4526.4076120829467982
 20
584.8117535644607869
 30
0.0
 11
4533.5553504419458477
 21
584.8117521082607482
 31
0.0
  0
ARC
  5
24719
  8
0
 10
4533.5427344406380143
 20
584.7300849748386327
 30
0.0
 40
0.0826358528148742
 50
3.9639699068362289
 51
81.218321251867124
  0
LINE
  5
2471A
  8
0
 10
4533.6251726052669255
 20
584.7357975209436063
 30
0.0
 11
4533.6251821199894039
 21
582.359232186768736
 31
0.0
  0
ARC
  5
2471B
  8
0
 10
4533.5427041399861992
 20
582.3649544632417019
 30
0.0
 40
0.0826762458821125
 50
278.7987771596701805
 51
356.0312104063303877
  0
LINE
  5
2471C
  8
0
 10
4533.5553506908472627
 20
582.2832511806608409
 30
0.0
 11
4526.4076123348459078
 21
582.2835022928605895
 31
0.0
  0
ARC
  5
2471D
  8
0
 10
4526.4196824883647423
 20
582.3646854710378875
 30
0.0
 40
0.0820755568051146
 50
183.8293813992409014
 51
261.5433263201658178
  0
LINE
  5
2471E
  8
0
 10
4526.3377901774110796
 20
582.3592040084885184
 30
0.0
 11
4526.3377806535054333
 21
584.7357725574258893
 31
0.0
  0
ARC
  5
2471F
  8
0
 10
4526.4202407993052475
 20
579.6339666999870133
 30
0.0
 40
0.0826573140842531
 50
98.7882941876517862
 51
176.0416938207403064
  0
LINE
  5
24720
  8
0
 10
4526.407612089758004
 20
579.7156535855120865
 30
0.0
 11
4533.5553504487570535
 21
579.7156521293120477
 31
0.0
  0
ARC
  5
24721
  8
0
 10
4533.5427344474501297
 20
579.6339849958899322
 30
0.0
 40
0.0826358528148742
 50
3.9639699068362289
 51
81.218321251867124
  0
LINE
  5
24722
  8
0
 10
4533.6251726120790408
 20
579.6396975419947921
 30
0.0
 11
4533.6251821267997002
 21
577.2631322078200355
 31
0.0
  0
ARC
  5
24723
  8
0
 10
4533.542704146797405
 20
577.2688544842931151
 30
0.0
 40
0.0826762458821125
 50
278.7987771596701805
 51
356.0312104063303877
  0
LINE
  5
24724
  8
0
 10
4533.5553506976593781
 20
577.1871512017121404
 30
0.0
 11
4526.4076123416580231
 21
577.1874023139120027
 31
0.0
  0
ARC
  5
24725
  8
0
 10
4526.4196824951750386
 20
577.2685854920893007
 30
0.0
 40
0.0820755568051146
 50
183.8293813992409014
 51
261.5433263201658178
  0
LINE
  5
24726
  8
0
 10
4526.3377901842222855
 20
577.2631040295398179
 30
0.0
 11
4526.3377806603148201
 21
579.6396725784773025
 31
0.0
  0
ARC
  5
24727
  8
0
 10
4526.4202407993052475
 20
574.5378667000869655
 30
0.0
 40
0.0826573140842531
 50
98.7882941876517862
 51
176.0416938207403064
  0
LINE
  5
24728
  8
0
 10
4526.407612089758004
 20
574.6195535856121523
 30
0.0
 11
4533.5553504487570535
 21
574.6195521294119999
 31
0.0
  0
ARC
  5
24729
  8
0
 10
4533.5427344474501297
 20
574.5378849959897707
 30
0.0
 40
0.0826358528148742
 50
3.9639699068362289
 51
81.218321251867124
  0
LINE
  5
2472A
  8
0
 10
4533.6251726120790408
 20
574.543597542094858
 30
0.0
 11
4533.6251821267997002
 21
572.1670322079199877
 31
0.0
  0
ARC
  5
2472B
  8
0
 10
4533.542704146797405
 20
572.1727544843929536
 30
0.0
 40
0.0826762458821125
 50
278.7987771596701805
 51
356.0312104063303877
  0
LINE
  5
2472C
  8
0
 10
4533.5553506976593781
 20
572.0910512018120926
 30
0.0
 11
4526.4076123416580231
 21
572.0913023140119549
 31
0.0
  0
ARC
  5
2472D
  8
0
 10
4526.4196824951750386
 20
572.1724854921892529
 30
0.0
 40
0.0820755568051146
 50
183.8293813992409014
 51
261.5433263201658178
  0
LINE
  5
2472E
  8
0
 10
4526.3377901842222855
 20
572.1670040296396564
 30
0.0
 11
4526.3377806603148201
 21
574.5435725785773684
 31
0.0
  0
ARC
  5
2472F
  8
0
 10
4526.4202407992952431
 20
569.4417666999355561
 30
0.0
 40
0.0826573140842531
 50
98.7882941876517862
 51
176.0416938207403064
  0
LINE
  5
24730
  8
0
 10
4526.4076120897470901
 20
569.5234535854607429
 30
0.0
 11
4533.5553504487470491
 21
569.5234521292608179
 31
0.0
  0
ARC
  5
24731
  8
0
 10
4533.5427344474383062
 20
569.441784995838475
 30
0.0
 40
0.0826358528148742
 50
3.9639699068362289
 51
81.218321251867124
  0
LINE
  5
24732
  8
0
 10
4533.6251726120672174
 20
569.4474975419434486
 30
0.0
 11
4533.6251821267878768
 21
567.0709322077685783
 31
0.0
  0
ARC
  5
24733
  8
0
 10
4533.5427041467855815
 20
567.0766544842416579
 30
0.0
 40
0.0826762458821125
 50
278.7987771596701805
 51
356.0312104063303877
  0
LINE
  5
24734
  8
0
 10
4533.5553506976466451
 20
566.9949512016606832
 30
0.0
 11
4526.4076123416471091
 21
566.9952023138606592
 31
0.0
  0
ARC
  5
24735
  8
0
 10
4526.4196824951641247
 20
567.0763854920378435
 30
0.0
 40
0.0820755568051146
 50
183.8293813992409014
 51
261.5433263201658178
  0
LINE
  5
24736
  8
0
 10
4526.3377901842113715
 20
567.0709040294884744
 30
0.0
 11
4526.3377806603039062
 21
569.4474725784258453
 31
0.0
  0
LINE
  5
24737
  8
0
 10
4559.9401289034849469
 20
563.5660576366607302
 30
0.0
 11
4559.9642529123248096
 21
564.2564580364344238
 31
0.0
  0
LINE
  5
24738
  8
0
 10
4500.2007139656470827
 20
563.749176692560809
 30
0.0
 11
4500.1838495797474025
 21
564.232109520060817
 31
0.0
  0
LINE
  5
24739
  8
0
 10
4500.1838495797474025
 20
564.232109520060817
 30
0.0
 11
4500.0448617458469016
 21
564.2369630821607416
 31
0.0
  0
ARC
  5
2473A
  8
0
 10
4500.044102323986408
 20
564.2995913149638909
 30
0.0
 40
0.0626328369595742
 50
180.0540402083495906
 51
270.6947271725056225
  0
ARC
  5
2473B
  8
0
 10
4500.0979699253466606
 20
563.5686953835214581
 30
0.0
 40
0.0752033498347111
 50
182.0100535447759
 51
195.0299892851101902
  0
LINE
  5
2473C
  8
0
 10
4500.1244671687054506
 20
564.2341831995444181
 30
0.0
 11
4500.140402637302941
 21
563.7781290702529304
 31
0.0
  0
ARC
  5
2473D
  8
0
 10
4500.1703843399327525
 20
563.7791766925967067
 30
0.0
 40
0.0300000000861241
 50
182.0012181626804875
 51
269.9966871242236834
  0
LINE
  5
2473E
  8
0
 10
4500.0228128490471136
 20
563.5660576366607302
 30
0.0
 11
4499.9986888435878427
 21
564.2564579396760109
 31
0.0
  0
LINE
  5
2473F
  8
0
 10
4559.9406985176156013
 20
622.0597599750825566
 30
0.0
 11
4559.9814695148852479
 21
622.0618966925607083
 31
0.0
  0
LINE
  5
24740
  8
0
 10
4500.0253443819847234
 20
542.9991766925605816
 30
0.0
 11
4559.9376008836406982
 21
542.9991766925605816
 31
0.0
  0
LINE
  5
24742
  8
0
 10
4501.3033403117033231
 20
605.1992840793110418
 30
0.0
 11
4501.3033284184857621
 21
605.2738561882606518
 31
0.0
  0
LINE
  5
24743
  8
0
 10
4500.1691943472605999
 20
564.232621292055228
 30
0.0
 11
4500.1753981121855759
 21
564.0549687090607449
 31
0.0
  0
LINE
  5
24744
  8
0
 10
4500.1753981121855759
 20
564.0549687090607449
 30
0.0
 11
4500.1906143654096013
 21
564.0383914038535522
 31
0.0
  0
LINE
  5
24745
  8
0
 10
4559.7937446791847833
 20
564.2326211968580765
 30
0.0
 11
4559.78754091758492
 21
564.0549687090607449
 31
0.0
  0
LINE
  5
24746
  8
0
 10
4559.78754091758492
 20
564.0549687090607449
 30
0.0
 11
4559.7723274948048129
 21
564.0383944874729423
 31
0.0
  0
VIEWPORT
  5
7BC8
 67
     1
  8
0
 10
8.4975296442687753
 20
4.5
 30
0.0
 40
16.9950592885375507
 41
9.0
 68
     1
 69
     1
1001
ACAD
1000
MVIEW
1002
{
1070
    16
1010
0.0
1020
0.0
1030
0.0
1010
0.0
1020
0.0
1030
1.0
1040
0.0
1040
9.0
1040
8.4975296442687753
1040
4.5
1040
50.0
1040
0.0
1040
0.0
1070
     0
1070
   100
1070
     1
1070
     1
1070
     0
1070
     0
1070
     0
1070
     0
1040
0.0
1040
0.0
1040
0.0
1040
1.0
1040
1.0
1040
0.0
1040
0.0
1070
     0
1002
{
1002
}
1002
}
  0
ENDSEC
  0
EOF
