  0
SECTION
  2
HEADER
  9
$ACADVER
  1
AC1009
  9
$INSBASE
 10
4464.0303292969965696
 20
192.6626071448619939
 30
0.0
  9
$EXTMIN
 10
4434.0303292969965696
 20
161.3792071448619936
 30
0.0
  9
$EXTMAX
 10
4494.0303292969983886
 20
192.6675520206536021
 30
0.0
  9
$LIMMIN
 10
0.0
 20
0.0
  9
$LIMMAX
 10
11.6929133858000007
 20
8.2677165353999982
  9
$ORTHOMODE
 70
     1
  9
$REGENMODE
 70
     1
  9
$FILLMODE
 70
     1
  9
$QTEXTMODE
 70
     0
  9
$MIRRTEXT
 70
     0
  9
$DRAGMODE
 70
     2
  9
$LTSCALE
 40
0.6431102362
  9
$OSMODE
 70
  4095
  9
$ATTMODE
 70
     1
  9
$TEXTSIZE
 40
0.2
  9
$TRACEWID
 40
0.05
  9
$TEXTSTYLE
  7
STANDARD
  9
$CLAYER
  8
0
  9
$CELTYPE
  6
BYLAYER
  9
$CECOLOR
 62
   256
  9
$DIMSCALE
 40
1.0
  9
$DIMASZ
 40
0.1875
  9
$DIMEXO
 40
0.0625
  9
$DIMDLI
 40
0.4443307087
  9
$DIMRND
 40
0.0
  9
$DIMDLE
 40
0.0
  9
$DIMEXE
 40
0.125
  9
$DIMTP
 40
0.01
  9
$DIMTM
 40
0.01
  9
$DIMTXT
 40
2.0
  9
$DIMCEN
 40
0.1052362205
  9
$DIMTSZ
 40
0.0
  9
$DIMTOL
 70
     1
  9
$DIMLIM
 70
     0
  9
$DIMTIH
 70
     1
  9
$DIMTOH
 70
     1
  9
$DIMSE1
 70
     0
  9
$DIMSE2
 70
     0
  9
$DIMTAD
 70
     0
  9
$DIMZIN
 70
     0
  9
$DIMBLK
  1

  9
$DIMASO
 70
     1
  9
$DIMSHO
 70
     1
  9
$DIMPOST
  1
\X
  9
$DIMAPOST
  1

  9
$DIMALT
 70
     1
  9
$DIMALTD
 70
     2
  9
$DIMALTF
 40
25.3999999999999986
  9
$DIMLFAC
 40
1.0
  9
$DIMTOFL
 70
     0
  9
$DIMTVP
 40
0.0
  9
$DIMTIX
 70
     0
  9
$DIMSOXD
 70
     0
  9
$DIMSAH
 70
     0
  9
$DIMBLK1
  1

  9
$DIMBLK2
  1

  9
$DIMSTYLE
  2
STANDARD
  9
$DIMCLRD
 70
     0
  9
$DIMCLRE
 70
     0
  9
$DIMCLRT
 70
     0
  9
$DIMTFAC
 40
1.0
  9
$DIMGAP
 40
0.09
  9
$LUNITS
 70
     2
  9
$LUPREC
 70
     4
  9
$SKETCHINC
 40
0.1
  9
$FILLETRAD
 40
0.0
  9
$AUNITS
 70
     0
  9
$AUPREC
 70
     0
  9
$MENU
  1
.
  9
$ELEVATION
 40
0.0
  9
$PELEVATION
 40
0.0
  9
$THICKNESS
 40
0.0
  9
$LIMCHECK
 70
     0
  9
$BLIPMODE
 70
     0
  9
$CHAMFERA
 40
0.0
  9
$CHAMFERB
 40
0.0
  9
$SKPOLY
 70
     0
  9
$TDCREATE
 40
2458060.468368056230247
  9
$TDUPDATE
 40
2459111.7299305559135973
  9
$TDINDWG
 40
0.3225070602
  9
$TDUSRTIMER
 40
0.3225070602
  9
$USRTIMER
 70
     1
  9
$ANGBASE
 50
0.0
  9
$ANGDIR
 70
     0
  9
$PDMODE
 70
     0
  9
$PDSIZE
 40
0.3125
  9
$PLINEWID
 40
0.0
  9
$COORDS
 70
     1
  9
$SPLFRAME
 70
     0
  9
$SPLINETYPE
 70
     6
  9
$SPLINESEGS
 70
     8
  9
$ATTDIA
 70
     1
  9
$ATTREQ
 70
     1
  9
$HANDLING
 70
     1
  9
$HANDSEED
  5
8C6B
  9
$SURFTAB1
 70
     6
  9
$SURFTAB2
 70
     6
  9
$SURFTYPE
 70
     6
  9
$SURFU
 70
     6
  9
$SURFV
 70
     6
  9
$UCSNAME
  2

  9
$UCSORG
 10
0.0
 20
0.0
 30
0.0
  9
$UCSXDIR
 10
1.0
 20
0.0
 30
0.0
  9
$UCSYDIR
 10
0.0
 20
1.0
 30
0.0
  9
$PUCSNAME
  2

  9
$PUCSORG
 10
0.0
 20
0.0
 30
0.0
  9
$PUCSXDIR
 10
1.0
 20
0.0
 30
0.0
  9
$PUCSYDIR
 10
0.0
 20
1.0
 30
0.0
  9
$USERI1
 70
     0
  9
$USERI2
 70
     0
  9
$USERI3
 70
     0
  9
$USERI4
 70
     0
  9
$USERI5
 70
     0
  9
$USERR1
 40
0.0
  9
$USERR2
 40
0.0
  9
$USERR3
 40
0.0
  9
$USERR4
 40
0.0
  9
$USERR5
 40
0.0
  9
$WORLDVIEW
 70
     1
  9
$SHADEDGE
 70
     3
  9
$SHADEDIF
 70
    70
  9
$TILEMODE
 70
     1
  9
$MAXACTVP
 70
    64
  9
$PLIMCHECK
 70
     0
  9
$PEXTMIN
 10
1.0000000000000000E+20
 20
1.0000000000000000E+20
 30
1.0000000000000000E+20
  9
$PEXTMAX
 10
-1.0000000000000000E+20
 20
-1.0000000000000000E+20
 30
-1.0000000000000000E+20
  9
$PLIMMIN
 10
0.0
 20
0.0
  9
$PLIMMAX
 10
12.0
 20
9.0
  9
$UNITMODE
 70
     0
  9
$VISRETAIN
 70
     1
  9
$PLINEGEN
 70
     0
  9
$PSLTSCALE
 70
     1
  0
ENDSEC
  0
SECTION
  2
TABLES
  0
TABLE
  2
VPORT
 70
     1
  0
VPORT
  2
*ACTIVE
 70
     0
 10
0.0
 20
0.0
 11
1.0
 21
1.0
 12
0.0
 22
0.0
 13
0.0
 23
0.0
 14
1.0
 24
1.0
 15
0.0
 25
0.0
 16
0.0
 26
0.0
 36
191.7357407430843068
 17
4464.0302734375
 27
177.0233817232173976
 37
0.0
 40
67.6733483586544651
 41
2.1186252771618621
 42
50.0
 43
0.0
 44
0.0
 50
0.0
 51
0.0
 71
     0
 72
   100
 73
     1
 74
     1
 75
     0
 76
     0
 77
     0
 78
     0
  0
ENDTAB
  0
TABLE
  2
LTYPE
 70
     3
  0
LTYPE
  2
CONTINUOUS
 70
     0
  3
Solid line
 72
    65
 73
     0
 40
0.0
  0
LTYPE
  2
PHANTOM2
 70
     0
  3
___ _ _ ___ _ _ ___ _ _ ___ _ _
 72
    65
 73
     6
 40
1.25
 49
0.625
 49
-0.125
 49
0.125
 49
-0.125
 49
0.125
 49
-0.125
  0
ENDTAB
  0
TABLE
  2
LAYER
 70
     2
  0
LAYER
  2
0
 70
     0
 62
   255
  6
CONTINUOUS
  0
LAYER
  2
DEFPOINTS
 70
     0
 62
     7
  6
CONTINUOUS
  0
ENDTAB
  0
TABLE
  2
STYLE
 70
     1
  0
STYLE
  2
STANDARD
 70
     0
 40
0.0
 41
0.8
 50
0.0
 71
     0
 42
0.2
  3
txt
  4

  0
ENDTAB
  0
TABLE
  2
VIEW
 70
     0
  0
ENDTAB
  0
TABLE
  2
UCS
 70
     0
  0
ENDTAB
  0
TABLE
  2
APPID
 70
     9
  0
APPID
  2
ACAD
 70
     0
  0
APPID
  2
ACAD_MLEADERVER
 70
     0
  0
APPID
  2
ACAD_EXEMPT_FROM_CAD_STANDARDS
 70
     0
  0
APPID
  2
ACAD_NAV_VCDISPLAY
 70
     0
  0
APPID
  2
ACAECLAYERSTANDARD
 70
     0
  0
APPID
  2
ACCMTRANSPARENCY
 70
     0
  0
APPID
  2
ACAD_DSTYLE_DIMJAG
 70
     0
  0
APPID
  2
ACAD_DSTYLE_DIMTALN
 70
     0
  0
APPID
  2
ACDBATTR
 70
     0
  0
ENDTAB
  0
TABLE
  2
DIMSTYLE
 70
     2
  0
DIMSTYLE
  2
STANDARD
 70
     0
  3

  4

  5

  6

  7

 40
1.0
 41
0.1875
 42
0.0625
 43
0.38
 44
0.125
 45
0.0
 46
0.0
 47
0.01
 48
0.01
140
0.15625
141
0.09
142
0.0
143
25.3999999999999986
144
1.0
145
0.0
146
1.0
147
0.09
 71
     1
 72
     0
 73
     1
 74
     1
 75
     0
 76
     0
 77
     0
 78
     4
170
     0
171
     2
172
     0
173
     0
174
     0
175
     0
176
     0
177
     0
178
     0
  0
ENDTAB
  0
ENDSEC
  0
SECTION
  2
BLOCKS
  0
BLOCK
  8
0
  2
$MODEL_SPACE
 70
     0
 10
0.0
 20
0.0
 30
0.0
  3
$MODEL_SPACE
  1

  0
ENDBLK
  5
21
  8
0
  0
BLOCK
 67
     1
  8
0
  2
$PAPER_SPACE
 70
     0
 10
0.0
 20
0.0
 30
0.0
  3
$PAPER_SPACE
  1

  0
ENDBLK
  5
1D
 67
     1
  8
0
  0
ENDSEC
  0
SECTION
  2
ENTITIES
  0
ATTDEF
  5
3930
  8
DEFPOINTS
 10
4464.0274282872132972
 20
192.666552020653512
 30
0.0
 40
0.001
  1
71570115
  3

  2
MODELNUMBER
 70
     0
1001
ACDBATTR
1070
     0
1070
     1
  0
ATTDEF
  5
3931
  8
DEFPOINTS
 10
4464.0274282872132972
 20
192.6648853539867901
 30
0.0
 40
0.001
  1
TRAVERSE
  3

  2
TRADENAME
 70
     0
1001
ACDBATTR
1070
     0
1070
     1
  0
ATTDEF
  5
3932
  8
DEFPOINTS
 10
4464.0274282872132972
 20
192.6632186873202102
 30
0.0
 40
0.001
  1
BATH AND WALL SURROUND
  3

  2
PRODUCT
 70
     0
1001
ACDBATTR
1070
     0
1070
     1
  0
ARC
  5
8AB8
  8
0
 10
4434.0679359076475521
 20
161.4429505358598931
 30
0.0
 40
0.0623919817734958
 50
271.9058092456286886
 51
0.0476190464671042
  0
LINE
  5
8AB9
  8
0
 10
4434.0700108473965884
 20
161.3805930662618948
 30
0.0
 11
4434.0303292969965696
 21
161.3792071448619936
 31
0.0
  0
ARC
  5
8ABA
  8
0
 10
4434.2553990343149053
 20
192.3875357846200984
 30
0.0
 40
0.2250697486299857
 50
89.974149250407379
 51
179.9818338947416123
  0
LINE
  5
8ABB
  8
0
 10
4434.2555005814374454
 20
192.6126055103420072
 30
0.0
 11
4493.8051552897959482
 21
192.6126071449172912
 31
0.0
  0
ARC
  5
8ABC
  8
0
 10
4493.8052515566123475
 20
192.387529375880888
 30
0.0
 40
0.2250777896232721
 50
0.0378984067928817
 51
90.0245056717613039
  0
LINE
  5
8ABD
  8
0
 10
4434.1303292969978429
 20
162.5273283752115958
 30
0.0
 11
4434.1303278678733477
 21
161.4430023903994993
 31
0.0
  0
ARC
  5
8ABE
  8
0
 10
4438.3637231742113727
 20
191.6729584320933952
 30
0.0
 40
0.9896500954252134
 50
89.9042245934146251
 51
108.2911165501867004
  0
ARC
  5
8ABF
  8
0
 10
4489.6969347489230131
 20
191.6729543273845877
 30
0.0
 40
0.9896542035602182
 50
71.7091841800687462
 51
90.0958938034361836
  0
LINE
  5
8AC0
  8
0
 10
4434.0303292969965696
 20
187.9923919199958959
 30
0.0
 11
4434.5085735021966684
 21
187.9757399991621014
 31
0.0
  0
ARC
  5
8AC1
  8
0
 10
4434.5108454170631376
 20
188.0379584143167904
 30
0.0
 40
0.0622598809950957
 50
267.9087650448611271
 51
357.9947586445330217
  0
LINE
  5
8AC2
  8
0
 10
4434.5730671719911697
 20
188.0357798838178951
 30
0.0
 11
4434.5849852701121563
 21
188.3729139248600859
 31
0.0
  0
ARC
  5
8AC3
  8
0
 10
4434.647427140954278
 20
188.370201053383596
 30
0.0
 40
0.0625007752430817
 50
87.9888470066108965
 51
177.5122718964389037
  0
LINE
  5
8AC4
  8
0
 10
4434.6496205452804134
 20
188.4326633290662016
 30
0.0
 11
4434.8089579640372904
 21
188.4270986952508906
 31
0.0
  0
ARC
  5
8AC5
  8
0
 10
4434.8067765321793559
 20
188.3646362779624042
 30
0.0
 40
0.0625004977458447
 50
1.832693130120338
 51
87.999820264786166
  0
LINE
  5
8AC6
  8
0
 10
4434.8692450593325702
 20
188.3666351110753965
 30
0.0
 11
4434.8813208885976564
 21
188.0208987441621105
 31
0.0
  0
ARC
  5
8AC7
  8
0
 10
4434.9437798322887829
 20
188.0230783391374985
 30
0.0
 40
0.062496962176527
 50
181.9986078974758925
 51
268.0264049439622909
  0
ARC
  5
8AC8
  8
0
 10
4435.33847713621617
 20
188.0087994740360102
 30
0.0
 40
0.0620052239258129
 50
268.5714823208201096
 51
349.9982942208042118
  0
ARC
  5
8AC9
  8
0
 10
4438.469625406835803
 20
188.4330101358831939
 30
0.0
 40
2.9479192556704348
 50
89.8767045967862543
 51
169.859623574774588
  0
LINE
  5
8ACA
  8
0
 10
4438.4759690610444522
 20
191.3809225660621962
 30
0.0
 11
4489.5846868101880318
 21
191.3809214708811055
 31
0.0
  0
ARC
  5
8ACB
  8
0
 10
4489.5910506046257069
 20
188.4330356782500928
 30
0.0
 40
2.947892661593265
 50
10.0918672679888601
 51
90.1236879656421053
  0
ARC
  5
8ACC
  8
0
 10
4541.2436714982140984
 20
197.055015664387895
 30
0.0
 40
49.4195652530553673
 50
189.4398771698012922
 51
190.5601228308973987
  0
ARC
  5
8ACD
  8
0
 10
4492.7223635119908067
 20
188.0089056611004139
 30
0.0
 40
0.0622029963824397
 50
190.068904984662197
 51
268.3679240588737116
  0
LINE
  5
8ACE
  8
0
 10
4434.9416275043740825
 20
187.9606184498817072
 30
0.0
 11
4435.6045634857982805
 21
187.9374671855620988
 31
0.0
  0
ARC
  5
8ACF
  8
0
 10
4435.606696040157658
 20
187.9992794932084053
 30
0.0
 40
0.0618490837818379
 50
268.0240517639957716
 51
301.974005791491777
  0
LINE
  5
8AD0
  8
0
 10
4435.3400227262100088
 20
187.9468135163870102
 30
0.0
 11
4492.7205918930976623
 21
187.9467278987939096
 31
0.0
  0
ARC
  5
8AD1
  8
0
 10
4492.4539626630967177
 20
187.9992779793612954
 30
0.0
 40
0.0618475659991241
 50
238.1751144121940058
 51
269.9260145971903739
  0
LINE
  5
8AD2
  8
0
 10
4492.4538828000440844
 20
187.9374304649251997
 30
0.0
 11
4493.1190576183416852
 21
187.9606183465735114
 31
0.0
  0
ARC
  5
8AD3
  8
0
 10
4493.116876399796638
 20
188.023080273262309
 30
0.0
 40
0.0625000000001787
 50
272.0000000001078888
 51
357.999695590830413
  0
LINE
  5
8AD4
  8
0
 10
4493.1793383148969951
 20
188.0208987228618014
 30
0.0
 11
4493.191417274018022
 21
188.366742175885804
 31
0.0
  0
ARC
  5
8AD5
  8
0
 10
4493.2538818855227873
 20
188.3646366834952914
 30
0.0
 40
0.0625000863106415
 50
92.0058132840269849
 51
178.0694641524372059
  0
LINE
  5
8AD6
  8
0
 10
4493.2516943265245573
 20
188.4270984748117996
 30
0.0
 11
4493.411044813389708
 21
188.432663225121189
 31
0.0
  0
ARC
  5
8AD7
  8
0
 10
4493.4132320299613639
 20
188.3702013208028063
 30
0.0
 40
0.0625001872590989
 50
2.4876774337571979
 51
92.0054959371433796
  0
LINE
  5
8AD8
  8
0
 10
4493.4756733157728377
 20
188.3729141115371988
 30
0.0
 11
4493.4874419581974507
 21
188.0360203753621136
 31
0.0
  0
ARC
  5
8AD9
  8
0
 10
4493.5499038732878034
 20
188.038201925864314
 30
0.0
 40
0.0624999999955698
 50
182.0003045026265056
 51
271.9999998250672775
  0
LINE
  5
8ADA
  8
0
 10
4493.5520850918419455
 20
187.9757399991734985
 30
0.0
 11
4494.0303292969983886
 21
187.9924403149065029
 31
0.0
  0
LINE
  5
8ADB
  8
0
 10
4434.0303292969965696
 20
187.9624223684631943
 30
0.0
 11
4435.5856441767973593
 21
187.9081095760620883
 31
0.0
  0
ARC
  5
8ADC
  8
0
 10
4435.583164638080234
 20
187.8451779866882987
 30
0.0
 40
0.0629804180150544
 50
0.061862624957533
 51
87.7436823325834041
  0
ARC
  5
8ADD
  8
0
 10
4434.9883381865411138
 20
162.8629895004769992
 30
0.0
 40
0.2510609276481856
 50
274.2135088515007055
 51
359.9269876089317108
  0
LINE
  5
8ADE
  8
0
 10
4435.0067844703971787
 20
162.6126071448616983
 30
0.0
 11
4434.1906477466009164
 21
162.5855454886618077
 31
0.0
  0
ARC
  5
8ADF
  8
0
 10
4435.3246018139761873
 20
187.8546288965933115
 30
0.0
 40
0.062641669753593
 50
359.6856518633284736
 51
85.0444762321921672
  0
ARC
  5
8AE0
  8
0
 10
4466.0416880160009896
 20
178.0131866447349012
 30
0.0
 40
30.1991291734781697
 50
164.9884236248892933
 51
178.5664369709888888
  0
ARC
  5
8AE1
  8
0
 10
4466.0416880160009896
 20
178.0131866447349012
 30
0.0
 40
30.1991291734781697
 50
160.7957061400765042
 51
163.4848077587647879
  0
ARC
  5
8AE2
  8
0
 10
4466.1673698019603762
 20
177.9677359568950124
 30
0.0
 40
30.3248066367417515
 50
182.2496297718606968
 51
194.1801053343349963
  0
ARC
  5
8AE3
  8
0
 10
4440.5399975794452985
 20
168.6741240301900859
 30
0.0
 40
3.0673170635278271
 50
221.4078065548605991
 51
239.9946669198509142
  0
LINE
  5
8AE4
  8
0
 10
4440.9135255678966132
 20
165.5825282594616965
 30
0.0
 11
4464.5308103644920266
 21
165.5825274870178987
 31
0.0
  0
LINE
  5
8AE5
  8
0
 10
4479.5304961682886642
 20
165.5825269964275037
 30
0.0
 11
4485.2744466768972416
 21
165.5825268085617097
 31
0.0
  0
ARC
  5
8AE6
  8
0
 10
4485.6186419860569004
 20
170.174389764403486
 30
0.0
 40
4.6047449241058924
 50
265.7132589264659828
 51
333.1678436533900936
  0
CIRCLE
  5
8AE7
  8
0
 10
4442.2803292969965696
 20
177.9876071448616983
 30
0.0
 40
1.387500000000002
  0
ARC
  5
8AE8
  8
0
 10
4466.8197653063407415
 20
177.9883548930777977
 30
0.0
 40
29.008235079581091
 50
190.3356083011476017
 51
196.7208859524986906
  0
ARC
  5
8AE9
  8
0
 10
4466.8197653063407415
 20
177.9883548930777977
 30
0.0
 40
29.008235079581091
 50
163.8589632276936072
 51
168.8657984951599076
  0
ARC
  5
8AEA
  8
0
 10
4441.9014987463970101
 20
170.5223391092154941
 30
0.0
 40
2.9955853806022978
 50
197.082202894641398
 51
269.7661145189106833
  0
LINE
  5
8AEB
  8
0
 10
4441.8892705859980197
 20
167.5267786867615882
 30
0.0
 11
4464.1736966723783553
 21
167.4632954284894879
 31
0.0
  0
ARC
  5
8AEC
  8
0
 10
4478.750724638803149
 20
170.4202054916692077
 30
0.0
 40
2.9986706223201729
 50
293.1592291598217912
 51
343.490200027302194
  0
ARC
  5
8AED
  8
0
 10
4452.7111270828636407
 20
177.9876402239270874
 30
0.0
 40
30.1155404793510613
 50
343.7650742877980861
 51
15.6879101833130701
  0
ARC
  5
8AEE
  8
0
 10
4478.8283732587024133
 20
185.3094747832190876
 30
0.0
 40
2.991416124709632
 50
15.9358588651380408
 51
61.8375709597993009
  0
CIRCLE
  5
8AEF
  8
0
 10
4442.2803292969965696
 20
177.9876071448616983
 30
0.0
 40
1.0
  0
LINE
  5
8AF0
  8
0
 10
4434.0303292969965696
 20
192.387607144861704
 30
0.0
 11
4434.0303292969965696
 21
161.3792071448619936
 31
0.0
  0
LINE
  5
8AF1
  8
0
 10
4494.0303292969983886
 20
192.3876782540197041
 30
0.0
 11
4494.0303292969983886
 21
161.3792071448619936
 31
0.0
  0
LINE
  5
8AF2
  8
0
 10
4493.9303299387865991
 20
162.3511324932617015
 30
0.0
 11
4434.1303290647738322
 21
162.3511324932617015
 31
0.0
  0
LINE
  5
8AF3
  8
0
 10
4438.3653774687663827
 20
192.6626071448619939
 30
0.0
 11
4489.6952784024661014
 21
192.6626071448619086
 31
0.0
  0
ARC
  5
8AF4
  8
0
 10
4434.2581791968686957
 20
192.3873202108896123
 30
0.0
 40
0.1007519898552792
 50
134.196178775931287
 51
179.8368257753533044
  0
ARC
  5
8AF5
  8
0
 10
4434.3502370897103901
 20
192.4501184538580105
 30
0.0
 40
0.0624886917354297
 50
89.9912347668545181
 51
178.0094732953241135
  0
LINE
  5
8AF6
  8
0
 10
4434.1574276155970438
 20
192.387607144861704
 30
0.0
 11
4434.1570848127339559
 21
191.584951989235293
 31
0.0
  0
ARC
  5
8AF7
  8
0
 10
4434.3503227324399631
 20
192.449983921290908
 30
0.0
 40
0.1626613212373347
 50
91.2663736565305612
 51
176.6267143060148044
  0
LINE
  5
8AF8
  8
0
 10
4434.1879432428968357
 20
192.4595550655589022
 30
0.0
 11
4434.0303292969965696
 21
187.9923919199958959
 31
0.0
  0
ARC
  5
8AF9
  8
0
 10
-278271.4290512931183912
 20
50037.3471236355835572
 30
0.0
 40
287068.1252545692841522
 50
349.999900231088418
 51
350.000093575111805
  0
LINE
  5
8AFA
  8
0
 10
4434.2877861046736143
 20
192.4522889521207958
 30
0.0
 11
4434.1369204044431171
 21
188.1335409841994135
 31
0.0
  0
LINE
  5
8AFB
  8
0
 10
4434.3502466493664542
 20
192.5126071448621019
 30
0.0
 11
4493.7104092218669393
 21
192.5126071448621019
 31
0.0
  0
ARC
  5
8AFC
  8
0
 10
4493.7104105832750065
 20
192.4501071448565028
 30
0.0
 40
0.0625000000204834
 50
2.000685031495685
 51
90.0012480463578868
  0
LINE
  5
8AFD
  8
0
 10
4493.772872483899846
 20
192.4522891101991888
 30
0.0
 11
4493.9237384218722582
 21
188.1335343377014055
 31
0.0
  0
ARC
  5
8AFE
  8
0
 10
4494.1042847449016335
 20
188.1318707730779067
 30
0.0
 40
0.1805539869596318
 50
179.4720881986162908
 51
231.2417882673325948
  0
ARC
  5
8AFF
  8
0
 10
4434.1929215814780036
 20
162.5228332068496968
 30
0.0
 40
0.0627534908602325
 50
92.0765325595545079
 51
175.8922612772907996
  0
ARC
  5
8B00
  8
0
 10
4440.8070908898089328
 20
169.5123558757867954
 30
0.0
 40
3.9312686800486132
 50
242.734036068469095
 51
271.5514083592321981
  0
ARC
  5
8B01
  8
0
 10
4463.83717501269075
 20
177.9711859028531933
 30
0.0
 40
27.7098457516320806
 50
18.1267504693295791
 51
19.091906658074759
  0
ARC
  5
8B02
  8
0
 10
4463.83717501269075
 20
177.9711859028531933
 30
0.0
 40
27.7098457516320806
 50
0.786753349698455
 51
8.9133406338927959
  0
ARC
  5
8B03
  8
0
 10
4463.83717501269075
 20
177.9711859028531933
 30
0.0
 40
27.7098457516320806
 50
351.8852678693157259
 51
357.6841772072339154
  0
ARC
  5
8B04
  8
0
 10
4463.83717501269075
 20
177.9711859028531933
 30
0.0
 40
27.7098457516320806
 50
339.1218579654873224
 51
339.6027879886758001
  0
ARC
  5
8B05
  8
0
 10
-7160.2026123974255825
 20
255.5798264607061867
 30
0.0
 40
11596.0465839990902168
 50
359.6221525032038926
 51
359.6653232091256882
  0
ARC
  5
8B06
  8
0
 10
-7160.2026123974255825
 20
255.5798264607061867
 30
0.0
 40
11596.0465839990902168
 50
359.5678017728213831
 51
359.6073295768787261
  0
ARC
  5
8B07
  8
0
 10
17717.7557735647496884
 20
96.7831446444279209
 30
0.0
 40
13282.6807439830099611
 50
179.6071551387234138
 51
179.7149601363715874
  0
ARC
  5
8B08
  8
0
 10
4441.8289630388926525
 20
185.200566005424605
 30
0.0
 40
2.9976128587670341
 50
113.6315419558684994
 51
163.4842702394259959
  0
ARC
  5
8B09
  8
0
 10
4449.0828377280204222
 20
177.9789419247350111
 30
0.0
 40
12.4072717609051608
 50
175.0580123770847933
 51
178.2838221104721868
  0
ARC
  5
8B0A
  8
0
 10
4437.5536859374042251
 20
177.0242625885124994
 30
0.0
 40
0.838806417719185
 50
191.9820618462537141
 51
199.3901711544392867
  0
ARC
  5
8B0B
  8
0
 10
4435.803438634396116
 20
177.0697627099173985
 30
0.0
 40
1.033104719541063
 50
341.6610176668065151
 51
347.0958565411219752
  0
ARC
  5
8B0C
  8
0
 10
4436.7734480138788058
 20
176.7489316659599012
 30
0.0
 40
0.0114341785204256
 50
196.0028775553518869
 51
338.3239236840072977
  0
ARC
  5
8B0D
  8
0
 10
4437.4102781929932462
 20
178.9896512345474946
 30
0.0
 40
0.6910375345782312
 50
159.7793727996183009
 51
175.173711211459505
  0
ARC
  5
8B0E
  8
0
 10
4435.8783541202728884
 20
178.9232965782098006
 30
0.0
 40
0.9569252829040291
 50
8.0247437640306902
 51
18.6301601899512903
  0
ARC
  5
8B0F
  8
0
 10
4436.7735531762164101
 20
179.2254715742496955
 30
0.0
 40
0.012107474941101
 50
16.9144900301261387
 51
165.521155599319286
  0
ARC
  5
8B10
  8
0
 10
4422.9666229315762394
 20
177.9883917772237965
 30
0.0
 40
13.76552537251054
 50
1.506108870121434
 51
3.5563837795123519
  0
ARC
  5
8B11
  8
0
 10
4481.6844548363924332
 20
184.4965758568584135
 30
0.0
 40
8.7161074581349336
 50
16.9293878587509816
 51
23.3181768018344187
  0
LINE
  5
8B12
  8
0
 10
4494.0303292969983886
 20
187.962422463544101
 30
0.0
 11
4492.4750116944360343
 21
187.9081095760620883
 31
0.0
  0
ARC
  5
8B13
  8
0
 10
4492.4774912331531596
 20
187.8451779866882987
 30
0.0
 40
0.0629804180150544
 50
92.2563176674165817
 51
179.9381373750424871
  0
ARC
  5
8B14
  8
0
 10
4492.7360540572572063
 20
187.8546288965937947
 30
0.0
 40
0.062641669753136
 50
94.9555237682942561
 51
180.3143481370451866
  0
ARC
  5
8B15
  8
0
 10
16081.7775894580299791
 20
255.5387504213857994
 30
0.0
 40
11589.5607759009908477
 50
180.3926871007041939
 51
180.4322370255175088
  0
ARC
  5
8B16
  8
0
 10
16081.7775894580299791
 20
255.5387504213857994
 30
0.0
 40
11589.5607759009908477
 50
180.3346610137676009
 51
180.3778558790990871
  0
ARC
  5
8B17
  8
0
 10
-8636.6661034046883287
 20
97.6868773062680162
 30
0.0
 40
13129.6491311515401321
 50
0.284418351098741
 51
0.3934798623020134
  0
ARC
  5
8B18
  8
0
 10
4493.7104105878515838
 20
192.4501071470662907
 30
0.0
 40
0.162499995250272
 50
3.3619352149650781
 51
90.000001606036605
  0
LINE
  5
8B19
  8
0
 10
4493.8726309219327959
 20
192.4596366626853978
 30
0.0
 11
4494.0303292969983886
 21
187.9924403149065029
 31
0.0
  0
ARC
  5
8B1A
  8
0
 10
4433.9661963557027775
 20
188.127175030295291
 30
0.0
 40
0.1708426942758243
 50
307.1653835542667252
 51
2.1354542011288702
  0
ARC
  5
8B1B
  8
0
 10
4493.8020830977220612
 20
192.3870460823009125
 30
0.0
 40
0.1012244430037575
 50
0.3175782491489952
 51
45.8176237734314498
  0
LINE
  5
8B1C
  8
0
 10
4493.9033059857983972
 20
192.3876071448617893
 30
0.0
 11
4493.9032281587424222
 21
191.5928942852312105
 31
0.0
  0
ARC
  5
8B1D
  8
0
 10
4493.9927255541397244
 20
161.4429508623234995
 30
0.0
 40
0.0623923128799084
 50
179.9044099382655872
 51
268.0940676127789857
  0
LINE
  5
8B1E
  8
0
 10
4493.990650469359025
 20
161.3805930662618948
 30
0.0
 11
4494.0303292969983886
 21
161.3792071448619936
 31
0.0
  0
LINE
  5
8B1F
  8
0
 10
4493.9303292969971153
 20
162.5230835735617063
 30
0.0
 11
4493.9303333288717113
 21
161.4428463037017991
 31
0.0
  0
ARC
  5
8B20
  8
0
 10
4493.0723253100641159
 20
162.862994041650694
 30
0.0
 40
0.2510656167152961
 50
180.0740611716948081
 51
265.7860711725733154
  0
LINE
  5
8B21
  8
0
 10
4493.0538768463593442
 20
162.6126071448616983
 30
0.0
 11
4493.8700135701546969
 21
162.5855454886618077
 31
0.0
  0
ARC
  5
8B22
  8
0
 10
4493.8678579840398015
 20
162.523111370074588
 30
0.0
 40
0.0624713191414808
 50
359.9745063343531228
 51
88.0226044599922659
  0
LINE
  5
8B23
  8
0
 10
4434.6448872969958757
 20
187.9409615302072893
 30
0.0
 11
4434.6576803007974377
 21
188.3073052275616988
 31
0.0
  0
LINE
  5
8B24
  8
0
 10
4434.6576803007974377
 20
188.3073052275616988
 30
0.0
 11
4434.7832846464398244
 21
188.3029190271637106
 31
0.0
  0
ARC
  5
8B25
  8
0
 10
4434.7811034278720399
 20
188.2404571004512093
 30
0.0
 40
0.0625000000247003
 50
1.999999968321585
 51
87.9999999795566907
  0
LINE
  5
8B26
  8
0
 10
4434.8435653545966488
 20
188.2426383190617116
 30
0.0
 11
4434.8543555784963246
 21
187.9336467366676118
 31
0.0
  0
LINE
  5
8B27
  8
0
 10
4493.4157740131277023
 20
187.9409617201376932
 30
0.0
 11
4493.4029810159590852
 21
188.3073052275616988
 31
0.0
  0
LINE
  5
8B28
  8
0
 10
4493.4029810159590852
 20
188.3073052275616988
 30
0.0
 11
4493.2773766703166984
 21
188.3029190271637106
 31
0.0
  0
ARC
  5
8B29
  8
0
 10
4493.279557888882664
 20
188.2404571004512093
 30
0.0
 40
0.0625000000247003
 50
92.0000000204433093
 51
178.000000031678411
  0
LINE
  5
8B2A
  8
0
 10
4493.217095962159874
 20
188.2426383190617116
 30
0.0
 11
4493.2063057449067855
 21
187.933646927027695
 31
0.0
  0
ARC
  5
8B2B
  8
0
 10
4469.2681157762099247
 20
187.4322823942023035
 30
0.0
 40
5.2388613415094971
 50
174.3641194225293134
 51
180.139250923982587
  0
LINE
  5
8B2C
  8
0
 10
4464.029269907096932
 20
187.4195499456616858
 30
0.0
 11
4464.0292699013971287
 21
168.6437385309617127
 31
0.0
  0
ARC
  5
8B2D
  8
0
 10
4469.519724720319573
 20
168.716436787533496
 30
0.0
 40
5.4909360909726566
 50
180.7586001564951061
 51
201.7182437393566943
  0
ARC
  5
8B2E
  8
0
 10
4462.996815225876162
 20
166.1083559675292065
 30
0.0
 40
1.5340718253229979
 50
0.7450805678646263
 51
22.0615322362551716
  0
LINE
  5
8B2F
  8
0
 10
4464.5307573419968321
 20
166.1283046426617034
 30
0.0
 11
4464.5309555246967648
 21
164.0883480170616906
 31
0.0
  0
ARC
  5
8B30
  8
0
 10
4465.5294588139668122
 20
164.1023019294713947
 30
0.0
 40
0.9986007862771596
 50
180.8006465848417861
 51
269.7800127070664189
  0
LINE
  5
8B31
  8
0
 10
4465.5256246930966881
 20
163.1037085037617089
 30
0.0
 11
4478.5386251402978814
 21
163.1037246502617108
 31
0.0
  0
ARC
  5
8B32
  8
0
 10
4478.531228808715241
 20
164.1016930007102133
 30
0.0
 40
0.9979957586170657
 50
270.4246335311062808
 51
358.9389238763387198
  0
LINE
  5
8B33
  8
0
 10
4479.5290534341966122
 20
164.0832119022616951
 30
0.0
 11
4479.5310732987891242
 21
166.1822913449616976
 31
0.0
  0
ARC
  5
8B34
  8
0
 10
4480.9228281017285553
 20
166.1548637775875079
 30
0.0
 40
1.3920250367567311
 50
157.2631771664661073
 51
178.8710076974442984
  0
ARC
  5
8B35
  8
0
 10
4474.7034917847176985
 20
168.7023245589120961
 30
0.0
 40
5.3288729697153201
 50
337.8466857234756731
 51
2.6510430870125301
  0
LINE
  5
8B36
  8
0
 10
4480.0266615859982267
 20
168.9488005092617016
 30
0.0
 11
4480.0313886926969644
 21
187.4195499456616858
 31
0.0
  0
ARC
  5
8B37
  8
0
 10
4474.8245551054978932
 20
187.4336501961780925
 30
0.0
 40
5.2068526739002223
 50
359.8448418108437181
 51
5.6552516856078663
  0
LINE
  5
8B38
  8
0
 10
4492.7305540815523273
 20
179.1099547316173073
 30
0.0
 11
4492.2344253197979924
 21
179.1064970682120929
 31
0.0
  0
LINE
  5
8B39
  8
0
 10
4492.2344253197979924
 20
179.1064970682120929
 30
0.0
 11
4492.2553326713978095
 21
176.1065699219637963
 31
0.0
  0
LINE
  5
8B3A
  8
0
 10
4492.2553326713978095
 20
176.1065699219637963
 30
0.0
 11
4492.7488157583347856
 21
176.1100091469531037
 31
0.0
  0
LINE
  5
8B3B
  8
0
 10
4492.2344253197979924
 20
179.1064970682120929
 30
0.0
 11
4492.1771536753976761
 21
178.3560797118616961
 31
0.0
  0
LINE
  5
8B3C
  8
0
 10
4492.1771536753976761
 20
178.3560797118616961
 30
0.0
 11
4492.1808473074697758
 21
177.826092582697413
 31
0.0
  0
LINE
  5
8B3D
  8
0
 10
4492.1839185594008086
 20
177.3854087351616897
 30
0.0
 11
4492.1876073510766219
 21
176.8561161387615925
 31
0.0
  0
LINE
  5
8B3E
  8
0
 10
4492.1876073510766219
 20
176.8561161387615925
 30
0.0
 11
4492.2553326710967667
 21
176.1065699219618068
 31
0.0
  0
LINE
  5
8B3F
  8
0
 10
4492.1771536753976761
 20
178.3560797118616961
 30
0.0
 11
4491.2396764421973785
 21
178.3495461645617866
 31
0.0
  0
LINE
  5
8B40
  8
0
 10
4491.2396764421973785
 20
178.3495461645617866
 30
0.0
 11
4490.493499234185947
 21
177.595745437819204
 31
0.0
  0
LINE
  5
8B41
  8
0
 10
4490.493499234185947
 20
177.595745437819204
 30
0.0
 11
4491.2501301178963331
 21
176.8495825914617967
 31
0.0
  0
LINE
  5
8B42
  8
0
 10
4491.2501301178963331
 20
176.8495825914617967
 30
0.0
 11
4492.1876073510993592
 21
176.856116138520207
 31
0.0
  0
LINE
  5
8B43
  8
0
 10
4492.2433457898141569
 20
177.8265281525046078
 30
0.0
 11
4492.0811910842976431
 21
177.825398049961791
 31
0.0
  0
LINE
  5
8B44
  8
0
 10
4492.0811910842976431
 20
177.825398049961791
 30
0.0
 11
4492.05140088639655
 21
177.795189704961814
 31
0.0
  0
LINE
  5
8B45
  8
0
 10
4492.05140088639655
 20
177.795189704961814
 30
0.0
 11
4492.05140088639655
 21
177.4178105400050072
 31
0.0
  0
LINE
  5
8B46
  8
0
 10
4492.05140088639655
 20
177.4178105400050072
 30
0.0
 11
4492.084257495897873
 21
177.3854087351616897
 31
0.0
  0
LINE
  5
8B47
  8
0
 10
4492.084257495897873
 20
177.3854087351616897
 30
0.0
 11
4492.2464200773902121
 21
177.3854087351616897
 31
0.0
  0
LINE
  5
8B48
  8
0
 10
4492.2538139632970342
 20
167.3563468423616882
 30
0.0
 11
4491.3163367414936147
 21
167.3498133066183868
 31
0.0
  0
LINE
  5
8B49
  8
0
 10
4491.3163367414936147
 20
167.3498133066183868
 30
0.0
 11
4490.5701535933767445
 21
166.596018437028107
 31
0.0
  0
LINE
  5
8B4A
  8
0
 10
4490.5701535933767445
 20
166.596018437028107
 30
0.0
 11
4491.3267904056965563
 21
165.8498497219617889
 31
0.0
  0
LINE
  5
8B4B
  8
0
 10
4491.3267904056965563
 20
165.8498497219617889
 30
0.0
 11
4492.2642676388677501
 21
165.8563832695841995
 31
0.0
  0
LINE
  5
8B4C
  8
0
 10
4491.2396764421973785
 20
178.3495461645617866
 30
0.0
 11
4491.1830872115970124
 21
186.4693489736617096
 31
0.0
  0
ARC
  5
8B4D
  8
0
 10
4491.0530903684930308
 20
186.4684429884420069
 30
0.0
 40
0.1300000001010324
 50
0.3993042273041388
 51
90.4010071329475693
  0
LINE
  5
8B4E
  8
0
 10
4491.0521805195976413
 20
186.5984398045617922
 30
0.0
 11
4489.8122186173859518
 21
186.5897612999548016
 31
0.0
  0
ARC
  5
8B4F
  8
0
 10
4489.8131285226154432
 20
186.4597564352810934
 30
0.0
 40
0.1300080488521585
 50
90.4010071329475693
 51
179.9802350253121119
  0
LINE
  5
8B50
  8
0
 10
4489.6831204814970988
 20
186.4598012833617133
 30
0.0
 11
4489.848570475048291
 21
162.7194718142418992
 31
0.0
  0
ARC
  5
8B51
  8
0
 10
4489.9785673229171152
 20
162.7203778043617035
 30
0.0
 40
0.1300000048999905
 50
180.399306372303613
 51
269.9999991098533769
  0
LINE
  5
8B52
  8
0
 10
4489.9785673208971275
 20
162.5903777994616917
 30
0.0
 11
4491.2231331207285621
 21
162.5990943967773887
 31
0.0
  0
ARC
  5
8B53
  8
0
 10
4491.2185257511082455
 20
162.7290241569793068
 30
0.0
 40
0.1300114242708587
 50
272.0308839865094797
 51
0.3972188259484483
  0
LINE
  5
8B54
  8
0
 10
4491.3485340509969319
 20
162.7299254898883021
 30
0.0
 11
4491.3267904056965563
 21
165.8498497219617889
 31
0.0
  0
LINE
  5
8B55
  8
0
 10
4491.2501301178963331
 20
176.8495825914617967
 30
0.0
 11
4491.3163367414936147
 21
167.3498133066183868
 31
0.0
  0
LINE
  5
8B56
  8
0
 10
4492.7941624440800297
 20
168.1101308995120007
 30
0.0
 11
4492.31108560769826
 21
168.1067641987121135
 31
0.0
  0
LINE
  5
8B57
  8
0
 10
4492.31108560769826
 20
168.1067641987121135
 30
0.0
 11
4492.331992959298077
 21
165.1068370524637885
 31
0.0
  0
LINE
  5
8B58
  8
0
 10
4492.331992959298077
 20
165.1068370524637885
 30
0.0
 11
4492.8099107798643672
 21
165.1101677986530945
 31
0.0
  0
LINE
  5
8B59
  8
0
 10
4492.31108560769826
 20
168.1067641987121135
 30
0.0
 11
4492.2538139632970342
 21
167.3563468423616882
 31
0.0
  0
LINE
  5
8B5A
  8
0
 10
4492.2538139632970342
 20
167.3563468423616882
 30
0.0
 11
4492.2575075953709529
 21
166.8263597131974052
 31
0.0
  0
LINE
  5
8B5B
  8
0
 10
4492.2605788473010762
 20
166.3856758656617103
 30
0.0
 11
4492.2642676389768894
 21
165.8563832692616131
 31
0.0
  0
LINE
  5
8B5C
  8
0
 10
4492.2642676389768894
 20
165.8563832692616131
 30
0.0
 11
4492.3319929589970343
 21
165.106837052461799
 31
0.0
  0
LINE
  5
8B5D
  8
0
 10
4492.3200060777126055
 20
166.8267952830045999
 30
0.0
 11
4492.1578513721979107
 21
166.8256651804616979
 31
0.0
  0
LINE
  5
8B5E
  8
0
 10
4492.1578513721979107
 20
166.8256651804616979
 30
0.0
 11
4492.1280611742968176
 21
166.7954568354616924
 31
0.0
  0
LINE
  5
8B5F
  8
0
 10
4492.1280611742968176
 20
166.7954568354616924
 30
0.0
 11
4492.1280611742968176
 21
166.4180776705049993
 31
0.0
  0
LINE
  5
8B60
  8
0
 10
4492.1280611742968176
 20
166.4180776705049993
 30
0.0
 11
4492.1609177837972311
 21
166.3856758656617103
 31
0.0
  0
LINE
  5
8B61
  8
0
 10
4492.1609177837972311
 20
166.3856758656617103
 30
0.0
 11
4492.3230803652913892
 21
166.3856758656617103
 31
0.0
  0
LINE
  5
8B62
  8
0
 10
4435.3301651530600793
 20
179.1099542900198003
 30
0.0
 11
4435.8262305514354011
 21
179.1064970682120929
 31
0.0
  0
LINE
  5
8B63
  8
0
 10
4435.8262305514354011
 20
179.1064970682120929
 30
0.0
 11
4435.8053231998346746
 21
176.1065699219637963
 31
0.0
  0
LINE
  5
8B64
  8
0
 10
4435.8053231998346746
 20
176.1065699219637963
 30
0.0
 11
4435.3119097563157993
 21
176.1100086615882105
 31
0.0
  0
LINE
  5
8B65
  8
0
 10
4435.8262305514354011
 20
179.1064970682120929
 30
0.0
 11
4435.8835021958348079
 21
178.3560797118616961
 31
0.0
  0
LINE
  5
8B66
  8
0
 10
4435.8835021958348079
 20
178.3560797118616961
 30
0.0
 11
4435.8798085637608892
 21
177.826092582697413
 31
0.0
  0
LINE
  5
8B67
  8
0
 10
4435.8767373118316755
 20
177.3854087351616897
 30
0.0
 11
4435.8730485201558622
 21
176.8561161387615925
 31
0.0
  0
LINE
  5
8B68
  8
0
 10
4435.8730485201558622
 20
176.8561161387615925
 30
0.0
 11
4435.8053232001357173
 21
176.1065699219618068
 31
0.0
  0
LINE
  5
8B69
  8
0
 10
4435.8835021958348079
 20
178.3560797118616961
 30
0.0
 11
4436.8209794290351056
 21
178.3495461645617866
 31
0.0
  0
LINE
  5
8B6A
  8
0
 10
4436.8209794290351056
 20
178.3495461645617866
 30
0.0
 11
4437.5671566370456276
 21
177.595745437819204
 31
0.0
  0
LINE
  5
8B6B
  8
0
 10
4437.5671566370456276
 20
177.595745437819204
 30
0.0
 11
4436.8105257533352415
 21
176.8495825914617967
 31
0.0
  0
LINE
  5
8B6C
  8
0
 10
4436.8105257533352415
 20
176.8495825914617967
 30
0.0
 11
4435.8730485201340343
 21
176.856116138520207
 31
0.0
  0
LINE
  5
8B6D
  8
0
 10
4435.8173100814192367
 20
177.8265281525046078
 30
0.0
 11
4435.979464786934841
 21
177.825398049961791
 31
0.0
  0
LINE
  5
8B6E
  8
0
 10
4435.979464786934841
 20
177.825398049961791
 30
0.0
 11
4436.009254984835934
 21
177.795189704961814
 31
0.0
  0
LINE
  5
8B6F
  8
0
 10
4436.009254984835934
 20
177.795189704961814
 30
0.0
 11
4436.009254984835934
 21
177.4178105400050072
 31
0.0
  0
LINE
  5
8B70
  8
0
 10
4436.009254984835934
 20
177.4178105400050072
 30
0.0
 11
4435.976398375334611
 21
177.3854087351616897
 31
0.0
  0
LINE
  5
8B71
  8
0
 10
4435.976398375334611
 20
177.3854087351616897
 30
0.0
 11
4435.814235793842272
 21
177.3854087351616897
 31
0.0
  0
LINE
  5
8B72
  8
0
 10
4435.8068419079354499
 20
167.3563468423616882
 30
0.0
 11
4436.7443191297388694
 21
167.3498133066183868
 31
0.0
  0
LINE
  5
8B73
  8
0
 10
4436.7443191297388694
 20
167.3498133066183868
 30
0.0
 11
4437.4905022778557395
 21
166.596018437028107
 31
0.0
  0
LINE
  5
8B74
  8
0
 10
4437.4905022778557395
 20
166.596018437028107
 30
0.0
 11
4436.7338654655359278
 21
165.8498497219617889
 31
0.0
  0
LINE
  5
8B75
  8
0
 10
4436.7338654655359278
 20
165.8498497219617889
 30
0.0
 11
4435.7963882323638245
 21
165.8563832695841995
 31
0.0
  0
LINE
  5
8B76
  8
0
 10
4436.8209794290351056
 20
178.3495461645617866
 30
0.0
 11
4436.8775686596345622
 21
186.4693489736617096
 31
0.0
  0
ARC
  5
8B77
  8
0
 10
4437.0075655027394532
 20
186.4684429884420069
 30
0.0
 40
0.1300000001010324
 50
89.5989928670524165
 51
179.6006957726959001
  0
LINE
  5
8B78
  8
0
 10
4437.0084753516348428
 20
186.5984398045617922
 30
0.0
 11
4438.2484372538456228
 21
186.5897612999548016
 31
0.0
  0
ARC
  5
8B79
  8
0
 10
4438.2475273486179503
 20
186.4597564352810934
 30
0.0
 40
0.1300080488521585
 50
0.0197649746878935
 51
89.5989928670524165
  0
LINE
  5
8B7A
  8
0
 10
4438.3775353897362947
 20
186.4598012833617133
 30
0.0
 11
4438.2120853961851026
 21
162.7194718142418992
 31
0.0
  0
ARC
  5
8B7B
  8
0
 10
4438.0820885483153688
 20
162.7203778043617035
 30
0.0
 40
0.1300000048999905
 50
270.0000008901465094
 51
359.6006936276962733
  0
LINE
  5
8B7C
  8
0
 10
4438.0820885503353566
 20
162.5903777994616917
 30
0.0
 11
4436.8375227505030125
 21
162.5990943967773887
 31
0.0
  0
ARC
  5
8B7D
  8
0
 10
4436.8421301201242386
 20
162.7290241569793068
 30
0.0
 40
0.1300114242708587
 50
179.6027811740515006
 51
267.9691160134904067
  0
LINE
  5
8B7E
  8
0
 10
4436.7121218202346427
 20
162.7299254898883021
 30
0.0
 11
4436.7218138788812212
 21
164.1206071448617081
 31
0.0
  0
LINE
  5
8B7F
  8
0
 10
4436.7322678083755818
 20
165.6206071448617081
 30
0.0
 11
4436.7338654655359278
 21
165.8498497219617889
 31
0.0
  0
LINE
  5
8B80
  8
0
 10
4436.8105257533352415
 20
176.8495825914617967
 30
0.0
 11
4436.7443191297388694
 21
167.3498133066183868
 31
0.0
  0
LINE
  5
8B81
  8
0
 10
4435.2665412086271317
 20
168.110130566509298
 30
0.0
 11
4435.7495702635351336
 21
168.1067641987121135
 31
0.0
  0
LINE
  5
8B82
  8
0
 10
4435.7495702635351336
 20
168.1067641987121135
 30
0.0
 11
4435.7368150754091403
 21
166.2765641884126069
 31
0.0
  0
LINE
  5
8B83
  8
0
 10
4435.7495702635351336
 20
168.1067641987121135
 30
0.0
 11
4435.8068419079354499
 21
167.3563468423616882
 31
0.0
  0
LINE
  5
8B84
  8
0
 10
4435.8068419079354499
 20
167.3563468423616882
 30
0.0
 11
4435.8031482758606217
 21
166.8263597131974052
 31
0.0
  0
LINE
  5
8B85
  8
0
 10
4435.8000770239323174
 20
166.3856758656617103
 30
0.0
 11
4435.7963882322546851
 21
165.8563832692616131
 31
0.0
  0
LINE
  5
8B86
  8
0
 10
4435.7963882322546851
 20
165.8563832692616131
 30
0.0
 11
4435.7750846580129291
 21
165.6206071448617081
 31
0.0
  0
LINE
  5
8B87
  8
0
 10
4435.7406497935180596
 20
166.8267952830045999
 30
0.0
 11
4435.9028044990345734
 21
166.8256651804616979
 31
0.0
  0
LINE
  5
8B88
  8
0
 10
4435.9028044990345734
 20
166.8256651804616979
 30
0.0
 11
4435.9325946969347569
 21
166.7954568354616924
 31
0.0
  0
LINE
  5
8B89
  8
0
 10
4435.9325946969347569
 20
166.7954568354616924
 30
0.0
 11
4435.9325946969347569
 21
166.4180776705049993
 31
0.0
  0
LINE
  5
8B8A
  8
0
 10
4435.9325946969347569
 20
166.4180776705049993
 30
0.0
 11
4435.899738087435253
 21
166.3856758656617103
 31
0.0
  0
LINE
  5
8B8B
  8
0
 10
4435.899738087435253
 20
166.3856758656617103
 30
0.0
 11
4435.7375755059420044
 21
166.3856758656617103
 31
0.0
  0
LINE
  5
8B8C
  8
0
 10
4435.7395292969977163
 20
166.2451071448616915
 30
0.0
 11
4435.7395292969977163
 21
163.4961071448616963
 31
0.0
  0
ARC
  5
8B8D
  8
0
 10
4435.5511181555748408
 20
163.4965182862835036
 30
0.0
 40
0.1884115900074317
 50
270.1250278018675886
 51
359.8749721981226912
  0
LINE
  5
8B8E
  8
0
 10
4435.5515292969967049
 20
163.3081071448617081
 30
0.0
 11
4435.2416190110752723
 21
163.3074308740497997
 31
0.0
  0
LINE
  5
8B8F
  8
0
 10
4435.7395292969977163
 20
164.1206071448617081
 30
0.0
 11
4437.4895292969977163
 21
164.1206071448617081
 31
0.0
  0
ARC
  5
8B90
  8
0
 10
4437.4895292969977163
 20
164.8706071448617081
 30
0.0
 40
0.75
 50
270.0
 51
349.1379102508154801
  0
ARC
  5
8B91
  8
0
 10
4437.4895292969977163
 20
164.8706071448617081
 30
0.0
 40
0.75
 50
10.0634965454920202
 51
90.0
  0
LINE
  5
8B92
  8
0
 10
4437.4895292969977163
 20
165.6206071448617081
 30
0.0
 11
4435.7395292969977163
 21
165.6206071448617081
 31
0.0
  0
ARC
  5
8B93
  8
0
 10
4435.5511181555748408
 20
166.2446960034399979
 30
0.0
 40
0.1884115900074317
 50
0.1250278018773502
 51
89.8749721981324541
  0
LINE
  5
8B94
  8
0
 10
4435.5515292969967049
 20
166.4331071448617081
 30
0.0
 11
4435.2576448252902992
 21
166.4337484449389137
 31
0.0
  0
ENDSEC
  0
EOF
