  0
SECTION
  2
HEADER
  9
$ACADVER
  1
AC1009
  9
$INSBASE
 10
4405.1984681425392409
 20
193.7032460302586969
 30
0.0
  9
$EXTMIN
 10
4375.1984681425392409
 20
193.6981978315230037
 30
0.0
  9
$EXTMAX
 10
4435.1984681425392409
 20
270.0449371759655151
 30
0.0
  9
$LIMMIN
 10
0.0
 20
0.0
  9
$LIMMAX
 10
11.6929133858000007
 20
8.2677165353999982
  9
$ORTHOMODE
 70
     1
  9
$REGENMODE
 70
     1
  9
$FILLMODE
 70
     1
  9
$QTEXTMODE
 70
     0
  9
$MIRRTEXT
 70
     0
  9
$DRAGMODE
 70
     2
  9
$LTSCALE
 40
0.6431102362
  9
$OSMODE
 70
  4095
  9
$ATTMODE
 70
     1
  9
$TEXTSIZE
 40
0.2
  9
$TRACEWID
 40
0.05
  9
$TEXTSTYLE
  7
STANDARD
  9
$CLAYER
  8
0
  9
$CELTYPE
  6
BYLAYER
  9
$CECOLOR
 62
   256
  9
$DIMSCALE
 40
1.0
  9
$DIMASZ
 40
0.1875
  9
$DIMEXO
 40
0.0625
  9
$DIMDLI
 40
0.4443307087
  9
$DIMRND
 40
0.0
  9
$DIMDLE
 40
0.0
  9
$DIMEXE
 40
0.125
  9
$DIMTP
 40
0.01
  9
$DIMTM
 40
0.01
  9
$DIMTXT
 40
2.0
  9
$DIMCEN
 40
0.1052362205
  9
$DIMTSZ
 40
0.0
  9
$DIMTOL
 70
     1
  9
$DIMLIM
 70
     0
  9
$DIMTIH
 70
     1
  9
$DIMTOH
 70
     1
  9
$DIMSE1
 70
     0
  9
$DIMSE2
 70
     0
  9
$DIMTAD
 70
     0
  9
$DIMZIN
 70
     0
  9
$DIMBLK
  1

  9
$DIMASO
 70
     1
  9
$DIMSHO
 70
     1
  9
$DIMPOST
  1
\X
  9
$DIMAPOST
  1

  9
$DIMALT
 70
     1
  9
$DIMALTD
 70
     2
  9
$DIMALTF
 40
25.3999999999999986
  9
$DIMLFAC
 40
1.0
  9
$DIMTOFL
 70
     0
  9
$DIMTVP
 40
0.0
  9
$DIMTIX
 70
     0
  9
$DIMSOXD
 70
     0
  9
$DIMSAH
 70
     0
  9
$DIMBLK1
  1

  9
$DIMBLK2
  1

  9
$DIMSTYLE
  2
STANDARD
  9
$DIMCLRD
 70
     0
  9
$DIMCLRE
 70
     0
  9
$DIMCLRT
 70
     0
  9
$DIMTFAC
 40
1.0
  9
$DIMGAP
 40
0.09
  9
$LUNITS
 70
     2
  9
$LUPREC
 70
     4
  9
$SKETCHINC
 40
0.1
  9
$FILLETRAD
 40
0.0
  9
$AUNITS
 70
     0
  9
$AUPREC
 70
     0
  9
$MENU
  1
.
  9
$ELEVATION
 40
0.0
  9
$PELEVATION
 40
0.0
  9
$THICKNESS
 40
0.0
  9
$LIMCHECK
 70
     0
  9
$BLIPMODE
 70
     0
  9
$CHAMFERA
 40
0.0
  9
$CHAMFERB
 40
0.0
  9
$SKPOLY
 70
     0
  9
$TDCREATE
 40
2458060.468368056230247
  9
$TDUPDATE
 40
2459111.7298379628919065
  9
$TDINDWG
 40
0.3222640046
  9
$TDUSRTIMER
 40
0.3222640046
  9
$USRTIMER
 70
     1
  9
$ANGBASE
 50
0.0
  9
$ANGDIR
 70
     0
  9
$PDMODE
 70
     0
  9
$PDSIZE
 40
0.3125
  9
$PLINEWID
 40
0.0
  9
$COORDS
 70
     1
  9
$SPLFRAME
 70
     0
  9
$SPLINETYPE
 70
     6
  9
$SPLINESEGS
 70
     8
  9
$ATTDIA
 70
     1
  9
$ATTREQ
 70
     1
  9
$HANDLING
 70
     1
  9
$HANDSEED
  5
9720
  9
$SURFTAB1
 70
     6
  9
$SURFTAB2
 70
     6
  9
$SURFTYPE
 70
     6
  9
$SURFU
 70
     6
  9
$SURFV
 70
     6
  9
$UCSNAME
  2

  9
$UCSORG
 10
0.0
 20
0.0
 30
0.0
  9
$UCSXDIR
 10
1.0
 20
0.0
 30
0.0
  9
$UCSYDIR
 10
0.0
 20
1.0
 30
0.0
  9
$PUCSNAME
  2

  9
$PUCSORG
 10
0.0
 20
0.0
 30
0.0
  9
$PUCSXDIR
 10
1.0
 20
0.0
 30
0.0
  9
$PUCSYDIR
 10
0.0
 20
1.0
 30
0.0
  9
$USERI1
 70
     0
  9
$USERI2
 70
     0
  9
$USERI3
 70
     0
  9
$USERI4
 70
     0
  9
$USERI5
 70
     0
  9
$USERR1
 40
0.0
  9
$USERR2
 40
0.0
  9
$USERR3
 40
0.0
  9
$USERR4
 40
0.0
  9
$USERR5
 40
0.0
  9
$WORLDVIEW
 70
     1
  9
$SHADEDGE
 70
     3
  9
$SHADEDIF
 70
    70
  9
$TILEMODE
 70
     1
  9
$MAXACTVP
 70
    64
  9
$PLIMCHECK
 70
     0
  9
$PEXTMIN
 10
1.0000000000000000E+20
 20
1.0000000000000000E+20
 30
1.0000000000000000E+20
  9
$PEXTMAX
 10
-1.0000000000000000E+20
 20
-1.0000000000000000E+20
 30
-1.0000000000000000E+20
  9
$PLIMMIN
 10
0.0
 20
0.0
  9
$PLIMMAX
 10
12.0
 20
9.0
  9
$UNITMODE
 70
     0
  9
$VISRETAIN
 70
     1
  9
$PLINEGEN
 70
     0
  9
$PSLTSCALE
 70
     1
  0
ENDSEC
  0
SECTION
  2
TABLES
  0
TABLE
  2
VPORT
 70
     1
  0
VPORT
  2
*ACTIVE
 70
     0
 10
0.0
 20
0.0
 11
1.0
 21
1.0
 12
0.0
 22
0.0
 13
0.0
 23
0.0
 14
1.0
 24
1.0
 15
0.0
 25
0.0
 16
0.0
 26
0.0
 36
275.1366662174868907
 17
4405.1982421875
 27
231.8715751120504933
 37
0.0
 40
97.1072088607056401
 41
2.1186252771618621
 42
50.0
 43
0.0
 44
0.0
 50
0.0
 51
0.0
 71
     0
 72
   100
 73
     1
 74
     1
 75
     0
 76
     0
 77
     0
 78
     0
  0
ENDTAB
  0
TABLE
  2
LTYPE
 70
     2
  0
LTYPE
  2
CONTINUOUS
 70
     0
  3
Solid line
 72
    65
 73
     0
 40
0.0
  0
LTYPE
  2
PHANTOM2
 70
     0
  3
___ _ _ ___ _ _ ___ _ _ ___ _ _
 72
    65
 73
     6
 40
1.25
 49
0.625
 49
-0.125
 49
0.125
 49
-0.125
 49
0.125
 49
-0.125
  0
ENDTAB
  0
TABLE
  2
LAYER
 70
     2
  0
LAYER
  2
0
 70
     0
 62
   255
  6
CONTINUOUS
  0
LAYER
  2
DEFPOINTS
 70
     0
 62
     7
  6
CONTINUOUS
  0
ENDTAB
  0
TABLE
  2
STYLE
 70
     1
  0
STYLE
  2
STANDARD
 70
     0
 40
0.0
 41
0.8
 50
0.0
 71
     0
 42
0.2
  3
txt
  4

  0
ENDTAB
  0
TABLE
  2
VIEW
 70
     0
  0
ENDTAB
  0
TABLE
  2
UCS
 70
     0
  0
ENDTAB
  0
TABLE
  2
APPID
 70
     9
  0
APPID
  2
ACAD
 70
     0
  0
APPID
  2
ACAD_MLEADERVER
 70
     0
  0
APPID
  2
ACAD_EXEMPT_FROM_CAD_STANDARDS
 70
     0
  0
APPID
  2
ACAD_NAV_VCDISPLAY
 70
     0
  0
APPID
  2
ACAECLAYERSTANDARD
 70
     0
  0
APPID
  2
ACCMTRANSPARENCY
 70
     0
  0
APPID
  2
ACAD_DSTYLE_DIMJAG
 70
     0
  0
APPID
  2
ACAD_DSTYLE_DIMTALN
 70
     0
  0
APPID
  2
ACDBATTR
 70
     0
  0
ENDTAB
  0
TABLE
  2
DIMSTYLE
 70
     1
  0
DIMSTYLE
  2
STANDARD
 70
     0
  3

  4

  5

  6

  7

 40
1.0
 41
0.1875
 42
0.0625
 43
0.38
 44
0.125
 45
0.0
 46
0.0
 47
0.01
 48
0.01
140
0.15625
141
0.09
142
0.0
143
25.3999999999999986
144
1.0
145
0.0
146
1.0
147
0.09
 71
     1
 72
     0
 73
     1
 74
     1
 75
     0
 76
     0
 77
     0
 78
     4
170
     0
171
     2
172
     0
173
     0
174
     0
175
     0
176
     0
177
     0
178
     0
  0
ENDTAB
  0
ENDSEC
  0
SECTION
  2
BLOCKS
  0
BLOCK
  8
0
  2
$MODEL_SPACE
 70
     0
 10
0.0
 20
0.0
 30
0.0
  3
$MODEL_SPACE
  1

  0
ENDBLK
  5
21
  8
0
  0
BLOCK
 67
     1
  8
0
  2
$PAPER_SPACE
 70
     0
 10
0.0
 20
0.0
 30
0.0
  3
$PAPER_SPACE
  1

  0
ENDBLK
  5
1D
 67
     1
  8
0
  0
ENDSEC
  0
SECTION
  2
ENTITIES
  0
ATTDEF
  5
3930
  8
DEFPOINTS
 10
4405.1941553491551531
 20
193.7015311648563056
 30
0.0
 40
0.001
  1
71570115
  3

  2
MODELNUMBER
 70
     0
1001
ACDBATTR
1070
     0
1070
     1
  0
ATTDEF
  5
3931
  8
DEFPOINTS
 10
4405.1941553491551531
 20
193.699864498189612
 30
0.0
 40
0.001
  1
TRAVERSE
  3

  2
TRADENAME
 70
     0
1001
ACDBATTR
1070
     0
1070
     1
  0
ATTDEF
  5
3932
  8
DEFPOINTS
 10
4405.1941553491551531
 20
193.6981978315230037
 30
0.0
 40
0.001
  1
BATH AND WALL SURROUND
  3

  2
PRODUCT
 70
     0
1001
ACDBATTR
1070
     0
1070
     1
  0
LINE
  5
8F34
  8
0
 10
4392.8540620103476613
 20
193.7032460302586969
 30
0.0
 11
4393.5109478072481579
 21
193.7032463612586071
 31
0.0
  0
LINE
  5
8F35
  8
0
 10
4398.93298288319329
 20
193.7032460302586969
 30
0.0
 11
4399.4639506513367451
 21
193.7032460302586969
 31
0.0
  0
LINE
  5
8F36
  8
0
 10
4401.5808107197481149
 20
193.7032460302586969
 30
0.0
 11
4402.7917639250481443
 21
193.7032460302586969
 31
0.0
  0
LINE
  5
8F37
  8
0
 10
4397.9724068983487086
 20
193.7032460302586969
 30
0.0
 11
4397.407487283948285
 21
193.7032460302586969
 31
0.0
  0
LINE
  5
8F38
  8
0
 10
4407.8540620116482387
 20
193.7032460302586969
 30
0.0
 11
4408.4724068999494193
 21
193.7032460302586969
 31
0.0
  0
LINE
  5
8F39
  8
0
 10
4410.9329828821992123
 20
193.7032460302586969
 30
0.0
 11
4411.4639506575449559
 21
193.7032460302586969
 31
0.0
  0
LINE
  5
8F3A
  8
0
 10
4412.3540620107487484
 20
193.7032460302586969
 30
0.0
 11
4413.0109478113254227
 21
193.7032460302586969
 31
0.0
  0
LINE
  5
8F3B
  8
0
 10
4391.2740547377479743
 20
193.7032460302586969
 30
0.0
 11
4388.3540620134481287
 21
193.7032460302586969
 31
0.0
  0
LINE
  5
8F3C
  8
0
 10
4388.3540620134481287
 20
193.7032460302586969
 30
0.0
 11
4386.4274624928712001
 21
193.7032460302586969
 31
0.0
  0
LINE
  5
8F3D
  8
0
 10
4416.8540620111489261
 20
193.7032460302586969
 30
0.0
 11
4417.4724069013491317
 21
193.7032460302586969
 31
0.0
  0
LINE
  5
8F3E
  8
0
 10
4386.4274624928712001
 20
193.7032460302586969
 30
0.0
 11
4380.9328860616487873
 21
193.7032460302586969
 31
0.0
  0
LINE
  5
8F3F
  8
0
 10
4419.9329828997506411
 20
193.7032460302586969
 30
0.0
 11
4420.4639506419216559
 21
193.7032460302586969
 31
0.0
  0
LINE
  5
8F40
  8
0
 10
4380.9325368429481387
 20
193.7232460302587072
 30
0.0
 11
4380.9328860616487873
 21
193.7032460302586969
 31
0.0
  0
LINE
  5
8F41
  8
0
 10
4393.5112971352482418
 20
193.7232460302587072
 30
0.0
 11
4393.5109478072481579
 21
193.7032463612586071
 31
0.0
  0
LINE
  5
8F42
  8
0
 10
4398.9326335771493177
 20
193.7232460302587072
 30
0.0
 11
4398.93298288319329
 21
193.7032460302586969
 31
0.0
  0
LINE
  5
8F43
  8
0
 10
4399.4642999861480348
 20
193.7232460302587072
 30
0.0
 11
4399.4639506513367451
 21
193.7032460302586969
 31
0.0
  0
LINE
  5
8F44
  8
0
 10
4410.9326335785481206
 20
193.7232460302587072
 30
0.0
 11
4410.9329828821992123
 21
193.7032460302586969
 31
0.0
  0
LINE
  5
8F45
  8
0
 10
4411.464299984648278
 20
193.7232460302587072
 30
0.0
 11
4411.4639506575449559
 21
193.7032460302586969
 31
0.0
  0
LINE
  5
8F46
  8
0
 10
4413.0110204265720313
 20
193.7232460302587072
 30
0.0
 11
4413.0109478113254227
 21
193.7032460302586969
 31
0.0
  0
LINE
  5
8F47
  8
0
 10
4419.932633579848698
 20
193.7232460302587072
 30
0.0
 11
4419.9329828997506411
 21
193.7032460302586969
 31
0.0
  0
LINE
  5
8F48
  8
0
 10
4420.4642999834486545
 20
193.7232460302587072
 30
0.0
 11
4420.4639506419216559
 21
193.7032460302586969
 31
0.0
  0
ARC
  5
8F49
  8
0
 10
4401.5808107197481149
 20
194.0282460302593108
 30
0.0
 40
0.3250000000007065
 50
249.7947764167147966
 51
270.0
  0
ARC
  5
8F4A
  8
0
 10
4402.7917637359678338
 20
194.0282471723674007
 30
0.0
 40
0.3250011421088583
 50
270.0000333339099257
 51
290.2051877085049796
  0
ARC
  5
8F4B
  8
0
 10
4386.4312448253022012
 20
193.7371598108441049
 30
0.0
 40
0.0341240465393198
 50
204.0630209396335886
 51
263.636220812181989
  0
LINE
  5
8F4C
  8
0
 10
4435.0095550521082259
 20
211.7232460302587072
 30
0.0
 11
4375.3873785102068723
 21
211.7232460302587072
 31
0.0
  0
LINE
  5
8F4D
  8
0
 10
4433.3659712434546236
 20
209.7058693810571128
 30
0.0
 11
4377.0309623188595651
 21
209.7058445521234944
 31
0.0
  0
ARC
  5
8F4E
  8
0
 10
4377.0396360123922932
 20
210.3382064995302017
 30
0.0
 40
0.6324214302879443
 50
181.8243784378094858
 51
269.2141607007719131
  0
LINE
  5
8F4F
  8
0
 10
4375.417709870537692
 20
211.7232460302587072
 30
0.0
 11
4375.4008454846389213
 21
212.2061788577586867
 31
0.0
  0
LINE
  5
8F50
  8
0
 10
4375.4008454846389213
 20
212.2061788577586867
 30
0.0
 11
4375.26185765073933
 21
212.2110324198586966
 31
0.0
  0
ARC
  5
8F51
  8
0
 10
4376.2376095422669096
 20
211.5981721696585964
 30
0.0
 40
0.125154397011138
 50
1.3885425263817881
 51
87.9444214544952558
  0
LINE
  5
8F52
  8
0
 10
4376.3627271883797221
 20
211.6012049443880869
 30
0.0
 11
4376.407535153290155
 21
210.3180727117274103
 31
0.0
  0
ARC
  5
8F53
  8
0
 10
4375.2610963701108631
 20
212.2736560440519042
 30
0.0
 40
0.0626282512552443
 50
180.0498279529232093
 51
270.6964786714767115
  0
ARC
  5
8F54
  8
0
 10
4375.2359651603892416
 20
269.9714148634733988
 30
0.0
 40
0.0625002593878911
 50
0.0000948678743584
 51
86.9972748802564695
  0
CIRCLE
  5
8F55
  8
0
 10
4375.9484654197767668
 20
269.5453220302586033
 30
0.0
 40
0.09375
  0
CIRCLE
  5
8F56
  8
0
 10
4376.6984654197767668
 20
269.5453220302586033
 30
0.0
 40
0.09375
  0
CIRCLE
  5
8F57
  8
0
 10
4377.4484654197767668
 20
269.5453220302586033
 30
0.0
 40
0.09375
  0
CIRCLE
  5
8F58
  8
0
 10
4378.1984654197767668
 20
269.5453220302586033
 30
0.0
 40
0.09375
  0
CIRCLE
  5
8F59
  8
0
 10
4378.9484654197767668
 20
269.5453220302586033
 30
0.0
 40
0.09375
  0
CIRCLE
  5
8F5A
  8
0
 10
4379.6984654197767668
 20
269.5453220302586033
 30
0.0
 40
0.09375
  0
CIRCLE
  5
8F5B
  8
0
 10
4380.4484654197767668
 20
269.5453220302586033
 30
0.0
 40
0.09375
  0
CIRCLE
  5
8F5C
  8
0
 10
4381.1984654197758573
 20
269.5453220302586033
 30
0.0
 40
0.09375
  0
CIRCLE
  5
8F5D
  8
0
 10
4381.9484654197758573
 20
269.5453220302586033
 30
0.0
 40
0.09375
  0
CIRCLE
  5
8F5E
  8
0
 10
4382.6984654197758573
 20
269.5453220302586033
 30
0.0
 40
0.09375
  0
CIRCLE
  5
8F5F
  8
0
 10
4383.4484654197758573
 20
269.5453220302586033
 30
0.0
 40
0.09375
  0
CIRCLE
  5
8F60
  8
0
 10
4384.1984654197758573
 20
269.5453220302586033
 30
0.0
 40
0.09375
  0
CIRCLE
  5
8F61
  8
0
 10
4384.9484654197767668
 20
269.5453220302586033
 30
0.0
 40
0.09375
  0
CIRCLE
  5
8F62
  8
0
 10
4385.6984654197767668
 20
269.5453220302586033
 30
0.0
 40
0.09375
  0
CIRCLE
  5
8F63
  8
0
 10
4386.4484654197767668
 20
269.5453220302586033
 30
0.0
 40
0.09375
  0
CIRCLE
  5
8F64
  8
0
 10
4387.1984654197767668
 20
269.5453220302586033
 30
0.0
 40
0.09375
  0
CIRCLE
  5
8F65
  8
0
 10
4387.9484654197767668
 20
269.5453220302586033
 30
0.0
 40
0.09375
  0
CIRCLE
  5
8F66
  8
0
 10
4388.6984654197767668
 20
269.5453220302586033
 30
0.0
 40
0.09375
  0
CIRCLE
  5
8F67
  8
0
 10
4389.4484654197767668
 20
269.5453220302586033
 30
0.0
 40
0.09375
  0
CIRCLE
  5
8F68
  8
0
 10
4390.1984654197767668
 20
269.5453220302586033
 30
0.0
 40
0.09375
  0
CIRCLE
  5
8F69
  8
0
 10
4390.9484654197767668
 20
269.5453220302586033
 30
0.0
 40
0.09375
  0
CIRCLE
  5
8F6A
  8
0
 10
4391.6984654197767668
 20
269.5453220302586033
 30
0.0
 40
0.09375
  0
CIRCLE
  5
8F6B
  8
0
 10
4392.4484654197767668
 20
269.5453220302586033
 30
0.0
 40
0.09375
  0
CIRCLE
  5
8F6C
  8
0
 10
4393.1984654197767668
 20
269.5453220302586033
 30
0.0
 40
0.09375
  0
CIRCLE
  5
8F6D
  8
0
 10
4393.9484654197767668
 20
269.5453220302586033
 30
0.0
 40
0.09375
  0
CIRCLE
  5
8F6E
  8
0
 10
4394.6984654197767668
 20
269.5453220302586033
 30
0.0
 40
0.09375
  0
CIRCLE
  5
8F6F
  8
0
 10
4395.4484654197767668
 20
269.5453220302586033
 30
0.0
 40
0.09375
  0
CIRCLE
  5
8F70
  8
0
 10
4396.1984654197767668
 20
269.5453220302586033
 30
0.0
 40
0.09375
  0
CIRCLE
  5
8F71
  8
0
 10
4405.1984654196758129
 20
269.5453220302586033
 30
0.0
 40
0.09375
  0
CIRCLE
  5
8F72
  8
0
 10
4404.4484654196758129
 20
269.5453220302586033
 30
0.0
 40
0.09375
  0
CIRCLE
  5
8F73
  8
0
 10
4403.6984654196758129
 20
269.5453220302586033
 30
0.0
 40
0.09375
  0
CIRCLE
  5
8F74
  8
0
 10
4402.9484654196767224
 20
269.5453220302586033
 30
0.0
 40
0.09375
  0
CIRCLE
  5
8F75
  8
0
 10
4402.1984654196767224
 20
269.5453220302586033
 30
0.0
 40
0.09375
  0
CIRCLE
  5
8F76
  8
0
 10
4401.4484654196767224
 20
269.5453220302586033
 30
0.0
 40
0.09375
  0
CIRCLE
  5
8F77
  8
0
 10
4400.6984654196767224
 20
269.5453220302586033
 30
0.0
 40
0.09375
  0
CIRCLE
  5
8F78
  8
0
 10
4399.9484654196767224
 20
269.5453220302586033
 30
0.0
 40
0.09375
  0
CIRCLE
  5
8F79
  8
0
 10
4399.1984654196767224
 20
269.5453220302586033
 30
0.0
 40
0.09375
  0
CIRCLE
  5
8F7A
  8
0
 10
4398.4484654196767224
 20
269.5453220302586033
 30
0.0
 40
0.09375
  0
CIRCLE
  5
8F7B
  8
0
 10
4397.6984654196767224
 20
269.5453220302586033
 30
0.0
 40
0.09375
  0
CIRCLE
  5
8F7C
  8
0
 10
4396.9484654196767224
 20
269.5453220302586033
 30
0.0
 40
0.09375
  0
LINE
  5
8F7D
  8
0
 10
4434.8785494288376867
 20
270.0449371759586938
 30
0.0
 11
4375.5183841334774115
 21
270.0449371759655151
 31
0.0
  0
ARC
  5
8F7E
  8
0
 10
4375.7385457717964528
 20
256.7542986002465
 30
0.0
 40
13.2924619577110192
 50
90.9490273167754424
 51
91.5913717002702157
  0
ARC
  5
8F7F
  8
0
 10
4375.3765589833583363
 20
269.9767630962646763
 30
0.0
 40
0.0652645652224314
 50
96.2980609704425206
 51
106.839801671930104
  0
ARC
  5
8F80
  8
0
 10
4375.3586415738191135
 20
270.0359064481044129
 30
0.0
 40
0.0034667890539801
 50
106.5845051380289021
 51
156.1948510659302087
  0
LINE
  5
8F81
  8
0
 10
4375.3554697273930287
 20
270.0373057395668752
 30
0.0
 11
4375.2984654197452983
 21
269.9417861427269827
 31
0.0
  0
ARC
  5
8F82
  8
0
 10
4375.3612087056326345
 20
268.8389234085257726
 30
0.0
 40
0.0631070482025065
 50
186.1548244795978917
 51
266.8064174934531252
  0
LINE
  5
8F83
  8
0
 10
4375.3576930326162255
 20
268.7759143648406734
 30
0.0
 11
4376.1180838641930677
 21
268.7360535192580073
 31
0.0
  0
ARC
  5
8F84
  8
0
 10
4376.1045079586338034
 20
268.4782532679301994
 30
0.0
 40
0.2581574612450347
 50
359.9983936624590797
 51
86.9855566029131495
  0
LINE
  5
8F85
  8
0
 10
4376.3626654197769312
 20
268.4782460302586742
 30
0.0
 11
4376.3626654197769312
 21
211.8482460302587072
 31
0.0
  0
ARC
  5
8F86
  8
0
 10
4376.2375251777857557
 20
211.8483026826862954
 30
0.0
 40
0.1251402548152468
 50
272.0944627187492983
 51
359.9740615430495723
  0
LINE
  5
8F87
  8
0
 10
4434.0342654197784213
 20
268.4782460302586742
 30
0.0
 11
4376.3626654197769312
 21
268.4782460302586742
 31
0.0
  0
ARC
  5
8F88
  8
0
 10
4374.9515271360678526
 20
268.0715797046706825
 30
0.0
 40
1.6165649126030699
 50
1.2996828926257891
 51
13.9631559315499896
  0
LINE
  5
8F89
  8
0
 10
4376.5676761628910754
 20
268.1082463073994973
 30
0.0
 11
4376.5676761635768344
 21
266.2802435302585877
 31
0.0
  0
ARC
  5
8F8A
  8
0
 10
4374.9498823569829256
 20
266.3171274494837917
 30
0.0
 40
1.618214208364283
 50
346.0433338061126847
 51
358.6939455121008109
  0
ARC
  5
8F8B
  8
0
 10
4386.8564636689588951
 20
268.3768638971415044
 30
0.0
 40
0.082590736034968
 50
3.942111706236497
 51
81.2913706712686945
  0
LINE
  5
8F8C
  8
0
 10
4386.8689687071773733
 20
268.458502452358573
 30
0.0
 11
4379.7278587752771273
 21
268.4609850039586263
 31
0.0
  0
ARC
  5
8F8D
  8
0
 10
4379.7371267263270056
 20
268.3755386351763264
 30
0.0
 40
0.0859475238429649
 50
96.1903935601904863
 51
175.3450164775254052
  0
LINE
  5
8F8E
  8
0
 10
4379.6514627040769483
 20
268.3825137442585742
 30
0.0
 11
4379.6514718491771418
 21
266.0059451490478182
 31
0.0
  0
ARC
  5
8F8F
  8
0
 10
4379.7337061602993344
 20
266.0114750145020253
 30
0.0
 40
0.0824200299533133
 50
183.8470763153692076
 51
261.3864160044975051
  0
LINE
  5
8F90
  8
0
 10
4379.721362132277136
 20
265.9299846082586214
 30
0.0
 11
4386.8624720570769568
 21
265.9275020565586942
 31
0.0
  0
ARC
  5
8F91
  8
0
 10
4386.8532099835501867
 20
266.0129427102652926
 30
0.0
 40
0.0859412084614658
 50
276.186908807080215
 51
355.3485027668336897
  0
LINE
  5
8F92
  8
0
 10
4386.9388681354766959
 20
266.0059733257587027
 30
0.0
 11
4386.9388589968757515
 21
268.3825418911587235
 31
0.0
  0
ARC
  5
8F93
  8
0
 10
4379.5576005025577615
 20
268.3820154294897975
 30
0.0
 40
0.0796300539901669
 50
356.9903457378719054
 51
90.9176753424951443
  0
LINE
  5
8F94
  8
0
 10
4379.5563251658149966
 20
268.4616352700741118
 30
0.0
 11
4376.520324323377281
 21
268.4616534178990719
 31
0.0
  0
LINE
  5
8F95
  8
0
 10
4376.520324322761553
 20
265.9268336418588206
 30
0.0
 11
4379.5561769221294526
 21
265.9266996644172991
 31
0.0
  0
ARC
  5
8F96
  8
0
 10
4379.5574163812361803
 20
266.0065695148265945
 30
0.0
 40
0.0798794670943839
 50
269.1109276478640027
 51
2.9922440426863441
  0
LINE
  5
8F97
  8
0
 10
4379.6371869414779212
 20
266.0107392848586869
 30
0.0
 11
4379.6371207229767606
 21
268.3778345153586997
 31
0.0
  0
LINE
  5
8F98
  8
0
 10
4375.2984654197771306
 20
269.971414966958605
 30
0.0
 11
4375.2984654185547697
 21
268.832157356541984
 31
0.0
  0
LINE
  5
8F99
  8
0
 10
4433.0847699202677177
 20
242.2415453137296879
 30
0.0
 11
4379.4076681425403876
 21
242.2415453137296879
 31
0.0
  0
LINE
  5
8F9A
  8
0
 10
4377.9076681425385686
 20
242.2415453137296879
 30
0.0
 11
4377.3121636420482901
 21
242.2415453137296879
 31
0.0
  0
LINE
  5
8F9B
  8
0
 10
4433.841553924838081
 20
240.9579867988794035
 30
0.0
 11
4379.4076681425403876
 21
240.9579866440114131
 31
0.0
  0
LINE
  5
8F9C
  8
0
 10
4377.9076681425385686
 20
240.9579866397438082
 30
0.0
 11
4376.5553796374761077
 21
240.9579866358963898
 31
0.0
  0
LINE
  5
8F9D
  8
0
 10
4428.3844069476863297
 20
196.9989012563090967
 30
0.0
 11
4382.0125266146287686
 21
196.9987913972036893
 31
0.0
  0
ARC
  5
8F9E
  8
0
 10
4382.1776020531942777
 20
198.2845365515476885
 30
0.0
 40
1.296298770475611
 50
199.9516226320733097
 51
262.6838802006819833
  0
ARC
  5
8F9F
  8
0
 10
4404.6485841526955483
 20
209.0416128750310065
 30
0.0
 40
26.2033991164724398
 50
182.6622311275799859
 51
205.3028521985710029
  0
LINE
  5
8FA0
  8
0
 10
4431.9234674618492136
 20
207.8245178873588941
 30
0.0
 11
4378.4734661004677037
 21
207.8245178873586099
 31
0.0
  0
LINE
  5
8FA1
  8
0
 10
4375.1984681425392409
 20
270.0359660302586917
 30
0.0
 11
4375.1984681425392409
 21
212.2736015786587132
 31
0.0
  0
ARC
  5
8FA2
  8
0
 10
4377.3735693267126408
 20
243.0276957840681007
 30
0.0
 40
0.7885450019640446
 50
183.6435038812531957
 51
265.5337334520377794
  0
ARC
  5
8FA3
  8
0
 10
4376.9328852589624148
 20
237.1968856394896932
 30
0.0
 40
3.3030006539860381
 50
89.73507407661765
 51
97.2517978588189038
  0
LINE
  5
8FA4
  8
0
 10
4430.7528251009080122
 20
268.785307590158709
 30
0.0
 11
4379.6441084614079955
 21
268.785307590158709
 31
0.0
  0
ARC
  5
8FA5
  8
0
 10
4379.2971837767381658
 20
292.663595580970707
 30
0.0
 40
23.8808080706870207
 50
263.9089540980186825
 51
270.8323847087735885
  0
ARC
  5
8FA6
  8
0
 10
4375.7344192770551672
 20
264.0302395401147919
 30
0.0
 40
4.9944754097330986
 50
78.1126399366005302
 51
86.9725204897206652
  0
ARC
  5
8FA7
  8
0
 10
-4453.5673862597595871
 20
-167887.9652391212875955
 30
0.0
 40
168388.6342796013050247
 50
86.9942807629816315
 51
86.9944453648087261
  0
ARC
  5
8FA8
  8
0
 10
4375.5184703294780775
 20
269.105567669806419
 30
0.0
 40
0.0625483017807696
 50
180.1467563129847917
 51
266.9232501539045757
  0
LINE
  5
8FA9
  8
0
 10
4375.4559222328771284
 20
269.1054074599587125
 30
0.0
 11
4375.4559222328771284
 21
269.975482513258612
 31
0.0
  0
ARC
  5
8FAA
  8
0
 10
4375.3850686089554074
 20
269.9718133977698926
 30
0.0
 40
0.070948561869014
 50
2.9643821618284218
 51
83.3001860013321931
  0
LINE
  5
8FAB
  8
0
 10
4375.2423369235475548
 20
193.7232460302587072
 30
0.0
 11
4375.2423378929379396
 21
211.523262643243612
 31
0.0
  0
ARC
  5
8FAC
  8
0
 10
4375.3147630135063082
 20
211.5427460309200001
 30
0.0
 40
0.0750000032306652
 50
182.0012185121391894
 51
195.0569190047804113
  0
LINE
  5
8FAD
  8
0
 10
4375.34146307359606
 20
212.2082525372424016
 30
0.0
 11
4375.3573985421935504
 21
211.7521984079508002
 31
0.0
  0
ARC
  5
8FAE
  8
0
 10
4375.3873802448251809
 20
211.7532460302946049
 30
0.0
 40
0.0300000000861011
 50
182.0012181626447045
 51
269.9966871242236834
  0
ARC
  5
8FAF
  8
0
 10
4394.1575636689603925
 20
268.3768638971415044
 30
0.0
 40
0.082590736034968
 50
3.942111706236497
 51
81.2913706712686945
  0
LINE
  5
8FB0
  8
0
 10
4394.1700687071770517
 20
268.458502452358573
 30
0.0
 11
4387.0289587752768057
 21
268.4609850039586263
 31
0.0
  0
ARC
  5
8FB1
  8
0
 10
4387.038226726326684
 20
268.3755386351763264
 30
0.0
 40
0.0859475238429649
 50
96.1903935601904863
 51
175.3450164775254052
  0
LINE
  5
8FB2
  8
0
 10
4386.9525627040766267
 20
268.3825137442585742
 30
0.0
 11
4386.9525718491768203
 21
266.0059451490478182
 31
0.0
  0
ARC
  5
8FB3
  8
0
 10
4387.0348061602990128
 20
266.0114750145020253
 30
0.0
 40
0.0824200299533133
 50
183.8470763153692076
 51
261.3864160044975051
  0
LINE
  5
8FB4
  8
0
 10
4387.0224621322768144
 20
265.9299846082586214
 30
0.0
 11
4394.1635720570766352
 21
265.9275020565586942
 31
0.0
  0
ARC
  5
8FB5
  8
0
 10
4394.1543099835507746
 20
266.0129427102652926
 30
0.0
 40
0.0859412084614658
 50
276.186908807080215
 51
355.3485027668336897
  0
LINE
  5
8FB6
  8
0
 10
4394.2399681354772838
 20
266.0059733257587027
 30
0.0
 11
4394.2399589968772489
 21
268.3825418911587235
 31
0.0
  0
ARC
  5
8FB7
  8
0
 10
4401.4586636689591614
 20
268.3768638971415044
 30
0.0
 40
0.082590736034968
 50
3.942111706236497
 51
81.2913706712686945
  0
LINE
  5
8FB8
  8
0
 10
4401.4711687071767301
 20
268.458502452358573
 30
0.0
 11
4394.3300587752773936
 21
268.4609850039586263
 31
0.0
  0
ARC
  5
8FB9
  8
0
 10
4394.3393267263272719
 20
268.3755386351763264
 30
0.0
 40
0.0859475238429649
 50
96.1903935601904863
 51
175.3450164775254052
  0
LINE
  5
8FBA
  8
0
 10
4394.2536627040772146
 20
268.3825137442585742
 30
0.0
 11
4394.2536718491774081
 21
266.0059451490478182
 31
0.0
  0
ARC
  5
8FBB
  8
0
 10
4394.3359061602986912
 20
266.0114750145020253
 30
0.0
 40
0.0824200299533133
 50
183.8470763153692076
 51
261.3864160044975051
  0
LINE
  5
8FBC
  8
0
 10
4394.3235621322755833
 20
265.9299846082586214
 30
0.0
 11
4401.4646720570772231
 21
265.9275020565586942
 31
0.0
  0
ARC
  5
8FBD
  8
0
 10
4401.455409983550453
 20
266.0129427102652926
 30
0.0
 40
0.0859412084614658
 50
276.186908807080215
 51
355.3485027668336897
  0
LINE
  5
8FBE
  8
0
 10
4401.5410681354769622
 20
266.0059733257587027
 30
0.0
 11
4401.5410589968769273
 21
268.3825418911587235
 31
0.0
  0
ARC
  5
8FBF
  8
0
 10
4405.1092136689576364
 20
265.8288138971415151
 30
0.0
 40
0.082590736034968
 50
3.942111706236497
 51
81.2913706712686945
  0
LINE
  5
8FC0
  8
0
 10
4405.121718707177024
 20
265.9104524523585837
 30
0.0
 11
4397.9806087752758685
 21
265.9129350039585802
 31
0.0
  0
ARC
  5
8FC1
  8
0
 10
4397.9898767263266564
 20
265.8274886351763939
 30
0.0
 40
0.0859475238429649
 50
96.1903935601904863
 51
175.3450164775254052
  0
LINE
  5
8FC2
  8
0
 10
4397.904212704076599
 20
265.8344637442585849
 30
0.0
 11
4397.9042218491758831
 21
263.4578951490477721
 31
0.0
  0
ARC
  5
8FC3
  8
0
 10
4397.9864561602989852
 20
263.4634250145019223
 30
0.0
 40
0.0824200299533133
 50
183.8470763153692076
 51
261.3864160044975051
  0
LINE
  5
8FC4
  8
0
 10
4397.9741121322767867
 20
263.3819346082585753
 30
0.0
 11
4405.1152220570766076
 21
263.379452056558705
 31
0.0
  0
ARC
  5
8FC5
  8
0
 10
4405.105959983550747
 20
263.4648927102653033
 30
0.0
 40
0.0859412084614658
 50
276.186908807080215
 51
355.3485027668336897
  0
LINE
  5
8FC6
  8
0
 10
4405.1916181354781656
 20
263.4579233257587134
 30
0.0
 11
4405.1916089968772212
 21
265.8344918911586774
 31
0.0
  0
ARC
  5
8FC7
  8
0
 10
4397.8081136689588675
 20
265.8288138971415151
 30
0.0
 40
0.082590736034968
 50
3.942111706236497
 51
81.2913706712686945
  0
LINE
  5
8FC8
  8
0
 10
4397.8206187071782551
 20
265.9104524523585837
 30
0.0
 11
4390.6795087752770996
 21
265.9129350039585802
 31
0.0
  0
ARC
  5
8FC9
  8
0
 10
4390.688776726326978
 20
265.8274886351763939
 30
0.0
 40
0.0859475238429649
 50
96.1903935601904863
 51
175.3450164775254052
  0
LINE
  5
8FCA
  8
0
 10
4390.6031127040760111
 20
265.8344637442585849
 30
0.0
 11
4390.6031218491771142
 21
263.4578951490477721
 31
0.0
  0
ARC
  5
8FCB
  8
0
 10
4390.6853561602993068
 20
263.4634250145019223
 30
0.0
 40
0.0824200299533133
 50
183.8470763153692076
 51
261.3864160044975051
  0
LINE
  5
8FCC
  8
0
 10
4390.6730121322771083
 20
263.3819346082585753
 30
0.0
 11
4397.8141220570760197
 21
263.379452056558705
 31
0.0
  0
ARC
  5
8FCD
  8
0
 10
4397.8048599835501591
 20
263.4648927102653033
 30
0.0
 40
0.0859412084614658
 50
276.186908807080215
 51
355.3485027668336897
  0
LINE
  5
8FCE
  8
0
 10
4397.8905181354766682
 20
263.4579233257587134
 30
0.0
 11
4397.8905089968766333
 21
265.8344918911586774
 31
0.0
  0
ARC
  5
8FCF
  8
0
 10
4390.5070136689591891
 20
265.8288138971415151
 30
0.0
 40
0.082590736034968
 50
3.942111706236497
 51
81.2913706712686945
  0
LINE
  5
8FD0
  8
0
 10
4390.5195187071767577
 20
265.9104524523585837
 30
0.0
 11
4383.3784087752783307
 21
265.9129350039585802
 31
0.0
  0
ARC
  5
8FD1
  8
0
 10
4383.3876767263263901
 20
265.8274886351763939
 30
0.0
 40
0.0859475238429649
 50
96.1903935601904863
 51
175.3450164775254052
  0
LINE
  5
8FD2
  8
0
 10
4383.3020127040772422
 20
265.8344637442585849
 30
0.0
 11
4383.3020218491774358
 21
263.4578951490477721
 31
0.0
  0
ARC
  5
8FD3
  8
0
 10
4383.3842561602978094
 20
263.4634250145019223
 30
0.0
 40
0.0824200299533133
 50
183.8470763153692076
 51
261.3864160044975051
  0
LINE
  5
8FD4
  8
0
 10
4383.3719121322756109
 20
263.3819346082585753
 30
0.0
 11
4390.5130220570772508
 21
263.379452056558705
 31
0.0
  0
ARC
  5
8FD5
  8
0
 10
4390.5037599835495712
 20
263.4648927102653033
 30
0.0
 40
0.0859412084614658
 50
276.186908807080215
 51
355.3485027668336897
  0
LINE
  5
8FD6
  8
0
 10
4390.5894181354760804
 20
263.4579233257587134
 30
0.0
 11
4390.5894089968760454
 21
265.8344918911586774
 31
0.0
  0
ARC
  5
8FD7
  8
0
 10
4401.4586636689591614
 20
263.2807638971414121
 30
0.0
 40
0.082590736034968
 50
3.942111706236497
 51
81.2913706712686945
  0
LINE
  5
8FD8
  8
0
 10
4401.4711687071767301
 20
263.3624024523585945
 30
0.0
 11
4394.3300587752773936
 21
263.3648850039587046
 31
0.0
  0
ARC
  5
8FD9
  8
0
 10
4394.3393267263272719
 20
263.279438635176291
 30
0.0
 40
0.0859475238429649
 50
96.1903935601904863
 51
175.3450164775254052
  0
LINE
  5
8FDA
  8
0
 10
4394.2536627040772146
 20
263.2864137442587094
 30
0.0
 11
4394.2536718491774081
 21
260.9098451490477828
 31
0.0
  0
ARC
  5
8FDB
  8
0
 10
4394.3359061602986912
 20
260.9153750145018762
 30
0.0
 40
0.0824200299533133
 50
183.8470763153692076
 51
261.3864160044975051
  0
LINE
  5
8FDC
  8
0
 10
4394.3235621322755833
 20
260.833884608258586
 30
0.0
 11
4401.4646720570772231
 21
260.8314020565587157
 31
0.0
  0
ARC
  5
8FDD
  8
0
 10
4401.455409983550453
 20
260.9168427102653141
 30
0.0
 40
0.0859412084614658
 50
276.186908807080215
 51
355.3485027668336897
  0
LINE
  5
8FDE
  8
0
 10
4401.5410681354769622
 20
260.9098733257587241
 30
0.0
 11
4401.5410589968769273
 21
263.2864418911586881
 31
0.0
  0
ARC
  5
8FDF
  8
0
 10
4394.1575636689603925
 20
263.2807638971414121
 30
0.0
 40
0.082590736034968
 50
3.942111706236497
 51
81.2913706712686945
  0
LINE
  5
8FE0
  8
0
 10
4394.1700687071770517
 20
263.3624024523585945
 30
0.0
 11
4387.0289587752768057
 21
263.3648850039587046
 31
0.0
  0
ARC
  5
8FE1
  8
0
 10
4387.038226726326684
 20
263.279438635176291
 30
0.0
 40
0.0859475238429649
 50
96.1903935601904863
 51
175.3450164775254052
  0
LINE
  5
8FE2
  8
0
 10
4386.9525627040766267
 20
263.2864137442587094
 30
0.0
 11
4386.9525718491768203
 21
260.9098451490477828
 31
0.0
  0
ARC
  5
8FE3
  8
0
 10
4387.0348061602990128
 20
260.9153750145018762
 30
0.0
 40
0.0824200299533133
 50
183.8470763153692076
 51
261.3864160044975051
  0
LINE
  5
8FE4
  8
0
 10
4387.0224621322768144
 20
260.833884608258586
 30
0.0
 11
4394.1635720570766352
 21
260.8314020565587157
 31
0.0
  0
ARC
  5
8FE5
  8
0
 10
4394.1543099835507746
 20
260.9168427102653141
 30
0.0
 40
0.0859412084614658
 50
276.186908807080215
 51
355.3485027668336897
  0
LINE
  5
8FE6
  8
0
 10
4394.2399681354772838
 20
260.9098733257587241
 30
0.0
 11
4394.2399589968772489
 21
263.2864418911586881
 31
0.0
  0
ARC
  5
8FE7
  8
0
 10
4386.8564636689588951
 20
263.2807638971414121
 30
0.0
 40
0.082590736034968
 50
3.942111706236497
 51
81.2913706712686945
  0
LINE
  5
8FE8
  8
0
 10
4386.8689687071773733
 20
263.3624024523585945
 30
0.0
 11
4379.7278587752771273
 21
263.3648850039587046
 31
0.0
  0
ARC
  5
8FE9
  8
0
 10
4379.7371267263270056
 20
263.279438635176291
 30
0.0
 40
0.0859475238429649
 50
96.1903935601904863
 51
175.3450164775254052
  0
LINE
  5
8FEA
  8
0
 10
4379.6514627040769483
 20
263.2864137442587094
 30
0.0
 11
4379.6514718491762324
 21
260.9098451490477828
 31
0.0
  0
ARC
  5
8FEB
  8
0
 10
4379.7337061602993344
 20
260.9153750145018762
 30
0.0
 40
0.0824200299533133
 50
183.8470763153692076
 51
261.3864160044975051
  0
LINE
  5
8FEC
  8
0
 10
4379.721362132277136
 20
260.833884608258586
 30
0.0
 11
4386.8624720570769568
 21
260.8314020565587157
 31
0.0
  0
ARC
  5
8FED
  8
0
 10
4386.8532099835501867
 20
260.9168427102653141
 30
0.0
 40
0.0859412084614658
 50
276.186908807080215
 51
355.3485027668336897
  0
LINE
  5
8FEE
  8
0
 10
4386.9388681354766959
 20
260.9098733257587241
 30
0.0
 11
4386.9388589968757515
 21
263.2864418911586881
 31
0.0
  0
ARC
  5
8FEF
  8
0
 10
4390.5070136689591891
 20
260.7327138971414229
 30
0.0
 40
0.082590736034968
 50
3.942111706236497
 51
81.2913706712686945
  0
LINE
  5
8FF0
  8
0
 10
4390.5195187071767577
 20
260.8143524523587189
 30
0.0
 11
4383.3784087752783307
 21
260.816835003958488
 31
0.0
  0
ARC
  5
8FF1
  8
0
 10
4383.3876767263263901
 20
260.7313886351763017
 30
0.0
 40
0.0859475238429649
 50
96.1903935601904863
 51
175.3450164775254052
  0
LINE
  5
8FF2
  8
0
 10
4383.3020127040772422
 20
260.7383637442587201
 30
0.0
 11
4383.3020218491774358
 21
258.3617951490476798
 31
0.0
  0
ARC
  5
8FF3
  8
0
 10
4383.3842561602978094
 20
258.3673250145018869
 30
0.0
 40
0.0824200299533133
 50
183.8470763153692076
 51
261.3864160044975051
  0
LINE
  5
8FF4
  8
0
 10
4383.3719121322756109
 20
258.2858346082585967
 30
0.0
 11
4390.5130220570772508
 21
258.2833520565587264
 31
0.0
  0
ARC
  5
8FF5
  8
0
 10
4390.5037599835495712
 20
258.3687927102653248
 30
0.0
 40
0.0859412084614658
 50
276.186908807080215
 51
355.3485027668336897
  0
LINE
  5
8FF6
  8
0
 10
4390.5894181354760804
 20
258.361823325758678
 30
0.0
 11
4390.5894089968760454
 21
260.7383918911586989
 31
0.0
  0
ARC
  5
8FF7
  8
0
 10
4397.8081136689588675
 20
260.7327138971414229
 30
0.0
 40
0.082590736034968
 50
3.942111706236497
 51
81.2913706712686945
  0
LINE
  5
8FF8
  8
0
 10
4397.8206187071782551
 20
260.8143524523587189
 30
0.0
 11
4390.6795087752770996
 21
260.816835003958488
 31
0.0
  0
ARC
  5
8FF9
  8
0
 10
4390.688776726326978
 20
260.7313886351763017
 30
0.0
 40
0.0859475238429649
 50
96.1903935601904863
 51
175.3450164775254052
  0
LINE
  5
8FFA
  8
0
 10
4390.6031127040760111
 20
260.7383637442587201
 30
0.0
 11
4390.6031218491771142
 21
258.3617951490476798
 31
0.0
  0
ARC
  5
8FFB
  8
0
 10
4390.6853561602993068
 20
258.3673250145018869
 30
0.0
 40
0.0824200299533133
 50
183.8470763153692076
 51
261.3864160044975051
  0
LINE
  5
8FFC
  8
0
 10
4390.6730121322771083
 20
258.2858346082585967
 30
0.0
 11
4397.8141220570760197
 21
258.2833520565587264
 31
0.0
  0
ARC
  5
8FFD
  8
0
 10
4397.8048599835501591
 20
258.3687927102653248
 30
0.0
 40
0.0859412084614658
 50
276.186908807080215
 51
355.3485027668336897
  0
LINE
  5
8FFE
  8
0
 10
4397.8905181354766682
 20
258.361823325758678
 30
0.0
 11
4397.8905089968766333
 21
260.7383918911586989
 31
0.0
  0
ARC
  5
8FFF
  8
0
 10
4405.1092136689576364
 20
260.7327138971414229
 30
0.0
 40
0.082590736034968
 50
3.942111706236497
 51
81.2913706712686945
  0
LINE
  5
9000
  8
0
 10
4405.121718707177024
 20
260.8143524523587189
 30
0.0
 11
4397.9806087752758685
 21
260.816835003958488
 31
0.0
  0
ARC
  5
9001
  8
0
 10
4397.9898767263266564
 20
260.7313886351763017
 30
0.0
 40
0.0859475238429649
 50
96.1903935601904863
 51
175.3450164775254052
  0
LINE
  5
9002
  8
0
 10
4397.904212704076599
 20
260.7383637442587201
 30
0.0
 11
4397.9042218491758831
 21
258.3617951490476798
 31
0.0
  0
ARC
  5
9003
  8
0
 10
4397.9864561602989852
 20
258.3673250145018869
 30
0.0
 40
0.0824200299533133
 50
183.8470763153692076
 51
261.3864160044975051
  0
LINE
  5
9004
  8
0
 10
4397.9741121322767867
 20
258.2858346082585967
 30
0.0
 11
4405.1152220570766076
 21
258.2833520565587264
 31
0.0
  0
ARC
  5
9005
  8
0
 10
4405.105959983550747
 20
258.3687927102653248
 30
0.0
 40
0.0859412084614658
 50
276.186908807080215
 51
355.3485027668336897
  0
LINE
  5
9006
  8
0
 10
4405.1916181354781656
 20
258.361823325758678
 30
0.0
 11
4405.1916089968772212
 21
260.7383918911586989
 31
0.0
  0
ARC
  5
9007
  8
0
 10
4401.4586636689591614
 20
258.1846638971413768
 30
0.0
 40
0.082590736034968
 50
3.942111706236497
 51
81.2913706712686945
  0
LINE
  5
9008
  8
0
 10
4401.4711687071767301
 20
258.2663024523586728
 30
0.0
 11
4394.3300587752773936
 21
258.2687850039586124
 31
0.0
  0
ARC
  5
9009
  8
0
 10
4394.3393267263272719
 20
258.1833386351764261
 30
0.0
 40
0.0859475238429649
 50
96.1903935601904863
 51
175.3450164775254052
  0
LINE
  5
900A
  8
0
 10
4394.2536627040772146
 20
258.190313744258674
 30
0.0
 11
4394.2536718491774081
 21
255.8137451490476906
 31
0.0
  0
ARC
  5
900B
  8
0
 10
4394.3359061602986912
 20
255.8192750145018977
 30
0.0
 40
0.0824200299533133
 50
183.8470763153692076
 51
261.3864160044975051
  0
LINE
  5
900C
  8
0
 10
4394.3235621322755833
 20
255.7377846082586075
 30
0.0
 11
4401.4646720570772231
 21
255.7353020565587087
 31
0.0
  0
ARC
  5
900D
  8
0
 10
4401.455409983550453
 20
255.8207427102653924
 30
0.0
 40
0.0859412084614658
 50
276.186908807080215
 51
355.3485027668336897
  0
LINE
  5
900E
  8
0
 10
4401.5410681354769622
 20
255.8137733257586888
 30
0.0
 11
4401.5410589968769273
 21
258.1903418911585959
 31
0.0
  0
ARC
  5
900F
  8
0
 10
4394.1575636689603925
 20
258.1846638971413768
 30
0.0
 40
0.082590736034968
 50
3.942111706236497
 51
81.2913706712686945
  0
LINE
  5
9010
  8
0
 10
4394.1700687071770517
 20
258.2663024523586728
 30
0.0
 11
4387.0289587752768057
 21
258.2687850039586124
 31
0.0
  0
ARC
  5
9011
  8
0
 10
4387.038226726326684
 20
258.1833386351764261
 30
0.0
 40
0.0859475238429649
 50
96.1903935601904863
 51
175.3450164775254052
  0
LINE
  5
9012
  8
0
 10
4386.9525627040766267
 20
258.190313744258674
 30
0.0
 11
4386.9525718491768203
 21
255.8137451490476906
 31
0.0
  0
ARC
  5
9013
  8
0
 10
4387.0348061602990128
 20
255.8192750145018977
 30
0.0
 40
0.0824200299533133
 50
183.8470763153692076
 51
261.3864160044975051
  0
LINE
  5
9014
  8
0
 10
4387.0224621322768144
 20
255.7377846082586075
 30
0.0
 11
4394.1635720570766352
 21
255.7353020565587087
 31
0.0
  0
ARC
  5
9015
  8
0
 10
4394.1543099835507746
 20
255.8207427102653924
 30
0.0
 40
0.0859412084614658
 50
276.186908807080215
 51
355.3485027668336897
  0
LINE
  5
9016
  8
0
 10
4394.2399681354772838
 20
255.8137733257586888
 30
0.0
 11
4394.2399589968772489
 21
258.1903418911585959
 31
0.0
  0
ARC
  5
9017
  8
0
 10
4386.8564636689588951
 20
258.1846638971413768
 30
0.0
 40
0.082590736034968
 50
3.942111706236497
 51
81.2913706712686945
  0
LINE
  5
9018
  8
0
 10
4386.8689687071773733
 20
258.2663024523586728
 30
0.0
 11
4379.7278587752771273
 21
258.2687850039586124
 31
0.0
  0
ARC
  5
9019
  8
0
 10
4379.7371267263270056
 20
258.1833386351764261
 30
0.0
 40
0.0859475238429649
 50
96.1903935601904863
 51
175.3450164775254052
  0
LINE
  5
901A
  8
0
 10
4379.6514627040769483
 20
258.190313744258674
 30
0.0
 11
4379.6514718491762324
 21
255.8137451490476906
 31
0.0
  0
ARC
  5
901B
  8
0
 10
4379.7337061602993344
 20
255.8192750145018977
 30
0.0
 40
0.0824200299533133
 50
183.8470763153692076
 51
261.3864160044975051
  0
LINE
  5
901C
  8
0
 10
4379.721362132277136
 20
255.7377846082586075
 30
0.0
 11
4386.8624720570769568
 21
255.7353020565587087
 31
0.0
  0
ARC
  5
901D
  8
0
 10
4386.8532099835501867
 20
255.8207427102653924
 30
0.0
 40
0.0859412084614658
 50
276.186908807080215
 51
355.3485027668336897
  0
LINE
  5
901E
  8
0
 10
4386.9388681354766959
 20
255.8137733257586888
 30
0.0
 11
4386.9388589968757515
 21
258.1903418911585959
 31
0.0
  0
ARC
  5
901F
  8
0
 10
4390.5070136689591891
 20
255.6366138971413875
 30
0.0
 40
0.082590736034968
 50
3.942111706236497
 51
81.2913706712686945
  0
LINE
  5
9020
  8
0
 10
4390.5195187071767577
 20
255.7182524523587119
 30
0.0
 11
4383.3784087752783307
 21
255.7207350039585947
 31
0.0
  0
ARC
  5
9021
  8
0
 10
4383.3876767263263901
 20
255.6352886351764084
 30
0.0
 40
0.0859475238429649
 50
96.1903935601904863
 51
175.3450164775254052
  0
LINE
  5
9022
  8
0
 10
4383.3020127040772422
 20
255.6422637442587131
 30
0.0
 11
4383.3020218491774358
 21
253.2656951490477013
 31
0.0
  0
ARC
  5
9023
  8
0
 10
4383.3842561602978094
 20
253.2712250145019937
 30
0.0
 40
0.0824200299533133
 50
183.8470763153692076
 51
261.3864160044975051
  0
LINE
  5
9024
  8
0
 10
4383.3719121322756109
 20
253.1897346082585898
 30
0.0
 11
4390.5130220570772508
 21
253.187252056558691
 31
0.0
  0
ARC
  5
9025
  8
0
 10
4390.5037599835495712
 20
253.2726927102654031
 30
0.0
 40
0.0859412084614658
 50
276.186908807080215
 51
355.3485027668336897
  0
LINE
  5
9026
  8
0
 10
4390.5894181354760804
 20
253.2657233257586995
 30
0.0
 11
4390.5894089968760454
 21
255.6422918911586066
 31
0.0
  0
ARC
  5
9027
  8
0
 10
4397.8081136689588675
 20
255.6366138971413875
 30
0.0
 40
0.082590736034968
 50
3.942111706236497
 51
81.2913706712686945
  0
LINE
  5
9028
  8
0
 10
4397.8206187071782551
 20
255.7182524523587119
 30
0.0
 11
4390.6795087752770996
 21
255.7207350039585947
 31
0.0
  0
ARC
  5
9029
  8
0
 10
4390.688776726326978
 20
255.6352886351764084
 30
0.0
 40
0.0859475238429649
 50
96.1903935601904863
 51
175.3450164775254052
  0
LINE
  5
902A
  8
0
 10
4390.6031127040760111
 20
255.6422637442587131
 30
0.0
 11
4390.6031218491771142
 21
253.2656951490477013
 31
0.0
  0
ARC
  5
902B
  8
0
 10
4390.6853561602993068
 20
253.2712250145019937
 30
0.0
 40
0.0824200299533133
 50
183.8470763153692076
 51
261.3864160044975051
  0
LINE
  5
902C
  8
0
 10
4390.6730121322771083
 20
253.1897346082585898
 30
0.0
 11
4397.8141220570760197
 21
253.187252056558691
 31
0.0
  0
ARC
  5
902D
  8
0
 10
4397.8048599835501591
 20
253.2726927102654031
 30
0.0
 40
0.0859412084614658
 50
276.186908807080215
 51
355.3485027668336897
  0
LINE
  5
902E
  8
0
 10
4397.8905181354766682
 20
253.2657233257586995
 30
0.0
 11
4397.8905089968766333
 21
255.6422918911586066
 31
0.0
  0
ARC
  5
902F
  8
0
 10
4405.1092136689576364
 20
255.6366138971413875
 30
0.0
 40
0.082590736034968
 50
3.942111706236497
 51
81.2913706712686945
  0
LINE
  5
9030
  8
0
 10
4405.121718707177024
 20
255.7182524523587119
 30
0.0
 11
4397.9806087752758685
 21
255.7207350039585947
 31
0.0
  0
ARC
  5
9031
  8
0
 10
4397.9898767263266564
 20
255.6352886351764084
 30
0.0
 40
0.0859475238429649
 50
96.1903935601904863
 51
175.3450164775254052
  0
LINE
  5
9032
  8
0
 10
4397.904212704076599
 20
255.6422637442587131
 30
0.0
 11
4397.9042218491758831
 21
253.2656951490477013
 31
0.0
  0
ARC
  5
9033
  8
0
 10
4397.9864561602989852
 20
253.2712250145019937
 30
0.0
 40
0.0824200299533133
 50
183.8470763153692076
 51
261.3864160044975051
  0
LINE
  5
9034
  8
0
 10
4397.9741121322767867
 20
253.1897346082585898
 30
0.0
 11
4405.1152220570766076
 21
253.187252056558691
 31
0.0
  0
ARC
  5
9035
  8
0
 10
4405.105959983550747
 20
253.2726927102654031
 30
0.0
 40
0.0859412084614658
 50
276.186908807080215
 51
355.3485027668336897
  0
LINE
  5
9036
  8
0
 10
4405.1916181354781656
 20
253.2657233257586995
 30
0.0
 11
4405.1916089968772212
 21
255.6422918911586066
 31
0.0
  0
ARC
  5
9037
  8
0
 10
4401.4586636689591614
 20
253.0885638971413982
 30
0.0
 40
0.082590736034968
 50
3.942111706236497
 51
81.2913706712686945
  0
LINE
  5
9038
  8
0
 10
4401.4711687071767301
 20
253.1702024523586942
 30
0.0
 11
4394.3300587752773936
 21
253.1726850039586054
 31
0.0
  0
ARC
  5
9039
  8
0
 10
4394.3393267263272719
 20
253.0872386351763907
 30
0.0
 40
0.0859475238429649
 50
96.1903935601904863
 51
175.3450164775254052
  0
LINE
  5
903A
  8
0
 10
4394.2536627040772146
 20
253.0942137442586954
 30
0.0
 11
4394.2536718491774081
 21
250.717645149047712
 31
0.0
  0
ARC
  5
903B
  8
0
 10
4394.3359061602986912
 20
250.7231750145020044
 30
0.0
 40
0.0824200299533133
 50
183.8470763153692076
 51
261.3864160044975051
  0
LINE
  5
903C
  8
0
 10
4394.3235621322755833
 20
250.6416846082586005
 30
0.0
 11
4401.4646720570772231
 21
250.6392020565587018
 31
0.0
  0
ARC
  5
903D
  8
0
 10
4401.455409983550453
 20
250.7246427102653001
 30
0.0
 40
0.0859412084614658
 50
276.186908807080215
 51
355.3485027668336897
  0
LINE
  5
903E
  8
0
 10
4401.5410681354769622
 20
250.7176733257585965
 30
0.0
 11
4401.5410589968769273
 21
253.0942418911585889
 31
0.0
  0
ARC
  5
903F
  8
0
 10
4394.1575636689603925
 20
253.0885638971413982
 30
0.0
 40
0.082590736034968
 50
3.942111706236497
 51
81.2913706712686945
  0
LINE
  5
9040
  8
0
 10
4394.1700687071770517
 20
253.1702024523586942
 30
0.0
 11
4387.0289587752768057
 21
253.1726850039586054
 31
0.0
  0
ARC
  5
9041
  8
0
 10
4387.038226726326684
 20
253.0872386351763907
 30
0.0
 40
0.0859475238429649
 50
96.1903935601904863
 51
175.3450164775254052
  0
LINE
  5
9042
  8
0
 10
4386.9525627040766267
 20
253.0942137442586954
 30
0.0
 11
4386.9525718491768203
 21
250.717645149047712
 31
0.0
  0
ARC
  5
9043
  8
0
 10
4387.0348061602990128
 20
250.7231750145020044
 30
0.0
 40
0.0824200299533133
 50
183.8470763153692076
 51
261.3864160044975051
  0
LINE
  5
9044
  8
0
 10
4387.0224621322768144
 20
250.6416846082586005
 30
0.0
 11
4394.1635720570766352
 21
250.6392020565587018
 31
0.0
  0
ARC
  5
9045
  8
0
 10
4394.1543099835507746
 20
250.7246427102653001
 30
0.0
 40
0.0859412084614658
 50
276.186908807080215
 51
355.3485027668336897
  0
LINE
  5
9046
  8
0
 10
4394.2399681354772838
 20
250.7176733257585965
 30
0.0
 11
4394.2399589968772489
 21
253.0942418911585889
 31
0.0
  0
ARC
  5
9047
  8
0
 10
4386.8564636689588951
 20
253.0885638971413982
 30
0.0
 40
0.082590736034968
 50
3.942111706236497
 51
81.2913706712686945
  0
LINE
  5
9048
  8
0
 10
4386.8689687071773733
 20
253.1702024523586942
 30
0.0
 11
4379.7278587752771273
 21
253.1726850039586054
 31
0.0
  0
ARC
  5
9049
  8
0
 10
4379.7371267263270056
 20
253.0872386351763907
 30
0.0
 40
0.0859475238429649
 50
96.1903935601904863
 51
175.3450164775254052
  0
LINE
  5
904A
  8
0
 10
4379.6514627040769483
 20
253.0942137442586954
 30
0.0
 11
4379.6514718491762324
 21
250.717645149047712
 31
0.0
  0
ARC
  5
904B
  8
0
 10
4379.7337061602993344
 20
250.7231750145020044
 30
0.0
 40
0.0824200299533133
 50
183.8470763153692076
 51
261.3864160044975051
  0
LINE
  5
904C
  8
0
 10
4379.721362132277136
 20
250.6416846082586005
 30
0.0
 11
4386.8624720570769568
 21
250.6392020565587018
 31
0.0
  0
ARC
  5
904D
  8
0
 10
4386.8532099835501867
 20
250.7246427102653001
 30
0.0
 40
0.0859412084614658
 50
276.186908807080215
 51
355.3485027668336897
  0
LINE
  5
904E
  8
0
 10
4386.9388681354766959
 20
250.7176733257585965
 30
0.0
 11
4386.9388589968757515
 21
253.0942418911585889
 31
0.0
  0
ARC
  5
904F
  8
0
 10
4390.5066895766822199
 20
250.5404480526864006
 30
0.0
 40
0.082590736034968
 50
3.942111706236497
 51
81.2913706712686945
  0
LINE
  5
9050
  8
0
 10
4390.5191946149006981
 20
250.6220866079036966
 30
0.0
 11
4383.3780846830004521
 21
250.6245691595036078
 31
0.0
  0
ARC
  5
9051
  8
0
 10
4383.3873526340503304
 20
250.5391227907213931
 30
0.0
 40
0.0859475238429649
 50
96.1903935601904863
 51
175.3450164775254052
  0
LINE
  5
9052
  8
0
 10
4383.3016886118002731
 20
250.5460978998036978
 30
0.0
 11
4383.3016977568995571
 21
248.169529304592686
 31
0.0
  0
ARC
  5
9053
  8
0
 10
4383.3839320680226592
 20
248.1750591700470068
 30
0.0
 40
0.0824200299533133
 50
183.8470763153692076
 51
261.3864160044975051
  0
LINE
  5
9054
  8
0
 10
4383.3715880400013702
 20
248.0935687638036882
 30
0.0
 11
4390.5126979648002816
 21
248.0910862121037042
 31
0.0
  0
ARC
  5
9055
  8
0
 10
4390.503435891274421
 20
248.1765268658103025
 30
0.0
 40
0.0859412084614658
 50
276.186908807080215
 51
355.3485027668336897
  0
LINE
  5
9056
  8
0
 10
4390.5890940432009302
 20
248.1695574813035989
 30
0.0
 11
4390.5890849045999857
 21
250.5461260467035913
 31
0.0
  0
ARC
  5
9057
  8
0
 10
4397.8081136689588675
 20
250.540513897141409
 30
0.0
 40
0.082590736034968
 50
3.942111706236497
 51
81.2913706712686945
  0
LINE
  5
9058
  8
0
 10
4397.8206187071782551
 20
250.622152452358705
 30
0.0
 11
4390.6795087752770996
 21
250.6246350039585877
 31
0.0
  0
ARC
  5
9059
  8
0
 10
4390.688776726326978
 20
250.5391886351764015
 30
0.0
 40
0.0859475238429649
 50
96.1903935601904863
 51
175.3450164775254052
  0
LINE
  5
905A
  8
0
 10
4390.6031127040760111
 20
250.5461637442587062
 30
0.0
 11
4390.6031218491771142
 21
248.1695951490476943
 31
0.0
  0
ARC
  5
905B
  8
0
 10
4390.6853561602993068
 20
248.1751250145019867
 30
0.0
 40
0.0824200299533133
 50
183.8470763153692076
 51
261.3864160044975051
  0
LINE
  5
905C
  8
0
 10
4390.6730121322771083
 20
248.0936346082584976
 30
0.0
 11
4397.8141220570760197
 21
248.0911520565587125
 31
0.0
  0
ARC
  5
905D
  8
0
 10
4397.8048599835501591
 20
248.1765927102653109
 30
0.0
 40
0.0859412084614658
 50
276.186908807080215
 51
355.3485027668336897
  0
LINE
  5
905E
  8
0
 10
4397.8905181354766682
 20
248.1696233257586073
 30
0.0
 11
4397.8905089968766333
 21
250.5461918911585997
 31
0.0
  0
ARC
  5
905F
  8
0
 10
4405.1092136689576364
 20
250.540513897141409
 30
0.0
 40
0.082590736034968
 50
3.942111706236497
 51
81.2913706712686945
  0
LINE
  5
9060
  8
0
 10
4405.121718707177024
 20
250.622152452358705
 30
0.0
 11
4397.9806087752758685
 21
250.6246350039585877
 31
0.0
  0
ARC
  5
9061
  8
0
 10
4397.9898767263266564
 20
250.5391886351764015
 30
0.0
 40
0.0859475238429649
 50
96.1903935601904863
 51
175.3450164775254052
  0
LINE
  5
9062
  8
0
 10
4397.904212704076599
 20
250.5461637442587062
 30
0.0
 11
4397.9042218491758831
 21
248.1695951490476943
 31
0.0
  0
ARC
  5
9063
  8
0
 10
4397.9864561602989852
 20
248.1751250145019867
 30
0.0
 40
0.0824200299533133
 50
183.8470763153692076
 51
261.3864160044975051
  0
LINE
  5
9064
  8
0
 10
4397.9741121322767867
 20
248.0936346082584976
 30
0.0
 11
4405.1152220570766076
 21
248.0911520565587125
 31
0.0
  0
ARC
  5
9065
  8
0
 10
4405.105959983550747
 20
248.1765927102653109
 30
0.0
 40
0.0859412084614658
 50
276.186908807080215
 51
355.3485027668336897
  0
LINE
  5
9066
  8
0
 10
4405.1916181354781656
 20
248.1696233257586073
 30
0.0
 11
4405.1916089968772212
 21
250.5461918911585997
 31
0.0
  0
ARC
  5
9067
  8
0
 10
4401.4586636689591614
 20
247.9924638971413913
 30
0.0
 40
0.082590736034968
 50
3.942111706236497
 51
81.2913706712686945
  0
LINE
  5
9068
  8
0
 10
4401.4711687071767301
 20
248.074102452358602
 30
0.0
 11
4394.3300587752773936
 21
248.0765850039585985
 31
0.0
  0
ARC
  5
9069
  8
0
 10
4394.3393267263272719
 20
247.9911386351764122
 30
0.0
 40
0.0859475238429649
 50
96.1903935601904863
 51
175.3450164775254052
  0
LINE
  5
906A
  8
0
 10
4394.2536627040772146
 20
247.9981137442586032
 30
0.0
 11
4394.2536718491774081
 21
245.6215451490477051
 31
0.0
  0
ARC
  5
906B
  8
0
 10
4394.3359061602986912
 20
245.6270750145019974
 30
0.0
 40
0.0824200299533133
 50
183.8470763153692076
 51
261.3864160044975051
  0
LINE
  5
906C
  8
0
 10
4394.3235621322755833
 20
245.5455846082585083
 30
0.0
 11
4401.4646720570772231
 21
245.5431020565586095
 31
0.0
  0
ARC
  5
906D
  8
0
 10
4401.455409983550453
 20
245.6285427102652932
 30
0.0
 40
0.0859412084614658
 50
276.186908807080215
 51
355.3485027668336897
  0
LINE
  5
906E
  8
0
 10
4401.5410681354769622
 20
245.6215733257585896
 30
0.0
 11
4401.5410589968769273
 21
247.9981418911586104
 31
0.0
  0
ARC
  5
906F
  8
0
 10
4394.1575636689603925
 20
247.9924638971413913
 30
0.0
 40
0.082590736034968
 50
3.942111706236497
 51
81.2913706712686945
  0
LINE
  5
9070
  8
0
 10
4394.1700687071770517
 20
248.074102452358602
 30
0.0
 11
4387.0289587752768057
 21
248.0765850039585985
 31
0.0
  0
ARC
  5
9071
  8
0
 10
4387.038226726326684
 20
247.9911386351764122
 30
0.0
 40
0.0859475238429649
 50
96.1903935601904863
 51
175.3450164775254052
  0
LINE
  5
9072
  8
0
 10
4386.9525627040766267
 20
247.9981137442586032
 30
0.0
 11
4386.9525718491768203
 21
245.6215451490477051
 31
0.0
  0
ARC
  5
9073
  8
0
 10
4387.0348061602990128
 20
245.6270750145019974
 30
0.0
 40
0.0824200299533133
 50
183.8470763153692076
 51
261.3864160044975051
  0
LINE
  5
9074
  8
0
 10
4387.0224621322768144
 20
245.5455846082585083
 30
0.0
 11
4394.1635720570766352
 21
245.5431020565586095
 31
0.0
  0
ARC
  5
9075
  8
0
 10
4394.1543099835507746
 20
245.6285427102652932
 30
0.0
 40
0.0859412084614658
 50
276.186908807080215
 51
355.3485027668336897
  0
LINE
  5
9076
  8
0
 10
4394.2399681354772838
 20
245.6215733257585896
 30
0.0
 11
4394.2399589968772489
 21
247.9981418911586104
 31
0.0
  0
ARC
  5
9077
  8
0
 10
4386.8564636689588951
 20
247.9924638971413913
 30
0.0
 40
0.082590736034968
 50
3.942111706236497
 51
81.2913706712686945
  0
LINE
  5
9078
  8
0
 10
4386.8689687071773733
 20
248.074102452358602
 30
0.0
 11
4379.7278587752771273
 21
248.0765850039585985
 31
0.0
  0
ARC
  5
9079
  8
0
 10
4379.7371267263270056
 20
247.9911386351764122
 30
0.0
 40
0.0859475238429649
 50
96.1903935601904863
 51
175.3450164775254052
  0
LINE
  5
907A
  8
0
 10
4379.6514627040769483
 20
247.9981137442586032
 30
0.0
 11
4379.6514718491762324
 21
245.6215451490477051
 31
0.0
  0
ARC
  5
907B
  8
0
 10
4379.7337061602993344
 20
245.6270750145019974
 30
0.0
 40
0.0824200299533133
 50
183.8470763153692076
 51
261.3864160044975051
  0
LINE
  5
907C
  8
0
 10
4379.721362132277136
 20
245.5455846082585083
 30
0.0
 11
4386.8624720570769568
 21
245.5431020565586095
 31
0.0
  0
ARC
  5
907D
  8
0
 10
4386.8532099835501867
 20
245.6285427102652932
 30
0.0
 40
0.0859412084614658
 50
276.186908807080215
 51
355.3485027668336897
  0
LINE
  5
907E
  8
0
 10
4386.9388681354766959
 20
245.6215733257585896
 30
0.0
 11
4386.9388589968757515
 21
247.9981418911586104
 31
0.0
  0
ARC
  5
907F
  8
0
 10
4390.5070136689591891
 20
245.444413897141402
 30
0.0
 40
0.082590736034968
 50
3.942111706236497
 51
81.2913706712686945
  0
LINE
  5
9080
  8
0
 10
4390.5195187071767577
 20
245.5260524523586128
 30
0.0
 11
4383.3784087752783307
 21
245.5285350039586092
 31
0.0
  0
ARC
  5
9081
  8
0
 10
4383.3876767263263901
 20
245.4430886351763945
 30
0.0
 40
0.0859475238429649
 50
96.1903935601904863
 51
175.3450164775254052
  0
LINE
  5
9082
  8
0
 10
4383.3020127040772422
 20
245.450063744258614
 30
0.0
 11
4383.3020218491774358
 21
243.0734951490478011
 31
0.0
  0
ARC
  5
9083
  8
0
 10
4383.3842561602978094
 20
243.0790250145020082
 30
0.0
 40
0.0824200299533133
 50
183.8470763153692076
 51
261.3864160044975051
  0
LINE
  5
9084
  8
0
 10
4383.3719121322756109
 20
242.9975346082584906
 30
0.0
 11
4390.5130220570772508
 21
242.9950520565585919
 31
0.0
  0
ARC
  5
9085
  8
0
 10
4390.5037599835495712
 20
243.0804927102653039
 30
0.0
 40
0.0859412084614658
 50
276.186908807080215
 51
355.3485027668336897
  0
LINE
  5
9086
  8
0
 10
4390.5894181354760804
 20
243.0735233257586003
 30
0.0
 11
4390.5894089968760454
 21
245.4500918911587064
 31
0.0
  0
ARC
  5
9087
  8
0
 10
4397.8081136689588675
 20
245.444413897141402
 30
0.0
 40
0.082590736034968
 50
3.942111706236497
 51
81.2913706712686945
  0
LINE
  5
9088
  8
0
 10
4397.8206187071782551
 20
245.5260524523586128
 30
0.0
 11
4390.6795087752770996
 21
245.5285350039586092
 31
0.0
  0
ARC
  5
9089
  8
0
 10
4390.688776726326978
 20
245.4430886351763945
 30
0.0
 40
0.0859475238429649
 50
96.1903935601904863
 51
175.3450164775254052
  0
LINE
  5
908A
  8
0
 10
4390.6031127040760111
 20
245.450063744258614
 30
0.0
 11
4390.6031218491771142
 21
243.0734951490478011
 31
0.0
  0
ARC
  5
908B
  8
0
 10
4390.6853561602993068
 20
243.0790250145020082
 30
0.0
 40
0.0824200299533133
 50
183.8470763153692076
 51
261.3864160044975051
  0
LINE
  5
908C
  8
0
 10
4390.6730121322771083
 20
242.9975346082584906
 30
0.0
 11
4397.8141220570760197
 21
242.9950520565585919
 31
0.0
  0
ARC
  5
908D
  8
0
 10
4397.8048599835501591
 20
243.0804927102653039
 30
0.0
 40
0.0859412084614658
 50
276.186908807080215
 51
355.3485027668336897
  0
LINE
  5
908E
  8
0
 10
4397.8905181354766682
 20
243.0735233257586003
 30
0.0
 11
4397.8905089968766333
 21
245.4500918911587064
 31
0.0
  0
ARC
  5
908F
  8
0
 10
4405.1092136689576364
 20
245.444413897141402
 30
0.0
 40
0.082590736034968
 50
3.942111706236497
 51
81.2913706712686945
  0
LINE
  5
9090
  8
0
 10
4405.121718707177024
 20
245.5260524523586128
 30
0.0
 11
4397.9806087752758685
 21
245.5285350039586092
 31
0.0
  0
ARC
  5
9091
  8
0
 10
4397.9898767263266564
 20
245.4430886351763945
 30
0.0
 40
0.0859475238429649
 50
96.1903935601904863
 51
175.3450164775254052
  0
LINE
  5
9092
  8
0
 10
4397.904212704076599
 20
245.450063744258614
 30
0.0
 11
4397.9042218491758831
 21
243.0734951490478011
 31
0.0
  0
ARC
  5
9093
  8
0
 10
4397.9864561602989852
 20
243.0790250145020082
 30
0.0
 40
0.0824200299533133
 50
183.8470763153692076
 51
261.3864160044975051
  0
LINE
  5
9094
  8
0
 10
4397.9741121322767867
 20
242.9975346082584906
 30
0.0
 11
4405.1152220570766076
 21
242.9950520565585919
 31
0.0
  0
ARC
  5
9095
  8
0
 10
4405.105959983550747
 20
243.0804927102653039
 30
0.0
 40
0.0859412084614658
 50
276.186908807080215
 51
355.3485027668336897
  0
LINE
  5
9096
  8
0
 10
4405.1916181354781656
 20
243.0735233257586003
 30
0.0
 11
4405.1916089968772212
 21
245.4500918911587064
 31
0.0
  0
ARC
  5
9097
  8
0
 10
4374.9515271360678526
 20
262.9754797046714998
 30
0.0
 40
1.6165649126030699
 50
1.2996828926257891
 51
13.9631559315499896
  0
LINE
  5
9098
  8
0
 10
4376.5676761628910754
 20
263.0121463074003145
 30
0.0
 11
4376.5676761635768344
 21
261.184143530259405
 31
0.0
  0
ARC
  5
9099
  8
0
 10
4374.9498823569829256
 20
261.221027449484609
 30
0.0
 40
1.618214208364283
 50
346.0433338061126847
 51
358.6939455121008109
  0
ARC
  5
909A
  8
0
 10
4379.5576005025577615
 20
263.2859154294906148
 30
0.0
 40
0.0796300539901669
 50
356.9903457378719054
 51
90.9176753424951443
  0
LINE
  5
909B
  8
0
 10
4379.5563251658149966
 20
263.3655352700748722
 30
0.0
 11
4376.520324323377281
 21
263.3655534178998892
 31
0.0
  0
LINE
  5
909C
  8
0
 10
4376.520324322761553
 20
260.830733641859581
 30
0.0
 11
4379.5561769221294526
 21
260.8305996644181164
 31
0.0
  0
ARC
  5
909D
  8
0
 10
4379.5574163812361803
 20
260.9104695148275255
 30
0.0
 40
0.0798794670943839
 50
269.1109276478640027
 51
2.9922440426863441
  0
LINE
  5
909E
  8
0
 10
4379.6371869414779212
 20
260.9146392848595042
 30
0.0
 11
4379.6371207229767606
 21
263.2817345153594033
 31
0.0
  0
ARC
  5
909F
  8
0
 10
4379.5576005025577615
 20
258.1898154294908068
 30
0.0
 40
0.0796300539901669
 50
356.9903457378719054
 51
90.9176753424951443
  0
LINE
  5
90A0
  8
0
 10
4379.5563251658149966
 20
258.269435270075121
 30
0.0
 11
4376.520324323377281
 21
258.2694534179000811
 31
0.0
  0
LINE
  5
90A1
  8
0
 10
4376.520324322761553
 20
255.7346336418598014
 30
0.0
 11
4379.5561769221294526
 21
255.7344996644183084
 31
0.0
  0
ARC
  5
90A2
  8
0
 10
4379.5574163812361803
 20
255.8143695148276038
 30
0.0
 40
0.0798794670943839
 50
269.1109276478640027
 51
2.9922440426863441
  0
LINE
  5
90A3
  8
0
 10
4379.6371869414779212
 20
255.8185392848596109
 30
0.0
 11
4379.6371207229767606
 21
258.1856345153595953
 31
0.0
  0
ARC
  5
90A4
  8
0
 10
4374.9515390292854136
 20
252.7832797037804937
 30
0.0
 40
1.6165649126030699
 50
1.2996828926257891
 51
13.9631559315499896
  0
LINE
  5
90A5
  8
0
 10
4376.5676880561086364
 20
252.8199463065091948
 30
0.0
 11
4376.5676880563096347
 21
252.2845330104603079
 31
0.0
  0
ARC
  5
90A6
  8
0
 10
4379.557612395774413
 20
253.0937154285996087
 30
0.0
 40
0.0796300539901669
 50
356.9903457378719054
 51
90.9176753424951443
  0
LINE
  5
90A7
  8
0
 10
4379.5563370590307386
 20
253.1733352691838945
 30
0.0
 11
4376.5203362165939325
 21
253.1733534170089115
 31
0.0
  0
LINE
  5
90A8
  8
0
 10
4378.7025223255850506
 20
250.6384373373101084
 30
0.0
 11
4379.5561888153461041
 21
250.6383996635269966
 31
0.0
  0
ARC
  5
90A9
  8
0
 10
4379.5574282744528318
 20
250.7182695139364057
 30
0.0
 40
0.0798794670943839
 50
269.1109276478640027
 51
2.9922440426863441
  0
LINE
  5
90AA
  8
0
 10
4379.6371988346945727
 20
250.7224392839684981
 30
0.0
 11
4379.6371326161952311
 21
253.0895345144685109
 31
0.0
  0
ARC
  5
90AB
  8
0
 10
4374.9515268107916199
 20
247.6871796622081945
 30
0.0
 40
1.616565238696688
 50
1.299683531895597
 51
13.9631546363533605
  0
LINE
  5
90AC
  8
0
 10
4376.567676163215765
 20
247.7238462903652874
 30
0.0
 11
4376.567676163903343
 21
245.8958435132244915
 31
0.0
  0
ARC
  5
90AD
  8
0
 10
4374.9498827213919867
 20
245.9327274039956137
 30
0.0
 40
1.6182138437253071
 50
346.0433322594868741
 51
358.6939462254795217
  0
ARC
  5
90AE
  8
0
 10
4379.5576004722488506
 20
247.9976154022295134
 30
0.0
 40
0.0796300831407492
 50
356.9903662663987234
 51
90.9176531959950154
  0
LINE
  5
90AF
  8
0
 10
4379.5563251658149966
 20
248.0772352724534926
 30
0.0
 11
4379.4076681425403876
 21
248.0772361609778898
 31
0.0
  0
LINE
  5
90B0
  8
0
 10
4377.9076681425385686
 20
248.0772451264917891
 30
0.0
 11
4376.520324323377281
 21
248.0772534186585858
 31
0.0
  0
LINE
  5
90B1
  8
0
 10
4376.520324322761553
 20
245.5424336419252995
 30
0.0
 11
4377.9076681425385686
 21
245.542372398269805
 31
0.0
  0
LINE
  5
90B2
  8
0
 10
4379.4076681425403876
 20
245.5423061814591108
 30
0.0
 11
4379.5561744751012156
 21
245.5422996257152874
 31
0.0
  0
ARC
  5
90B3
  8
0
 10
4379.5574168861739963
 20
245.622168089228694
 30
0.0
 40
0.0798781262253188
 50
269.1087950493950984
 51
2.9933279778973221
  0
LINE
  5
90B4
  8
0
 10
4379.6371860284771174
 20
245.6263392983586016
 30
0.0
 11
4379.6371207232759843
 21
247.9934345150591923
 31
0.0
  0
ARC
  5
90B5
  8
0
 10
4383.2059136689576917
 20
265.8288138971415151
 30
0.0
 40
0.082590736034968
 50
3.942111706236497
 51
81.2913706712686945
  0
LINE
  5
90B6
  8
0
 10
4383.2184187071770793
 20
265.9104524523585837
 30
0.0
 11
4376.5203243257519716
 21
265.9127809930312196
 31
0.0
  0
LINE
  5
90B7
  8
0
 10
4376.520324323377281
 20
263.3817783388179237
 30
0.0
 11
4383.2119220570766629
 21
263.379452056558705
 31
0.0
  0
ARC
  5
90B8
  8
0
 10
4383.2026599835498928
 20
263.4648927102653033
 30
0.0
 40
0.0859412084614658
 50
276.186908807080215
 51
355.3485027668336897
  0
LINE
  5
90B9
  8
0
 10
4383.2883181354773114
 20
263.4579233257587134
 30
0.0
 11
4383.2883089968772765
 21
265.8344918911586774
 31
0.0
  0
ARC
  5
90BA
  8
0
 10
4375.0541028494189959
 20
263.7515627205647775
 30
0.0
 40
1.4985765344588109
 50
348.9364325403466864
 51
359.2597315836197254
  0
LINE
  5
90BB
  8
0
 10
4376.5525543072781147
 20
263.7322014687617866
 30
0.0
 11
4376.552543373509252
 21
265.5602079493119163
 31
0.0
  0
ARC
  5
90BC
  8
0
 10
4375.0244210588907663
 20
265.5378768791055109
 30
0.0
 40
1.5282854723927599
 50
0.8372268346654362
 51
10.9127617160829402
  0
ARC
  5
90BD
  8
0
 10
4383.2059136689576917
 20
260.7327138971414797
 30
0.0
 40
0.082590736034968
 50
3.942111706236497
 51
81.2913706712686945
  0
LINE
  5
90BE
  8
0
 10
4383.2184187071770793
 20
260.8143524523587189
 30
0.0
 11
4376.5203243228770589
 21
260.8166809930322074
 31
0.0
  0
LINE
  5
90BF
  8
0
 10
4376.5203243228970678
 20
258.285678338818002
 30
0.0
 11
4383.2119220570766629
 21
258.2833520565587264
 31
0.0
  0
ARC
  5
90C0
  8
0
 10
4383.2026599835498928
 20
258.3687927102653248
 30
0.0
 40
0.0859412084614658
 50
276.186908807080215
 51
355.3485027668336897
  0
LINE
  5
90C1
  8
0
 10
4383.2883181354773114
 20
258.361823325758678
 30
0.0
 11
4383.2883089968772765
 21
260.7383918911586989
 31
0.0
  0
ARC
  5
90C2
  8
0
 10
4375.0541028494189959
 20
258.6554627205649126
 30
0.0
 40
1.4985765344588109
 50
348.9364325403466864
 51
359.2597315836197254
  0
LINE
  5
90C3
  8
0
 10
4376.5525543072781147
 20
258.6361014687618081
 30
0.0
 11
4376.552543373509252
 21
260.4641079493119946
 31
0.0
  0
ARC
  5
90C4
  8
0
 10
4375.0244210588907663
 20
260.4417768791054755
 30
0.0
 40
1.5282854723927599
 50
0.8372268346654362
 51
10.9127617160829402
  0
ARC
  5
90C5
  8
0
 10
4383.2059136689576917
 20
255.6366138971413875
 30
0.0
 40
0.082590736034968
 50
3.942111706236497
 51
81.2913706712686945
  0
LINE
  5
90C6
  8
0
 10
4383.2184187071770793
 20
255.7182524523587119
 30
0.0
 11
4376.5203243228779684
 21
255.7205809930322005
 31
0.0
  0
LINE
  5
90C7
  8
0
 10
4376.5203336289450817
 20
253.1895783355828087
 30
0.0
 11
4383.2119220570766629
 21
253.187252056558691
 31
0.0
  0
ARC
  5
90C8
  8
0
 10
4383.2026599835498928
 20
253.2726927102654031
 30
0.0
 40
0.0859412084614658
 50
276.186908807080215
 51
355.3485027668336897
  0
LINE
  5
90C9
  8
0
 10
4383.2883181354773114
 20
253.2657233257586995
 30
0.0
 11
4383.2883089968772765
 21
255.6422918911586066
 31
0.0
  0
ARC
  5
90CA
  8
0
 10
4375.0541028494189959
 20
253.559362720564792
 30
0.0
 40
1.4985765344588109
 50
348.9364325403466864
 51
359.2597315836197254
  0
LINE
  5
90CB
  8
0
 10
4376.5525543072781147
 20
253.5400014687618011
 30
0.0
 11
4376.552543373509252
 21
255.3680079493119877
 31
0.0
  0
ARC
  5
90CC
  8
0
 10
4375.0244210588907663
 20
255.3456768791054969
 30
0.0
 40
1.528285472392946
 50
0.8372268346654362
 51
10.9127617160813397
  0
ARC
  5
90CD
  8
0
 10
4383.2059136689576917
 20
250.540513897141409
 30
0.0
 40
0.082590736034968
 50
3.942111706236497
 51
81.2913706712686945
  0
LINE
  5
90CE
  8
0
 10
4383.2184187071770793
 20
250.622152452358705
 30
0.0
 11
4378.7161431451404496
 21
250.6237176336128982
 31
0.0
  0
LINE
  5
90CF
  8
0
 10
4376.520324323377281
 20
248.0934783388179028
 30
0.0
 11
4377.9076681425385686
 21
248.0929960394564944
 31
0.0
  0
LINE
  5
90D0
  8
0
 10
4379.4076681425403876
 20
248.0924745760439976
 30
0.0
 11
4383.2119220570766629
 21
248.0911520565587125
 31
0.0
  0
ARC
  5
90D1
  8
0
 10
4383.2026599835498928
 20
248.1765927102653109
 30
0.0
 40
0.0859412084614658
 50
276.186908807080215
 51
355.3485027668336897
  0
LINE
  5
90D2
  8
0
 10
4383.2883181354773114
 20
248.1696233257586073
 30
0.0
 11
4383.2883089968772765
 21
250.5461918911585997
 31
0.0
  0
ARC
  5
90D3
  8
0
 10
4375.0541028494189959
 20
248.4632627205648134
 30
0.0
 40
1.4985765344588109
 50
348.9364325403466864
 51
359.2597315836197254
  0
LINE
  5
90D4
  8
0
 10
4376.5525543072781147
 20
248.4439014687619078
 30
0.0
 11
4376.5525500168141662
 21
249.1612199687127998
 31
0.0
  0
ARC
  5
90D5
  8
0
 10
4383.2059136689576917
 20
245.444413897141402
 30
0.0
 40
0.082590736034968
 50
3.942111706236497
 51
81.2913706712686945
  0
LINE
  5
90D6
  8
0
 10
4383.2184187071770793
 20
245.5260524523586128
 30
0.0
 11
4379.4076681425403876
 21
245.5273772302994928
 31
0.0
  0
LINE
  5
90D7
  8
0
 10
4377.9076681425385686
 20
245.5278986936903891
 30
0.0
 11
4376.5203243216137707
 21
245.5283809930326129
 31
0.0
  0
LINE
  5
90D8
  8
0
 10
4376.5203240963601274
 20
242.9973783388967092
 30
0.0
 11
4377.9076681425385686
 21
242.9968960394564021
 31
0.0
  0
LINE
  5
90D9
  8
0
 10
4379.4076681425403876
 20
242.9963745760439053
 30
0.0
 11
4383.2119220570766629
 21
242.9950520565585919
 31
0.0
  0
ARC
  5
90DA
  8
0
 10
4383.2026599835498928
 20
243.0804927102653039
 30
0.0
 40
0.0859412084614658
 50
276.186908807080215
 51
355.3485027668336897
  0
LINE
  5
90DB
  8
0
 10
4383.2883181354773114
 20
243.0735233257586003
 30
0.0
 11
4383.2883089968772765
 21
245.4500918911587064
 31
0.0
  0
ARC
  5
90DC
  8
0
 10
4375.0541028494189959
 20
243.3671627205648065
 30
0.0
 40
1.4985765344588109
 50
348.9364325403466864
 51
359.2597315836197254
  0
LINE
  5
90DD
  8
0
 10
4376.5525543072781147
 20
243.3478014687617872
 30
0.0
 11
4376.552543373509252
 21
245.1758079493118885
 31
0.0
  0
ARC
  5
90DE
  8
0
 10
4375.0244210588907663
 20
245.1534768791053978
 30
0.0
 40
1.528285472392882
 50
0.8372268346654362
 51
10.9127617160813397
  0
LINE
  5
90DF
  8
0
 10
4376.5203243263031254
 20
265.9268336418587069
 30
0.0
 11
4376.520324323377281
 21
265.8523824018323012
 31
0.0
  0
LINE
  5
90E0
  8
0
 10
4376.520324323377281
 20
265.8523824018323012
 30
0.0
 11
4376.525069888478356
 21
265.8272029501587213
 31
0.0
  0
LINE
  5
90E1
  8
0
 10
4376.520324323377281
 20
263.3655534178998892
 30
0.0
 11
4376.520324323377281
 21
263.440125525958706
 31
0.0
  0
LINE
  5
90E2
  8
0
 10
4376.520324323377281
 20
263.440125525958706
 30
0.0
 11
4376.5248281653275626
 21
263.4639889478085024
 31
0.0
  0
LINE
  5
90E3
  8
0
 10
4376.5203243227597341
 20
260.830733641851225
 30
0.0
 11
4376.520324323377281
 21
260.7562822422585782
 31
0.0
  0
LINE
  5
90E4
  8
0
 10
4376.520324323377281
 20
260.7562822422585782
 30
0.0
 11
4376.525069888478356
 21
260.7311029501585722
 31
0.0
  0
LINE
  5
90E5
  8
0
 10
4376.520324322763372
 20
258.269453417799582
 30
0.0
 11
4376.520324323377281
 21
258.3440255259586138
 31
0.0
  0
LINE
  5
90E6
  8
0
 10
4376.520324323377281
 20
258.3440255259586138
 30
0.0
 11
4376.5248281653257436
 21
258.3678889478077281
 31
0.0
  0
LINE
  5
90E7
  8
0
 10
4376.520324322761553
 20
255.7346336419207944
 30
0.0
 11
4376.520324323377281
 21
255.6601822422587134
 31
0.0
  0
LINE
  5
90E8
  8
0
 10
4376.520324323377281
 20
255.6601822422587134
 30
0.0
 11
4376.525069888478356
 21
255.6350029501587073
 31
0.0
  0
LINE
  5
90E9
  8
0
 10
4376.5203362165939325
 20
253.1733534170089115
 30
0.0
 11
4376.520324323377281
 21
253.2479255259586068
 31
0.0
  0
LINE
  5
90EA
  8
0
 10
4376.520324323377281
 20
253.2479255259586068
 30
0.0
 11
4376.5248281653257436
 21
253.2717889478078064
 31
0.0
  0
LINE
  5
90EB
  8
0
 10
4376.520324323377281
 20
248.0772534186585858
 30
0.0
 11
4376.520324323377281
 21
248.1518255259587136
 31
0.0
  0
LINE
  5
90EC
  8
0
 10
4376.520324323377281
 20
248.1518255259587136
 30
0.0
 11
4376.5248281659332861
 21
248.1756889509096879
 31
0.0
  0
LINE
  5
90ED
  8
0
 10
4376.520324322761553
 20
245.5424336419252995
 30
0.0
 11
4376.5203243166770335
 21
245.4679822770586952
 31
0.0
  0
LINE
  5
90EE
  8
0
 10
4376.5203243166770335
 20
245.4679822770586952
 30
0.0
 11
4376.525069888478356
 21
245.4428029501586934
 31
0.0
  0
LINE
  5
90EF
  8
0
 10
4376.5252959662529975
 20
242.9084153782659996
 30
0.0
 11
4376.5203240905802886
 21
242.9327232565956081
 31
0.0
  0
LINE
  5
90F0
  8
0
 10
4376.5203240905802886
 20
242.9327232565956081
 30
0.0
 11
4376.5203241015760796
 21
243.0557243683587103
 31
0.0
  0
LINE
  5
90F1
  8
0
 10
4376.5203241015760796
 20
243.0557243683587103
 30
0.0
 11
4376.5248281653257436
 21
243.0795889478075082
 31
0.0
  0
ARC
  5
90F2
  8
0
 10
4375.1080168961943855
 20
242.6145568847285858
 30
0.0
 40
1.447422805074277
 50
0.5219727126525583
 51
11.7137260136696799
  0
LINE
  5
90F3
  8
0
 10
4376.5553796374761077
 20
242.6277429302587052
 30
0.0
 11
4376.5553796374761077
 21
240.7997429302585886
 31
0.0
  0
ARC
  5
90F4
  8
0
 10
4374.9714503595578208
 20
240.8256482580445947
 30
0.0
 40
1.584141105917636
 50
346.3960380263504248
 51
359.0630051169919739
  0
LINE
  5
90F5
  8
0
 10
4376.6896838409784323
 20
242.9813412414586082
 30
0.0
 11
4377.9076681425385686
 21
242.9813412414586082
 31
0.0
  0
LINE
  5
90F6
  8
0
 10
4379.4076681425403876
 20
242.9813412414586082
 30
0.0
 11
4433.7072469985769203
 21
242.9813412414586082
 31
0.0
  0
ARC
  5
90F7
  8
0
 10
4376.6953446584193443
 20
241.4101131264222886
 30
0.0
 40
1.5712383123939999
 50
90.2064242242256569
 51
93.9679224737293453
  0
LINE
  5
90F8
  8
0
 10
4376.7195353048782636
 20
240.5139998213587091
 30
0.0
 11
4377.9076681425385686
 21
240.5139998213587091
 31
0.0
  0
LINE
  5
90F9
  8
0
 10
4379.4076681425403876
 20
240.5139998213587091
 30
0.0
 11
4433.6773982574377442
 21
240.5139998213587091
 31
0.0
  0
ARC
  5
90FA
  8
0
 10
4377.1342944288999206
 20
194.7032782982136894
 30
0.0
 40
45.8125990487561694
 50
90.5187278708773277
 51
90.7630485284395547
  0
ARC
  5
90FB
  8
0
 10
4405.1091560141303489
 20
240.3482578366335929
 30
0.0
 40
0.0826573140842531
 50
3.9583061792597301
 51
81.2117058123479865
  0
LINE
  5
90FC
  8
0
 10
4405.1217847236775924
 20
240.4299447221586945
 30
0.0
 11
4397.9740463646767239
 21
240.4299432659585989
 31
0.0
  0
ARC
  5
90FD
  8
0
 10
4397.9866623659863762
 20
240.3482761325363981
 30
0.0
 40
0.0826358528148742
 50
98.7816787481326344
 51
176.036030093163788
  0
LINE
  5
90FE
  8
0
 10
4397.9042242013565556
 20
240.3539886786415138
 30
0.0
 11
4397.9042146866349867
 21
237.9774233444665867
 31
0.0
  0
ARC
  5
90FF
  8
0
 10
4397.9866926666381914
 20
237.9831456209396947
 30
0.0
 40
0.0826762458821125
 50
183.9687895936694986
 51
261.2012228403814902
  0
LINE
  5
9100
  8
0
 10
4397.9740461157771279
 20
237.9014423383586063
 30
0.0
 11
4405.1217844717766638
 21
237.9016934505586107
 31
0.0
  0
ARC
  5
9101
  8
0
 10
4405.1097143182596483
 20
237.9828766287357951
 30
0.0
 40
0.0820755568051146
 50
278.4566736798342959
 51
356.1706186007623955
  0
LINE
  5
9102
  8
0
 10
4405.191606629213311
 20
237.9773951661863975
 30
0.0
 11
4405.1916161531198668
 21
240.3539637151239106
 31
0.0
  0
ARC
  5
9103
  8
0
 10
4397.808056014129761
 20
240.3482578366335929
 30
0.0
 40
0.0826573140842531
 50
3.9583061792597301
 51
81.2117058123479865
  0
LINE
  5
9104
  8
0
 10
4397.8206847236770045
 20
240.4299447221586945
 30
0.0
 11
4390.672946364676136
 21
240.4299432659585989
 31
0.0
  0
ARC
  5
9105
  8
0
 10
4390.6855623659866978
 20
240.3482761325363981
 30
0.0
 40
0.0826358528148742
 50
98.7816787481326344
 51
176.036030093163788
  0
LINE
  5
9106
  8
0
 10
4390.6031242013577867
 20
240.3539886786415138
 30
0.0
 11
4390.6031146866353083
 21
237.9774233444665015
 31
0.0
  0
ARC
  5
9107
  8
0
 10
4390.685592666636694
 20
237.9831456209396947
 30
0.0
 40
0.0826762458821125
 50
183.9687895936694986
 51
261.2012228403814902
  0
LINE
  5
9108
  8
0
 10
4390.6729461157774494
 20
237.9014423383586063
 30
0.0
 11
4397.8206844717778949
 21
237.9016934505586107
 31
0.0
  0
ARC
  5
9109
  8
0
 10
4397.8086143182599699
 20
237.9828766287357951
 30
0.0
 40
0.0820755568051146
 50
278.4566736798342959
 51
356.1706186007623955
  0
LINE
  5
910A
  8
0
 10
4397.8905066292127231
 20
237.9773951661863975
 30
0.0
 11
4397.8905161531201884
 21
240.3539637151239106
 31
0.0
  0
ARC
  5
910B
  8
0
 10
4390.5069560141300826
 20
240.3482578366335929
 30
0.0
 40
0.0826573140842531
 50
3.9583061792597301
 51
81.2117058123479865
  0
LINE
  5
910C
  8
0
 10
4390.5195847236773261
 20
240.4299447221586945
 30
0.0
 11
4383.3718463646773671
 21
240.4299432659585989
 31
0.0
  0
ARC
  5
910D
  8
0
 10
4383.3844623659861099
 20
240.3482761325363981
 30
0.0
 40
0.0826358528148742
 50
98.7816787481326344
 51
176.036030093163788
  0
LINE
  5
910E
  8
0
 10
4383.3020242013571988
 20
240.3539886786415138
 30
0.0
 11
4383.3020146866338109
 21
237.9774233444665015
 31
0.0
  0
ARC
  5
910F
  8
0
 10
4383.3844926666379251
 20
237.9831456209396947
 30
0.0
 40
0.0826762458821125
 50
183.9687895936694986
 51
261.2012228403814902
  0
LINE
  5
9110
  8
0
 10
4383.3718461157768616
 20
237.9014423383586063
 30
0.0
 11
4390.519584471777307
 21
237.9016934505586107
 31
0.0
  0
ARC
  5
9111
  8
0
 10
4390.507514318261201
 20
237.9828766287357951
 30
0.0
 40
0.0820755568051146
 50
278.4566736798342959
 51
356.1706186007623955
  0
LINE
  5
9112
  8
0
 10
4390.5894066292130447
 20
237.9773951661863975
 30
0.0
 11
4390.589416153118691
 21
240.3539637151239106
 31
0.0
  0
ARC
  5
9113
  8
0
 10
4386.8564060141288792
 20
237.8002078366336036
 30
0.0
 40
0.0826573140842531
 50
3.9583061792597301
 51
81.2117058123479865
  0
LINE
  5
9114
  8
0
 10
4386.8690347236770322
 20
237.8818947221587052
 30
0.0
 11
4379.7212963646770731
 21
237.8818932659586096
 31
0.0
  0
ARC
  5
9115
  8
0
 10
4379.733912365985816
 20
237.8002261325364088
 30
0.0
 40
0.0826358528148742
 50
98.7816787481326344
 51
176.036030093163788
  0
LINE
  5
9116
  8
0
 10
4379.6514742013569048
 20
237.8059386786414962
 30
0.0
 11
4379.651464686635336
 21
235.4293733444665975
 31
0.0
  0
ARC
  5
9117
  8
0
 10
4379.7339426666367217
 20
235.4350956209397054
 30
0.0
 40
0.0826762458821125
 50
183.9687895936694986
 51
261.2012228403814902
  0
LINE
  5
9118
  8
0
 10
4379.7212961157783866
 20
235.3533923383587023
 30
0.0
 11
4386.8690344717779226
 21
235.353643450558593
 31
0.0
  0
ARC
  5
9119
  8
0
 10
4386.8569643182599975
 20
235.4348266287358058
 30
0.0
 40
0.0820755568051146
 50
278.4566736798342959
 51
356.1706186007623955
  0
LINE
  5
911A
  8
0
 10
4386.9388566292127507
 20
235.4293451661864083
 30
0.0
 11
4386.938866153120216
 21
237.8059137151238929
 31
0.0
  0
ARC
  5
911B
  8
0
 10
4394.1575060141303766
 20
237.8002078366336036
 30
0.0
 40
0.0826573140842531
 50
3.9583061792597301
 51
81.2117058123479865
  0
LINE
  5
911C
  8
0
 10
4394.1701347236776201
 20
237.8818947221587052
 30
0.0
 11
4387.0223963646767515
 21
237.8818932659586096
 31
0.0
  0
ARC
  5
911D
  8
0
 10
4387.0350123659873134
 20
237.8002261325364088
 30
0.0
 40
0.0826358528148742
 50
98.7816787481326344
 51
176.036030093163788
  0
LINE
  5
911E
  8
0
 10
4386.9525742013584022
 20
237.8059386786414962
 30
0.0
 11
4386.9525646866350144
 21
235.4293733444665975
 31
0.0
  0
ARC
  5
911F
  8
0
 10
4387.0350426666382191
 20
235.4350956209397054
 30
0.0
 40
0.0826762458821125
 50
183.9687895936694986
 51
261.2012228403814902
  0
LINE
  5
9120
  8
0
 10
4387.0223961157771555
 20
235.3533923383587023
 30
0.0
 11
4394.1701344717766915
 21
235.353643450558593
 31
0.0
  0
ARC
  5
9121
  8
0
 10
4394.1580643182596759
 20
235.4348266287358058
 30
0.0
 40
0.0820755568051146
 50
278.4566736798342959
 51
356.1706186007623955
  0
LINE
  5
9122
  8
0
 10
4394.2399566292124291
 20
235.4293451661864083
 30
0.0
 11
4394.2399661531189849
 21
237.8059137151238929
 31
0.0
  0
ARC
  5
9123
  8
0
 10
4401.458606014130055
 20
237.8002078366336036
 30
0.0
 40
0.0826573140842531
 50
3.9583061792597301
 51
81.2117058123479865
  0
LINE
  5
9124
  8
0
 10
4401.4712347236772985
 20
237.8818947221587052
 30
0.0
 11
4394.3234963646773394
 21
237.8818932659586096
 31
0.0
  0
ARC
  5
9125
  8
0
 10
4394.3361123659860823
 20
237.8002261325364088
 30
0.0
 40
0.0826358528148742
 50
98.7816787481326344
 51
176.036030093163788
  0
LINE
  5
9126
  8
0
 10
4394.2536742013571711
 20
237.8059386786414962
 30
0.0
 11
4394.2536646866356023
 21
235.4293733444665975
 31
0.0
  0
ARC
  5
9127
  8
0
 10
4394.336142666636988
 20
235.4350956209397054
 30
0.0
 40
0.0826762458821125
 50
183.9687895936694986
 51
261.2012228403814902
  0
LINE
  5
9128
  8
0
 10
4394.3234961157759244
 20
235.3533923383587023
 30
0.0
 11
4401.4712344717772794
 21
235.353643450558593
 31
0.0
  0
ARC
  5
9129
  8
0
 10
4401.4591643182602638
 20
235.4348266287358058
 30
0.0
 40
0.0820755568051146
 50
278.4566736798342959
 51
356.1706186007623955
  0
LINE
  5
912A
  8
0
 10
4401.541056629213017
 20
235.4293451661864083
 30
0.0
 11
4401.5410661531213918
 21
237.8059137151238929
 31
0.0
  0
ARC
  5
912B
  8
0
 10
4405.1091560141303489
 20
235.2521578366335859
 30
0.0
 40
0.0826573140842531
 50
3.9583061792597301
 51
81.2117058123479865
  0
LINE
  5
912C
  8
0
 10
4405.1217847236775924
 20
235.3338447221586875
 30
0.0
 11
4397.9740463646767239
 21
235.3338432659587056
 31
0.0
  0
ARC
  5
912D
  8
0
 10
4397.9866623659863762
 20
235.2521761325363912
 30
0.0
 40
0.0826358528148742
 50
98.7816787481326344
 51
176.036030093163788
  0
LINE
  5
912E
  8
0
 10
4397.9042242013565556
 20
235.2578886786415069
 30
0.0
 11
4397.9042146866349867
 21
232.8813233444666082
 31
0.0
  0
ARC
  5
912F
  8
0
 10
4397.9866926666381914
 20
232.8870456209396878
 30
0.0
 40
0.0826762458821125
 50
183.9687895936694986
 51
261.2012228403814902
  0
LINE
  5
9130
  8
0
 10
4397.9740461157771279
 20
232.8053423383585994
 30
0.0
 11
4405.1217844717766638
 21
232.8055934505586038
 31
0.0
  0
ARC
  5
9131
  8
0
 10
4405.1097143182596483
 20
232.8867766287357881
 30
0.0
 40
0.0820755568051146
 50
278.4566736798342959
 51
356.1706186007623955
  0
LINE
  5
9132
  8
0
 10
4405.191606629213311
 20
232.8812951661863906
 30
0.0
 11
4405.1916161531198668
 21
235.2578637151239036
 31
0.0
  0
ARC
  5
9133
  8
0
 10
4397.808056014129761
 20
235.2521578366335859
 30
0.0
 40
0.0826573140842531
 50
3.9583061792597301
 51
81.2117058123479865
  0
LINE
  5
9134
  8
0
 10
4397.8206847236770045
 20
235.3338447221586875
 30
0.0
 11
4390.672946364676136
 21
235.3338432659587056
 31
0.0
  0
ARC
  5
9135
  8
0
 10
4390.6855623659866978
 20
235.2521761325363912
 30
0.0
 40
0.0826358528148742
 50
98.7816787481326344
 51
176.036030093163788
  0
LINE
  5
9136
  8
0
 10
4390.6031242013577867
 20
235.2578886786415069
 30
0.0
 11
4390.6031146866353083
 21
232.8813233444666082
 31
0.0
  0
ARC
  5
9137
  8
0
 10
4390.685592666636694
 20
232.8870456209396878
 30
0.0
 40
0.0826762458821125
 50
183.9687895936694986
 51
261.2012228403814902
  0
LINE
  5
9138
  8
0
 10
4390.6729461157774494
 20
232.8053423383585994
 30
0.0
 11
4397.8206844717778949
 21
232.8055934505586038
 31
0.0
  0
ARC
  5
9139
  8
0
 10
4397.8086143182599699
 20
232.8867766287357881
 30
0.0
 40
0.0820755568051146
 50
278.4566736798342959
 51
356.1706186007623955
  0
LINE
  5
913A
  8
0
 10
4397.8905066292127231
 20
232.8812951661863906
 30
0.0
 11
4397.8905161531201884
 21
235.2578637151239036
 31
0.0
  0
ARC
  5
913B
  8
0
 10
4390.5069560141300826
 20
235.2521578366335859
 30
0.0
 40
0.0826573140842531
 50
3.9583061792597301
 51
81.2117058123479865
  0
LINE
  5
913C
  8
0
 10
4390.5195847236773261
 20
235.3338447221586875
 30
0.0
 11
4383.3718463646773671
 21
235.3338432659587056
 31
0.0
  0
ARC
  5
913D
  8
0
 10
4383.3844623659861099
 20
235.2521761325363912
 30
0.0
 40
0.0826358528148742
 50
98.7816787481326344
 51
176.036030093163788
  0
LINE
  5
913E
  8
0
 10
4383.3020242013571988
 20
235.2578886786415069
 30
0.0
 11
4383.3020146866338109
 21
232.8813233444666082
 31
0.0
  0
ARC
  5
913F
  8
0
 10
4383.3844926666379251
 20
232.8870456209396878
 30
0.0
 40
0.0826762458821125
 50
183.9687895936694986
 51
261.2012228403814902
  0
LINE
  5
9140
  8
0
 10
4383.3718461157768616
 20
232.8053423383585994
 30
0.0
 11
4390.519584471777307
 21
232.8055934505586038
 31
0.0
  0
ARC
  5
9141
  8
0
 10
4390.507514318261201
 20
232.8867766287357881
 30
0.0
 40
0.0820755568051146
 50
278.4566736798342959
 51
356.1706186007623955
  0
LINE
  5
9142
  8
0
 10
4390.5894066292130447
 20
232.8812951661863906
 30
0.0
 11
4390.589416153118691
 21
235.2578637151239036
 31
0.0
  0
ARC
  5
9143
  8
0
 10
4401.458606014130055
 20
232.7041078366335967
 30
0.0
 40
0.0826573140842531
 50
3.9583061792597301
 51
81.2117058123479865
  0
LINE
  5
9144
  8
0
 10
4401.4712347236772985
 20
232.7857947221586983
 30
0.0
 11
4394.3234963646773394
 21
232.7857932659586879
 31
0.0
  0
ARC
  5
9145
  8
0
 10
4394.3361123659860823
 20
232.7041261325364019
 30
0.0
 40
0.0826358528148742
 50
98.7816787481326344
 51
176.036030093163788
  0
LINE
  5
9146
  8
0
 10
4394.2536742013571711
 20
232.7098386786414892
 30
0.0
 11
4394.2536646866356023
 21
230.3332733444665905
 31
0.0
  0
ARC
  5
9147
  8
0
 10
4394.336142666636988
 20
230.3389956209396985
 30
0.0
 40
0.0826762458821125
 50
183.9687895936694986
 51
261.2012228403814902
  0
LINE
  5
9148
  8
0
 10
4394.3234961157759244
 20
230.2572923383586101
 30
0.0
 11
4401.4712344717772794
 21
230.2575434505585861
 31
0.0
  0
ARC
  5
9149
  8
0
 10
4401.4591643182602638
 20
230.3387266287357988
 30
0.0
 40
0.0820755568051146
 50
278.4566736798342959
 51
356.1706186007623955
  0
LINE
  5
914A
  8
0
 10
4401.541056629213017
 20
230.3332451661864013
 30
0.0
 11
4401.5410661531213918
 21
232.7098137151238859
 31
0.0
  0
ARC
  5
914B
  8
0
 10
4394.1575060141303766
 20
232.7041078366335967
 30
0.0
 40
0.0826573140842531
 50
3.9583061792597301
 51
81.2117058123479865
  0
LINE
  5
914C
  8
0
 10
4394.1701347236776201
 20
232.7857947221586983
 30
0.0
 11
4387.0223963646767515
 21
232.7857932659586879
 31
0.0
  0
ARC
  5
914D
  8
0
 10
4387.0350123659873134
 20
232.7041261325364019
 30
0.0
 40
0.0826358528148742
 50
98.7816787481326344
 51
176.036030093163788
  0
LINE
  5
914E
  8
0
 10
4386.9525742013584022
 20
232.7098386786414892
 30
0.0
 11
4386.9525646866350144
 21
230.3332733444665905
 31
0.0
  0
ARC
  5
914F
  8
0
 10
4387.0350426666382191
 20
230.3389956209396985
 30
0.0
 40
0.0826762458821125
 50
183.9687895936694986
 51
261.2012228403814902
  0
LINE
  5
9150
  8
0
 10
4387.0223961157771555
 20
230.2572923383586101
 30
0.0
 11
4394.1701344717766915
 21
230.2575434505585861
 31
0.0
  0
ARC
  5
9151
  8
0
 10
4394.1580643182596759
 20
230.3387266287357988
 30
0.0
 40
0.0820755568051146
 50
278.4566736798342959
 51
356.1706186007623955
  0
LINE
  5
9152
  8
0
 10
4394.2399566292124291
 20
230.3332451661864013
 30
0.0
 11
4394.2399661531189849
 21
232.7098137151238859
 31
0.0
  0
ARC
  5
9153
  8
0
 10
4386.8564060141288792
 20
232.7041078366335967
 30
0.0
 40
0.0826573140842531
 50
3.9583061792597301
 51
81.2117058123479865
  0
LINE
  5
9154
  8
0
 10
4386.8690347236770322
 20
232.7857947221586983
 30
0.0
 11
4379.7212963646770731
 21
232.7857932659586879
 31
0.0
  0
ARC
  5
9155
  8
0
 10
4379.733912365985816
 20
232.7041261325364019
 30
0.0
 40
0.0826358528148742
 50
98.7816787481326344
 51
176.036030093163788
  0
LINE
  5
9156
  8
0
 10
4379.6514742013569048
 20
232.7098386786414892
 30
0.0
 11
4379.651464686635336
 21
230.3332733444665905
 31
0.0
  0
ARC
  5
9157
  8
0
 10
4379.7339426666367217
 20
230.3389956209396985
 30
0.0
 40
0.0826762458821125
 50
183.9687895936694986
 51
261.2012228403814902
  0
LINE
  5
9158
  8
0
 10
4379.7212961157783866
 20
230.2572923383586101
 30
0.0
 11
4386.8690344717779226
 21
230.2575434505585861
 31
0.0
  0
ARC
  5
9159
  8
0
 10
4386.8569643182599975
 20
230.3387266287357988
 30
0.0
 40
0.0820755568051146
 50
278.4566736798342959
 51
356.1706186007623955
  0
LINE
  5
915A
  8
0
 10
4386.9388566292127507
 20
230.3332451661864013
 30
0.0
 11
4386.938866153120216
 21
232.7098137151238859
 31
0.0
  0
ARC
  5
915B
  8
0
 10
4405.1091560141303489
 20
230.1560578366334937
 30
0.0
 40
0.0826573140842531
 50
3.9583061792597301
 51
81.2117058123479865
  0
LINE
  5
915C
  8
0
 10
4405.1217847236775924
 20
230.237744722158709
 30
0.0
 11
4397.9740463646767239
 21
230.2377432659586987
 31
0.0
  0
ARC
  5
915D
  8
0
 10
4397.9866623659863762
 20
230.1560761325364126
 30
0.0
 40
0.0826358528148742
 50
98.7816787481326344
 51
176.036030093163788
  0
LINE
  5
915E
  8
0
 10
4397.9042242013565556
 20
230.1617886786414999
 30
0.0
 11
4397.9042146866349867
 21
227.7852233444666012
 31
0.0
  0
ARC
  5
915F
  8
0
 10
4397.9866926666381914
 20
227.7909456209395955
 30
0.0
 40
0.0826762458821125
 50
183.9687895936694986
 51
234.7657773805385091
  0
ARC
  5
9160
  8
0
 10
4405.1097143182596483
 20
227.7906766287358096
 30
0.0
 40
0.0820755568051146
 50
304.9055310144249233
 51
356.1706186007623955
  0
LINE
  5
9161
  8
0
 10
4405.191606629213311
 20
227.7851951661862984
 30
0.0
 11
4405.1916161531198668
 21
230.1617637151238966
 31
0.0
  0
ARC
  5
9162
  8
0
 10
4397.808056014129761
 20
230.1560578366334937
 30
0.0
 40
0.0826573140842531
 50
3.9583061792597301
 51
81.2117058123479865
  0
LINE
  5
9163
  8
0
 10
4397.8206847236770045
 20
230.237744722158709
 30
0.0
 11
4390.672946364676136
 21
230.2377432659586987
 31
0.0
  0
ARC
  5
9164
  8
0
 10
4390.6855623659866978
 20
230.1560761325364126
 30
0.0
 40
0.0826358528148742
 50
98.7816787481326344
 51
176.036030093163788
  0
LINE
  5
9165
  8
0
 10
4390.6031242013577867
 20
230.1617886786414999
 30
0.0
 11
4390.6031146866353083
 21
227.7852233444666012
 31
0.0
  0
ARC
  5
9166
  8
0
 10
4390.685592666636694
 20
227.7909456209395955
 30
0.0
 40
0.0826762458821125
 50
183.9687895936694986
 51
234.7064187632929873
  0
ARC
  5
9167
  8
0
 10
4397.8086143182599699
 20
227.7906766287358096
 30
0.0
 40
0.0820755568051146
 50
304.9658122793566122
 51
356.1706186007623955
  0
LINE
  5
9168
  8
0
 10
4397.8905066292127231
 20
227.7851951661862984
 30
0.0
 11
4397.8905161531201884
 21
230.1617637151238966
 31
0.0
  0
ARC
  5
9169
  8
0
 10
4390.5069560141300826
 20
230.1560578366334937
 30
0.0
 40
0.0826573140842531
 50
3.9583061792597301
 51
81.2117058123479865
  0
LINE
  5
916A
  8
0
 10
4390.5195847236773261
 20
230.237744722158709
 30
0.0
 11
4383.3718463646773671
 21
230.2377432659586987
 31
0.0
  0
ARC
  5
916B
  8
0
 10
4383.3844623659861099
 20
230.1560761325364126
 30
0.0
 40
0.0826358528148742
 50
98.7816787481326344
 51
176.036030093163788
  0
LINE
  5
916C
  8
0
 10
4383.3020242013571988
 20
230.1617886786414999
 30
0.0
 11
4383.3020146866338109
 21
227.7852233444666012
 31
0.0
  0
ARC
  5
916D
  8
0
 10
4383.3844926666379251
 20
227.7909456209395955
 30
0.0
 40
0.0826762458821125
 50
183.9687895936694986
 51
261.2012228403814902
  0
LINE
  5
916E
  8
0
 10
4383.3718461157768616
 20
227.7092423383585924
 30
0.0
 11
4385.8202123379260229
 21
227.7093283536264039
 31
0.0
  0
ARC
  5
916F
  8
0
 10
4390.507514318261201
 20
227.7906766287358096
 30
0.0
 40
0.0820755568051146
 50
305.0260029901294843
 51
356.1706186007623955
  0
LINE
  5
9170
  8
0
 10
4390.5894066292130447
 20
227.7851951661862984
 30
0.0
 11
4390.589416153118691
 21
230.1617637151238966
 31
0.0
  0
LINE
  5
9171
  8
0
 10
4394.2536686336152343
 20
226.2230412165392011
 30
0.0
 11
4394.2536646866356023
 21
225.237173344466612
 31
0.0
  0
ARC
  5
9172
  8
0
 10
4394.336142666636988
 20
225.2428956209396063
 30
0.0
 40
0.0826762458821125
 50
183.9687895936694986
 51
261.2012228403814902
  0
LINE
  5
9173
  8
0
 10
4394.3234961157759244
 20
225.1611923383586031
 30
0.0
 11
4401.4712344717772794
 21
225.1614434505586928
 31
0.0
  0
ARC
  5
9174
  8
0
 10
4401.4591643182602638
 20
225.2426266287357919
 30
0.0
 40
0.0820755568051146
 50
278.4566736798342959
 51
356.1706186007623955
  0
LINE
  5
9175
  8
0
 10
4401.541056629213017
 20
225.2371451661863944
 30
0.0
 11
4401.5410605803190265
 21
226.2230927822047022
 31
0.0
  0
LINE
  5
9176
  8
0
 10
4386.9525654594972366
 20
225.430217151584003
 30
0.0
 11
4386.9525646866350144
 21
225.237173344466612
 31
0.0
  0
ARC
  5
9177
  8
0
 10
4387.0350426666382191
 20
225.2428956209396063
 30
0.0
 40
0.0826762458821125
 50
183.9687895936694986
 51
261.2012228403814902
  0
LINE
  5
9178
  8
0
 10
4387.0223961157771555
 20
225.1611923383586031
 30
0.0
 11
4394.1701344717766915
 21
225.1614434505586928
 31
0.0
  0
ARC
  5
9179
  8
0
 10
4394.1580643182596759
 20
225.2426266287357919
 30
0.0
 40
0.0820755568051146
 50
278.4566736798342959
 51
356.1706186007623955
  0
LINE
  5
917A
  8
0
 10
4394.2399566292124291
 20
225.2371451661863944
 30
0.0
 11
4394.2399605801119833
 21
226.2230411195407953
 31
0.0
  0
LINE
  5
917B
  8
0
 10
4385.809904917194217
 20
227.6896945063834039
 30
0.0
 11
4379.7212963646770731
 21
227.6896932659587094
 31
0.0
  0
ARC
  5
917C
  8
0
 10
4379.733912365985816
 20
227.6080261325365086
 30
0.0
 40
0.0826358528148742
 50
98.7816787481326344
 51
176.036030093163788
  0
LINE
  5
917D
  8
0
 10
4379.6514742013569048
 20
227.6137386786415107
 30
0.0
 11
4379.651464686635336
 21
225.237173344466612
 31
0.0
  0
ARC
  5
917E
  8
0
 10
4379.7339426666367217
 20
225.2428956209396063
 30
0.0
 40
0.0826762458821125
 50
183.9687895936694986
 51
261.2012228403814902
  0
LINE
  5
917F
  8
0
 10
4379.7212961157783866
 20
225.1611923383586031
 30
0.0
 11
4386.8690344717779226
 21
225.1614434505586928
 31
0.0
  0
ARC
  5
9180
  8
0
 10
4386.8569643182599975
 20
225.2426266287357919
 30
0.0
 40
0.0820755568051146
 50
278.4566736798342959
 51
356.1706186007623955
  0
LINE
  5
9181
  8
0
 10
4386.9388566292127507
 20
225.2371451661863944
 30
0.0
 11
4386.938857411938443
 21
225.4324642421701981
 31
0.0
  0
ARC
  5
9182
  8
0
 10
4390.5069560141300826
 20
225.0599578366334867
 30
0.0
 40
0.0826573140842531
 50
3.9583061792597301
 51
81.2117058123479865
  0
LINE
  5
9183
  8
0
 10
4390.5195847236773261
 20
225.1416447221587021
 30
0.0
 11
4383.3718463646773671
 21
225.1416432659586917
 31
0.0
  0
ARC
  5
9184
  8
0
 10
4383.3844623659861099
 20
225.0599761325364909
 30
0.0
 40
0.0826358528148742
 50
98.7816787481326344
 51
176.036030093163788
  0
LINE
  5
9185
  8
0
 10
4383.3020242013571988
 20
225.065688678641493
 30
0.0
 11
4383.3020146866338109
 21
222.689123344466509
 31
0.0
  0
ARC
  5
9186
  8
0
 10
4383.3844926666379251
 20
222.6948456209397023
 30
0.0
 40
0.0826762458821125
 50
183.9687895936694986
 51
261.2012228403814902
  0
LINE
  5
9187
  8
0
 10
4383.3718461157768616
 20
222.6131423383586991
 30
0.0
 11
4390.519584471777307
 21
222.6133934505587035
 31
0.0
  0
ARC
  5
9188
  8
0
 10
4390.507514318261201
 20
222.6945766287358026
 30
0.0
 40
0.0820755568051146
 50
278.4566736798342959
 51
356.1706186007623955
  0
LINE
  5
9189
  8
0
 10
4390.5894066292130447
 20
222.6890951661864051
 30
0.0
 11
4390.589416153118691
 21
225.0656637151238897
 31
0.0
  0
ARC
  5
918A
  8
0
 10
4397.808056014129761
 20
225.0599578366334867
 30
0.0
 40
0.0826573140842531
 50
3.9583061792597301
 51
81.2117058123479865
  0
LINE
  5
918B
  8
0
 10
4397.8206847236770045
 20
225.1416447221587021
 30
0.0
 11
4390.672946364676136
 21
225.1416432659586917
 31
0.0
  0
ARC
  5
918C
  8
0
 10
4390.6855623659866978
 20
225.0599761325364909
 30
0.0
 40
0.0826358528148742
 50
98.7816787481326344
 51
176.036030093163788
  0
LINE
  5
918D
  8
0
 10
4390.6031242013577867
 20
225.065688678641493
 30
0.0
 11
4390.6031146866353083
 21
222.689123344466509
 31
0.0
  0
ARC
  5
918E
  8
0
 10
4390.685592666636694
 20
222.6948456209397023
 30
0.0
 40
0.0826762458821125
 50
183.9687895936694986
 51
261.2012228403814902
  0
LINE
  5
918F
  8
0
 10
4390.6729461157774494
 20
222.6131423383586991
 30
0.0
 11
4397.8206844717778949
 21
222.6133934505587035
 31
0.0
  0
ARC
  5
9190
  8
0
 10
4397.8086143182599699
 20
222.6945766287358026
 30
0.0
 40
0.0820755568051146
 50
278.4566736798342959
 51
356.1706186007623955
  0
LINE
  5
9191
  8
0
 10
4397.8905066292127231
 20
222.6890951661864051
 30
0.0
 11
4397.8905161531201884
 21
225.0656637151238897
 31
0.0
  0
ARC
  5
9192
  8
0
 10
4405.1091560141303489
 20
225.0599578366334867
 30
0.0
 40
0.0826573140842531
 50
3.9583061792597301
 51
81.2117058123479865
  0
LINE
  5
9193
  8
0
 10
4405.1217847236775924
 20
225.1416447221587021
 30
0.0
 11
4397.9740463646767239
 21
225.1416432659586917
 31
0.0
  0
ARC
  5
9194
  8
0
 10
4397.9866623659863762
 20
225.0599761325364909
 30
0.0
 40
0.0826358528148742
 50
98.7816787481326344
 51
176.036030093163788
  0
LINE
  5
9195
  8
0
 10
4397.9042242013565556
 20
225.065688678641493
 30
0.0
 11
4397.9042146866349867
 21
222.689123344466509
 31
0.0
  0
ARC
  5
9196
  8
0
 10
4397.9866926666381914
 20
222.6948456209397023
 30
0.0
 40
0.0826762458821125
 50
183.9687895936694986
 51
261.2012228403814902
  0
LINE
  5
9197
  8
0
 10
4397.9740461157771279
 20
222.6131423383586991
 30
0.0
 11
4405.1217844717766638
 21
222.6133934505587035
 31
0.0
  0
ARC
  5
9198
  8
0
 10
4405.1097143182596483
 20
222.6945766287358026
 30
0.0
 40
0.0820755568051146
 50
278.4566736798342959
 51
356.1706186007623955
  0
LINE
  5
9199
  8
0
 10
4405.191606629213311
 20
222.6890951661864051
 30
0.0
 11
4405.1916161531198668
 21
225.0656637151238897
 31
0.0
  0
ARC
  5
919A
  8
0
 10
4401.458606014130055
 20
222.5119078366334975
 30
0.0
 40
0.0826573140842531
 50
3.9583061792597301
 51
81.2117058123479865
  0
LINE
  5
919B
  8
0
 10
4401.4712347236772985
 20
222.5935947221587128
 30
0.0
 11
4394.3234963646773394
 21
222.5935932659587024
 31
0.0
  0
ARC
  5
919C
  8
0
 10
4394.3361123659860823
 20
222.5119261325365017
 30
0.0
 40
0.0826358528148742
 50
98.7816787481326344
 51
176.0360300931669997
  0
LINE
  5
919D
  8
0
 10
4394.2536742013571711
 20
222.5176386786415037
 30
0.0
 11
4394.2536646866356023
 21
220.141073344466605
 31
0.0
  0
ARC
  5
919E
  8
0
 10
4394.336142666636988
 20
220.146795620939713
 30
0.0
 40
0.0826762458821125
 50
183.9687895936694986
 51
261.2012228403814902
  0
LINE
  5
919F
  8
0
 10
4394.3234961157759244
 20
220.0650923383587099
 30
0.0
 11
4401.4712344717772794
 21
220.0653434505586858
 31
0.0
  0
ARC
  5
91A0
  8
0
 10
4401.4591643182602638
 20
220.1465266287358986
 30
0.0
 40
0.0820755568051146
 50
278.4566736798342959
 51
356.1706186007623955
  0
LINE
  5
91A1
  8
0
 10
4401.541056629213017
 20
220.1410451661863021
 30
0.0
 11
4401.5410661531213918
 21
222.5176137151239004
 31
0.0
  0
ARC
  5
91A2
  8
0
 10
4394.1575060141303766
 20
222.5119078366334975
 30
0.0
 40
0.0826573140842531
 50
3.9583061792597301
 51
81.2117058123479865
  0
LINE
  5
91A3
  8
0
 10
4394.1701347236776201
 20
222.5935947221587128
 30
0.0
 11
4387.0223963646767515
 21
222.5935932659587024
 31
0.0
  0
ARC
  5
91A4
  8
0
 10
4387.0350123659873134
 20
222.5119261325365017
 30
0.0
 40
0.0826358528148742
 50
98.7816787481326344
 51
176.0360300931669997
  0
LINE
  5
91A5
  8
0
 10
4386.9525742013584022
 20
222.5176386786415037
 30
0.0
 11
4386.952565440111357
 21
220.3292749058439028
 31
0.0
  0
LINE
  5
91A6
  8
0
 10
4388.0961662455947589
 20
220.0651300617288086
 30
0.0
 11
4394.1701344717766915
 21
220.0653434505586858
 31
0.0
  0
ARC
  5
91A7
  8
0
 10
4394.1580643182596759
 20
220.1465266287358986
 30
0.0
 40
0.0820755568051146
 50
278.4566736798342959
 51
356.1706186007623955
  0
LINE
  5
91A8
  8
0
 10
4394.2399566292124291
 20
220.1410451661863021
 30
0.0
 11
4394.2399661531189849
 21
222.5176137151239004
 31
0.0
  0
ARC
  5
91A9
  8
0
 10
4386.8564060141288792
 20
222.5119078366334975
 30
0.0
 40
0.0826573140842531
 50
3.9583061792597301
 51
81.2117058123479865
  0
LINE
  5
91AA
  8
0
 10
4386.8690347236770322
 20
222.5935947221587128
 30
0.0
 11
4379.7212963646770731
 21
222.5935932659587024
 31
0.0
  0
ARC
  5
91AB
  8
0
 10
4379.733912365985816
 20
222.5119261325365017
 30
0.0
 40
0.0826358528148742
 50
98.7816787481326344
 51
176.036030093163788
  0
LINE
  5
91AC
  8
0
 10
4379.6514742013569048
 20
222.5176386786415037
 30
0.0
 11
4379.651464686635336
 21
220.141073344466605
 31
0.0
  0
ARC
  5
91AD
  8
0
 10
4379.7339426666367217
 20
220.146795620939713
 30
0.0
 40
0.0826762458821125
 50
183.9687895936694986
 51
261.2012228403814902
  0
LINE
  5
91AE
  8
0
 10
4379.7212961157783866
 20
220.0650923383587099
 30
0.0
 11
4386.3010456745341799
 21
220.0653234961465898
 31
0.0
  0
LINE
  5
91AF
  8
0
 10
4386.9388573745236499
 20
220.3270278120430135
 30
0.0
 11
4386.938866153120216
 21
222.5176137151239004
 31
0.0
  0
ARC
  5
91B0
  8
0
 10
4390.5069560141300826
 20
219.9638578366335935
 30
0.0
 40
0.0826573140842531
 50
3.9583061792597301
 51
81.2117058123479865
  0
LINE
  5
91B1
  8
0
 10
4390.5195847236773261
 20
220.0455447221586098
 30
0.0
 11
4388.123440728213609
 21
220.0455442339952015
 31
0.0
  0
LINE
  5
91B2
  8
0
 10
4386.2734950439544264
 20
220.0455438571079867
 30
0.0
 11
4383.3718463646773671
 21
220.0455432659587132
 31
0.0
  0
ARC
  5
91B3
  8
0
 10
4383.3844623659861099
 20
219.9638761325365124
 30
0.0
 40
0.0826358528148742
 50
98.7816787481326344
 51
176.0360300931669997
  0
LINE
  5
91B4
  8
0
 10
4383.3020242013571988
 20
219.969588678641486
 30
0.0
 11
4383.3020146866338109
 21
217.5930233444665873
 31
0.0
  0
ARC
  5
91B5
  8
0
 10
4383.3844926666379251
 20
217.5987456209396953
 30
0.0
 40
0.0826762458821125
 50
183.9687895936694986
 51
261.2012228403814902
  0
LINE
  5
91B6
  8
0
 10
4383.3718461157768616
 20
217.5170423383586922
 30
0.0
 11
4386.2869923083253525
 21
217.5171447524002986
 31
0.0
  0
LINE
  5
91B7
  8
0
 10
4388.1100331460729649
 20
217.5172087989242016
 30
0.0
 11
4390.519584471777307
 21
217.5172934505586966
 31
0.0
  0
ARC
  5
91B8
  8
0
 10
4390.507514318261201
 20
217.5984766287357957
 30
0.0
 40
0.0820755568051146
 50
278.4566736798342959
 51
356.1706186007623955
  0
LINE
  5
91B9
  8
0
 10
4390.5894066292130447
 20
217.5929951661863129
 30
0.0
 11
4390.5894084045803538
 21
218.0360152881935107
 31
0.0
  0
LINE
  5
91BA
  8
0
 10
4390.5894144175126712
 20
219.5364653999191091
 30
0.0
 11
4390.589416153118691
 21
219.9695637151239112
 31
0.0
  0
ARC
  5
91BB
  8
0
 10
4397.808056014129761
 20
219.9638578366335935
 30
0.0
 40
0.0826573140842531
 50
3.9583061792597301
 51
81.2117058123479865
  0
LINE
  5
91BC
  8
0
 10
4397.8206847236770045
 20
220.0455447221586098
 30
0.0
 11
4390.672946364676136
 21
220.0455432659587132
 31
0.0
  0
ARC
  5
91BD
  8
0
 10
4390.6855623659866978
 20
219.9638761325365124
 30
0.0
 40
0.0826358528148742
 50
98.7816787481326344
 51
176.0360300931669997
  0
LINE
  5
91BE
  8
0
 10
4390.6031242013577867
 20
219.969588678641486
 30
0.0
 11
4390.6031224673206452
 21
219.5364653070739109
 31
0.0
  0
LINE
  5
91BF
  8
0
 10
4390.6031164601799901
 20
218.0360153851918881
 30
0.0
 11
4390.6031146866353083
 21
217.5930233444665873
 31
0.0
  0
ARC
  5
91C0
  8
0
 10
4390.685592666636694
 20
217.5987456209396953
 30
0.0
 40
0.0826762458821125
 50
183.9687895936694986
 51
261.2012228403814902
  0
LINE
  5
91C1
  8
0
 10
4390.6729461157774494
 20
217.5170423383586922
 30
0.0
 11
4397.8206844717778949
 21
217.5172934505586966
 31
0.0
  0
ARC
  5
91C2
  8
0
 10
4397.8086143182599699
 20
217.5984766287357957
 30
0.0
 40
0.0820755568051146
 50
278.4566736798342959
 51
356.1706186007623955
  0
LINE
  5
91C3
  8
0
 10
4397.8905066292127231
 20
217.5929951661863129
 30
0.0
 11
4397.890508404787397
 21
218.0360669508573892
 31
0.0
  0
LINE
  5
91C4
  8
0
 10
4397.8905144173149893
 20
219.5364159492860097
 30
0.0
 11
4397.8905161531201884
 21
219.9695637151239112
 31
0.0
  0
ARC
  5
91C5
  8
0
 10
4405.1091560141303489
 20
219.9638578366335935
 30
0.0
 40
0.0826573140842531
 50
3.9583061792597301
 51
81.2117058123479865
  0
LINE
  5
91C6
  8
0
 10
4405.1217847236775924
 20
220.0455447221586098
 30
0.0
 11
4397.9740463646767239
 21
220.0455432659587132
 31
0.0
  0
ARC
  5
91C7
  8
0
 10
4397.9866623659863762
 20
219.9638761325365124
 30
0.0
 40
0.0826358528148742
 50
98.7816787481326344
 51
176.0360300931669997
  0
LINE
  5
91C8
  8
0
 10
4397.9042242013565556
 20
219.969588678641486
 30
0.0
 11
4397.9042224671238728
 21
219.5364158564408115
 31
0.0
  0
LINE
  5
91C9
  8
0
 10
4397.9042164603861238
 20
218.0360670478557097
 30
0.0
 11
4397.9042146866349867
 21
217.5930233444665873
 31
0.0
  0
ARC
  5
91CA
  8
0
 10
4397.9866926666381914
 20
217.5987456209396953
 30
0.0
 40
0.0826762458821125
 50
183.9687895936694986
 51
261.2012228403814902
  0
LINE
  5
91CB
  8
0
 10
4397.9740461157771279
 20
217.5170423383586922
 30
0.0
 11
4405.1217844717766638
 21
217.5172934505586966
 31
0.0
  0
ARC
  5
91CC
  8
0
 10
4405.1097143182596483
 20
217.5984766287357957
 30
0.0
 40
0.0820755568051146
 50
278.4566736798342959
 51
356.1706186007623955
  0
LINE
  5
91CD
  8
0
 10
4405.1916144171173073
 20
219.5363664986529102
 30
0.0
 11
4405.1916161531198668
 21
219.9695637151239112
 31
0.0
  0
ARC
  5
91CE
  8
0
 10
4401.458606014130055
 20
217.4158078366336042
 30
0.0
 40
0.0826573140842531
 50
3.9583061792597301
 51
81.2117058123479865
  0
LINE
  5
91CF
  8
0
 10
4401.4712347236772985
 20
217.4974947221587058
 30
0.0
 11
4394.3234963646773394
 21
217.4974932659586955
 31
0.0
  0
ARC
  5
91D0
  8
0
 10
4394.3361123659860823
 20
217.4158261325364947
 30
0.0
 40
0.0826358528148742
 50
98.7816787481326344
 51
176.0360300931669997
  0
LINE
  5
91D1
  8
0
 10
4394.2536742013571711
 20
217.4215386786414967
 30
0.0
 11
4394.2536646866356023
 21
215.0449733444665981
 31
0.0
  0
ARC
  5
91D2
  8
0
 10
4394.336142666636988
 20
215.050695620939706
 30
0.0
 40
0.0826762458821125
 50
183.9687895936694986
 51
261.2012228403814902
  0
LINE
  5
91D3
  8
0
 10
4394.3234961157759244
 20
214.9689923383587029
 30
0.0
 11
4401.4712344717772794
 21
214.9692434505585936
 31
0.0
  0
ARC
  5
91D4
  8
0
 10
4401.4591643182602638
 20
215.0504266287358064
 30
0.0
 40
0.0820755568051146
 50
278.4566736798342959
 51
356.1706186007623955
  0
LINE
  5
91D5
  8
0
 10
4401.541056629213017
 20
215.0449451661864089
 30
0.0
 11
4401.5410661531213918
 21
217.4215137151238935
 31
0.0
  0
ARC
  5
91D6
  8
0
 10
4394.1575060141303766
 20
217.4158078366336042
 30
0.0
 40
0.0826573140842531
 50
3.9583061792597301
 51
81.2117058123479865
  0
LINE
  5
91D7
  8
0
 10
4394.1701347236776201
 20
217.4974947221587058
 30
0.0
 11
4388.081940337384367
 21
217.4974934818183101
 31
0.0
  0
LINE
  5
91D8
  8
0
 10
4386.9525734874314367
 20
217.2432158722448037
 30
0.0
 11
4386.9525646866350144
 21
215.0449733444665981
 31
0.0
  0
ARC
  5
91D9
  8
0
 10
4387.0350426666382191
 20
215.050695620939706
 30
0.0
 40
0.0826762458821125
 50
183.9687895936694986
 51
261.2012228403814902
  0
LINE
  5
91DA
  8
0
 10
4387.0223961157771555
 20
214.9689923383587029
 30
0.0
 11
4394.1701344717766915
 21
214.9692434505585936
 31
0.0
  0
ARC
  5
91DB
  8
0
 10
4394.1580643182596759
 20
215.0504266287358064
 30
0.0
 40
0.0820755568051146
 50
278.4566736798342959
 51
356.1706186007623955
  0
LINE
  5
91DC
  8
0
 10
4394.2399566292124291
 20
215.0449451661864089
 30
0.0
 11
4394.2399661531189849
 21
217.4215137151238935
 31
0.0
  0
LINE
  5
91DD
  8
0
 10
4386.3149943032203737
 20
217.4974946092847006
 30
0.0
 11
4379.7212963646770731
 21
217.4974932659586955
 31
0.0
  0
ARC
  5
91DE
  8
0
 10
4379.733912365985816
 20
217.4158261325364947
 30
0.0
 40
0.0826358528148742
 50
98.7816787481326344
 51
176.036030093163788
  0
LINE
  5
91DF
  8
0
 10
4379.6514742013569048
 20
217.4215386786414967
 30
0.0
 11
4379.651464686635336
 21
215.0449733444665981
 31
0.0
  0
ARC
  5
91E0
  8
0
 10
4379.7339426666367217
 20
215.050695620939706
 30
0.0
 40
0.0826762458821125
 50
183.9687895936694986
 51
261.2012228403814902
  0
LINE
  5
91E1
  8
0
 10
4379.7212961157783866
 20
214.9689923383587029
 30
0.0
 11
4386.8690344717779226
 21
214.9692434505585936
 31
0.0
  0
ARC
  5
91E2
  8
0
 10
4386.8569643182599975
 20
215.0504266287358064
 30
0.0
 40
0.0820755568051146
 50
278.4566736798342959
 51
356.1706186007623955
  0
LINE
  5
91E3
  8
0
 10
4386.9388566292127507
 20
215.0449451661864089
 30
0.0
 11
4386.9388654476097145
 21
217.2454628882383929
 31
0.0
  0
ARC
  5
91E4
  8
0
 10
4390.5069560141300826
 20
214.8677578366335865
 30
0.0
 40
0.0826573140842531
 50
3.9583061792597301
 51
81.2117058123479865
  0
LINE
  5
91E5
  8
0
 10
4390.5195847236773261
 20
214.9494447221586881
 30
0.0
 11
4383.3718463646773671
 21
214.9494432659587062
 31
0.0
  0
ARC
  5
91E6
  8
0
 10
4383.3844623659861099
 20
214.8677761325365054
 30
0.0
 40
0.0826358528148742
 50
98.7816787481326344
 51
176.0360300931669997
  0
LINE
  5
91E7
  8
0
 10
4383.3020242013571988
 20
214.8734886786415075
 30
0.0
 11
4383.3020146866338109
 21
212.4969233444666088
 31
0.0
  0
ARC
  5
91E8
  8
0
 10
4383.3844926666379251
 20
212.5026456209396883
 30
0.0
 40
0.0826762458821125
 50
183.9687895936694986
 51
261.2012228403814902
  0
LINE
  5
91E9
  8
0
 10
4383.3718461157768616
 20
212.4209423383586
 30
0.0
 11
4390.519584471777307
 21
212.4211934505586044
 31
0.0
  0
ARC
  5
91EA
  8
0
 10
4390.507514318261201
 20
212.5023766287357887
 30
0.0
 40
0.0820755568051146
 50
278.4566736798342959
 51
356.1706186007623955
  0
LINE
  5
91EB
  8
0
 10
4390.5894066292130447
 20
212.4968951661863912
 30
0.0
 11
4390.589416153118691
 21
214.8734637151239042
 31
0.0
  0
ARC
  5
91EC
  8
0
 10
4397.808056014129761
 20
214.8677578366335865
 30
0.0
 40
0.0826573140842531
 50
3.9583061792597301
 51
81.2117058123479865
  0
LINE
  5
91ED
  8
0
 10
4397.8206847236770045
 20
214.9494447221586881
 30
0.0
 11
4390.672946364676136
 21
214.9494432659587062
 31
0.0
  0
ARC
  5
91EE
  8
0
 10
4390.6855623659866978
 20
214.8677761325365054
 30
0.0
 40
0.0826358528148742
 50
98.7816787481326344
 51
176.0360300931669997
  0
LINE
  5
91EF
  8
0
 10
4390.6031242013577867
 20
214.8734886786415075
 30
0.0
 11
4390.6031146866353083
 21
212.4969233444666088
 31
0.0
  0
ARC
  5
91F0
  8
0
 10
4390.685592666636694
 20
212.5026456209396883
 30
0.0
 40
0.0826762458821125
 50
183.9687895936694986
 51
261.2012228403814902
  0
LINE
  5
91F1
  8
0
 10
4390.6729461157774494
 20
212.4209423383586
 30
0.0
 11
4397.8206844717778949
 21
212.4211934505586044
 31
0.0
  0
ARC
  5
91F2
  8
0
 10
4397.8086143182599699
 20
212.5023766287357887
 30
0.0
 40
0.0820755568051146
 50
278.4566736798342959
 51
356.1706186007623955
  0
LINE
  5
91F3
  8
0
 10
4397.8905066292127231
 20
212.4968951661863912
 30
0.0
 11
4397.8905161531201884
 21
214.8734637151239042
 31
0.0
  0
ARC
  5
91F4
  8
0
 10
4405.1091560141303489
 20
214.8677578366335865
 30
0.0
 40
0.0826573140842531
 50
3.9583061792597301
 51
81.2117058123479865
  0
LINE
  5
91F5
  8
0
 10
4405.1217847236775924
 20
214.9494447221586881
 30
0.0
 11
4397.9740463646767239
 21
214.9494432659587062
 31
0.0
  0
ARC
  5
91F6
  8
0
 10
4397.9866623659863762
 20
214.8677761325365054
 30
0.0
 40
0.0826358528148742
 50
98.7816787481326344
 51
176.0360300931669997
  0
LINE
  5
91F7
  8
0
 10
4397.9042242013565556
 20
214.8734886786415075
 30
0.0
 11
4397.9042146866349867
 21
212.4969233444666088
 31
0.0
  0
ARC
  5
91F8
  8
0
 10
4397.9866926666381914
 20
212.5026456209396883
 30
0.0
 40
0.0826762458821125
 50
183.9687895936694986
 51
261.2012228403814902
  0
LINE
  5
91F9
  8
0
 10
4397.9740461157771279
 20
212.4209423383586
 30
0.0
 11
4405.1217844717766638
 21
212.4211934505586044
 31
0.0
  0
ARC
  5
91FA
  8
0
 10
4405.1097143182596483
 20
212.5023766287357887
 30
0.0
 40
0.0820755568051146
 50
278.4566736798342959
 51
356.1706186007623955
  0
LINE
  5
91FB
  8
0
 10
4405.191606629213311
 20
212.4968951661863912
 30
0.0
 11
4405.1916161531198668
 21
214.8734637151239042
 31
0.0
  0
ARC
  5
91FC
  8
0
 10
4383.2060478827916086
 20
235.2523341798479919
 30
0.0
 40
0.0824538872278029
 50
3.845279495474609
 51
81.3247449837255516
  0
LINE
  5
91FD
  8
0
 10
4383.2184847236758287
 20
235.3338447221586875
 30
0.0
 11
4379.4076681425403876
 21
235.3337015322296963
 31
0.0
  0
LINE
  5
91FE
  8
0
 10
4377.9076681425385686
 20
235.3336451703216881
 30
0.0
 11
4376.5204304516555567
 21
235.3335930454130107
 31
0.0
  0
LINE
  5
91FF
  8
0
 10
4378.7002243346323667
 20
232.8055934565097971
 30
0.0
 11
4383.2184844717776286
 21
232.805593450558689
 31
0.0
  0
ARC
  5
9200
  8
0
 10
4383.2068403813882469
 20
232.8863836565664087
 30
0.0
 40
0.0816250098177938
 50
278.2014199949196041
 51
356.4258718554817165
  0
LINE
  5
9201
  8
0
 10
4383.2883066289041381
 20
232.8812951652809886
 30
0.0
 11
4383.2883161483468939
 21
235.2578637369365993
 31
0.0
  0
LINE
  5
9202
  8
0
 10
4376.5525477239443717
 20
234.2857460302587072
 30
0.0
 11
4376.5525437089427214
 21
234.9835852000587124
 31
0.0
  0
ARC
  5
9203
  8
0
 10
4375.0421973435486507
 20
234.9630497835100869
 30
0.0
 40
1.5104859637853101
 50
0.7789737707169913
 51
10.9736382729854096
  0
LINE
  5
9204
  8
0
 10
4376.5203997983771842
 20
235.2753868540586097
 30
0.0
 11
4376.5250638759680442
 21
235.2505818579392098
 31
0.0
  0
ARC
  5
9205
  8
0
 10
4383.2060478827916086
 20
240.3484341798479988
 30
0.0
 40
0.0824538872278029
 50
3.845279495474609
 51
81.3247449837255516
  0
LINE
  5
9206
  8
0
 10
4383.2184847236758287
 20
240.4299447221586945
 30
0.0
 11
4379.4076681425403876
 21
240.4226640978411922
 31
0.0
  0
LINE
  5
9207
  8
0
 10
4377.9076681425385686
 20
240.4197983245236969
 30
0.0
 11
4377.2413915867673495
 21
240.4185253928066004
 31
0.0
  0
LINE
  5
9208
  8
0
 10
4376.5204304313947432
 20
237.9016934593807946
 30
0.0
 11
4377.9076681425385686
 21
237.9016934575535913
 31
0.0
  0
LINE
  5
9209
  8
0
 10
4379.4076681425403876
 20
237.9016934555779983
 30
0.0
 11
4383.2184844717776286
 21
237.901693450558696
 31
0.0
  0
ARC
  5
920A
  8
0
 10
4383.2068403813882469
 20
237.9824836565663873
 30
0.0
 40
0.0816250098177938
 50
278.2014199949196041
 51
356.4258718554817165
  0
LINE
  5
920B
  8
0
 10
4383.2883066289041381
 20
237.9773951652809956
 30
0.0
 11
4383.2883161483468939
 21
240.3539637369366062
 31
0.0
  0
ARC
  5
920C
  8
0
 10
4375.0705144741095864
 20
238.2693778275126988
 30
0.0
 40
1.48214524480013
 50
348.9203875079991235
 51
359.3163938465982028
  0
LINE
  5
920D
  8
0
 10
4376.5525542262421368
 20
238.2516945080849098
 30
0.0
 11
4376.5525437089427214
 21
240.0796852000586057
 31
0.0
  0
ARC
  5
920E
  8
0
 10
4375.0421973435477412
 20
240.0591497835100938
 30
0.0
 40
1.510485963787308
 50
0.7789737707202481
 51
10.90673736992089
  0
LINE
  5
920F
  8
0
 10
4376.5203997983771842
 20
240.3714868540585883
 30
0.0
 11
4376.5253985992803791
 21
240.3449502065176091
 31
0.0
  0
LINE
  5
9210
  8
0
 10
4376.5203997983771842
 20
237.9600195103585918
 30
0.0
 11
4376.5250341719784046
 21
237.984549852758505
 31
0.0
  0
ARC
  5
9211
  8
0
 10
4383.2060478827916086
 20
230.1562341798480986
 30
0.0
 40
0.0824538872278029
 50
3.845279495474609
 51
81.3247449837255516
  0
LINE
  5
9212
  8
0
 10
4383.2184847236758287
 20
230.237744722158709
 30
0.0
 11
4376.5204304516528282
 21
230.2374930454130038
 31
0.0
  0
LINE
  5
9213
  8
0
 10
4378.9386347176159688
 20
227.7094934561957018
 30
0.0
 11
4383.2184844717776286
 21
227.7094934505587105
 31
0.0
  0
ARC
  5
9214
  8
0
 10
4383.2068403813882469
 20
227.7902836565664018
 30
0.0
 40
0.0816250098177938
 50
278.2014199949196041
 51
356.4258718554817165
  0
LINE
  5
9215
  8
0
 10
4383.2883066289041381
 20
227.7851951652810101
 30
0.0
 11
4383.2883161483468939
 21
230.1617637369365923
 31
0.0
  0
LINE
  5
9216
  8
0
 10
4376.5525518457643557
 20
228.4732406873845036
 30
0.0
 11
4376.5525437089427214
 21
229.8874852000587055
 31
0.0
  0
ARC
  5
9217
  8
0
 10
4375.0421973435486507
 20
229.8669497835101083
 30
0.0
 40
1.5104859637853101
 50
0.7789737707169913
 51
10.9736382729854096
  0
LINE
  5
9218
  8
0
 10
4376.5203997983771842
 20
230.179286854058688
 30
0.0
 11
4376.5250638759680442
 21
230.1544818579390892
 31
0.0
  0
ARC
  5
9219
  8
0
 10
4383.2060478827916086
 20
225.0601341798480917
 30
0.0
 40
0.0824538872278029
 50
3.845279495474609
 51
81.3247449837255516
  0
LINE
  5
921A
  8
0
 10
4383.2184847236758287
 20
225.1416447221587021
 30
0.0
 11
4376.5204304516528282
 21
225.1413930454129968
 31
0.0
  0
LINE
  5
921B
  8
0
 10
4376.5204304313901957
 20
222.6133934593808021
 30
0.0
 11
4383.2184844717776286
 21
222.6133934505587035
 31
0.0
  0
ARC
  5
921C
  8
0
 10
4383.2068403813882469
 20
222.6941836565663948
 30
0.0
 40
0.0816250098177938
 50
278.2014199949196041
 51
356.4258718554817165
  0
LINE
  5
921D
  8
0
 10
4383.2883066289041381
 20
222.6890951652810031
 30
0.0
 11
4383.2883161483468939
 21
225.0656637369366138
 31
0.0
  0
ARC
  5
921E
  8
0
 10
4375.0705144741095864
 20
222.9810778275127063
 30
0.0
 40
1.48214524480013
 50
348.9203875079991235
 51
359.3163938465982028
  0
LINE
  5
921F
  8
0
 10
4376.5525542262421368
 20
222.9633945080850026
 30
0.0
 11
4376.5525437089427214
 21
224.7913852000586985
 31
0.0
  0
ARC
  5
9220
  8
0
 10
4375.0421973435486507
 20
224.7708497835101014
 30
0.0
 40
1.5104859637853101
 50
0.7789737707169913
 51
10.9736382729854096
  0
LINE
  5
9221
  8
0
 10
4376.5203997983771842
 20
225.0831868540587095
 30
0.0
 11
4376.5250638759680442
 21
225.0583818579391959
 31
0.0
  0
LINE
  5
9222
  8
0
 10
4376.5203997983771842
 20
222.671719510358713
 30
0.0
 11
4376.5250341719784046
 21
222.6962498527583989
 31
0.0
  0
ARC
  5
9223
  8
0
 10
4383.2060478827916086
 20
219.9640341798481131
 30
0.0
 40
0.0824538872278029
 50
3.845279495474609
 51
81.3247449837255516
  0
LINE
  5
9224
  8
0
 10
4383.2184847236758287
 20
220.0455447221586098
 30
0.0
 11
4376.5204304516373668
 21
220.0452930454129898
 31
0.0
  0
LINE
  5
9225
  8
0
 10
4376.5204304314629553
 20
217.5172934593807952
 30
0.0
 11
4383.2184844717776286
 21
217.5172934505586966
 31
0.0
  0
ARC
  5
9226
  8
0
 10
4383.2068403813882469
 20
217.5980836565663878
 30
0.0
 40
0.0816250098177938
 50
278.2014199949196041
 51
356.4258718554817165
  0
LINE
  5
9227
  8
0
 10
4383.2883066289041381
 20
217.5929951652809962
 30
0.0
 11
4383.2883161483468939
 21
219.9695637369366068
 31
0.0
  0
ARC
  5
9228
  8
0
 10
4375.0705144741095864
 20
217.8849778275126994
 30
0.0
 40
1.48214524480013
 50
348.9203875079991235
 51
359.3163938465982028
  0
LINE
  5
9229
  8
0
 10
4376.5525542262421368
 20
217.8672945080849956
 30
0.0
 11
4376.5525437089427214
 21
219.6952852000586063
 31
0.0
  0
ARC
  5
922A
  8
0
 10
4375.0421973435486507
 20
219.6747497835100944
 30
0.0
 40
1.5104859637853101
 50
0.7789737707169913
 51
10.9736382729854096
  0
LINE
  5
922B
  8
0
 10
4376.5203997983771842
 20
219.9870868540587026
 30
0.0
 11
4376.5250638759680442
 21
219.962281857939189
 31
0.0
  0
LINE
  5
922C
  8
0
 10
4376.5203997983771842
 20
217.5756195103587061
 30
0.0
 11
4376.5250341719784046
 21
217.6001498527585056
 31
0.0
  0
ARC
  5
922D
  8
0
 10
4383.2060478827916086
 20
214.8679341798479925
 30
0.0
 40
0.0824538872278029
 50
3.845279495474609
 51
81.3247449837255516
  0
LINE
  5
922E
  8
0
 10
4383.2184847236758287
 20
214.9494447221586881
 30
0.0
 11
4376.5204304517274068
 21
214.9491930454130113
 31
0.0
  0
LINE
  5
922F
  8
0
 10
4376.5103888137773538
 20
212.4211934593940043
 30
0.0
 11
4383.2184844717776286
 21
212.4211934505586896
 31
0.0
  0
ARC
  5
9230
  8
0
 10
4383.2068403813882469
 20
212.5019836565664093
 30
0.0
 40
0.0816250098177938
 50
278.2014199949196041
 51
356.4258718554817165
  0
LINE
  5
9231
  8
0
 10
4383.2883066289041381
 20
212.4968951652809892
 30
0.0
 11
4383.2883161483468939
 21
214.8734637369365998
 31
0.0
  0
ARC
  5
9232
  8
0
 10
4375.0705144741095864
 20
212.7888778275126924
 30
0.0
 40
1.48214524480013
 50
348.9203875079991235
 51
359.3163938465982028
  0
LINE
  5
9233
  8
0
 10
4376.5525542262421368
 20
212.7711945080849887
 30
0.0
 11
4376.5525437089427214
 21
214.5991852000585993
 31
0.0
  0
ARC
  5
9234
  8
0
 10
4375.0421973435486507
 20
214.5786497835102011
 30
0.0
 40
1.5104859637853101
 50
0.7789737707169913
 51
10.9736382729854096
  0
LINE
  5
9235
  8
0
 10
4376.5203997983771842
 20
214.8909868540586956
 30
0.0
 11
4376.5250638759680442
 21
214.8661818579392104
 31
0.0
  0
LINE
  5
9236
  8
0
 10
4376.5103888137773538
 20
212.4238823288586957
 30
0.0
 11
4376.5250341719784046
 21
212.5040498527584987
 31
0.0
  0
ARC
  5
9237
  8
0
 10
4375.0158080258506743
 20
237.5000596651705962
 30
0.0
 40
1.552264963746703
 50
1.1658750917399781
 51
14.2305303175402802
  0
LINE
  5
9238
  8
0
 10
4376.567751638597656
 20
237.5316435302586058
 30
0.0
 11
4376.567751638673144
 21
235.7036435302732116
 31
0.0
  0
ARC
  5
9239
  8
0
 10
4375.0158051587914088
 20
235.7352275717310022
 30
0.0
 40
1.5522678338785421
 50
345.7694898360044817
 51
358.8341205529084732
  0
ARC
  5
923A
  8
0
 10
4379.5617503541016049
 20
237.8068995826006073
 30
0.0
 40
0.0755817696212508
 50
355.7014757931337954
 51
89.1652228172156214
  0
LINE
  5
923B
  8
0
 10
4379.5628515120761222
 20
237.8824733303586925
 30
0.0
 11
4379.4076681425403876
 21
237.8824310049820099
 31
0.0
  0
LINE
  5
923C
  8
0
 10
4377.9076681425385686
 20
237.8820218885593079
 30
0.0
 11
4376.520440961676286
 21
237.8816435302780974
 31
0.0
  0
LINE
  5
923D
  8
0
 10
4376.5204410108954107
 20
235.3536435303255985
 30
0.0
 11
4377.9076681425385686
 21
235.352046137625706
 31
0.0
  0
LINE
  5
923E
  8
0
 10
4379.4076681425403876
 20
235.3503188869144935
 30
0.0
 11
4379.556175946429903
 21
235.3501478801078974
 31
0.0
  0
ARC
  5
923F
  8
0
 10
4379.5575688765011364
 20
235.4298682524313904
 30
0.0
 40
0.0797325405187388
 50
268.9989899497351757
 51
3.0706347438357979
  0
LINE
  5
9240
  8
0
 10
4379.6371869414770117
 20
235.4341392882587058
 30
0.0
 11
4379.6371195170759165
 21
237.8012344990588076
 31
0.0
  0
LINE
  5
9241
  8
0
 10
4376.5677516386458592
 20
231.1607460302587072
 30
0.0
 11
4376.5677516386685966
 21
230.6075435302732046
 31
0.0
  0
ARC
  5
9242
  8
0
 10
4375.0158051587868613
 20
230.6391275717309952
 30
0.0
 40
1.5522678338785421
 50
345.7694898360044817
 51
358.8341205529084732
  0
ARC
  5
9243
  8
0
 10
4379.5617503540979669
 20
232.7107995826007141
 30
0.0
 40
0.0755817696212508
 50
355.7014757931337954
 51
89.1652228172156214
  0
LINE
  5
9244
  8
0
 10
4379.5628515120715747
 20
232.7863733303586002
 30
0.0
 11
4378.6818446781380771
 21
232.7861330407824028
 31
0.0
  0
LINE
  5
9245
  8
0
 10
4376.5204410108908633
 20
230.2575435303255915
 30
0.0
 11
4379.5561759464271745
 21
230.2540478801078905
 31
0.0
  0
ARC
  5
9246
  8
0
 10
4379.5575688764965889
 20
230.3337682524312982
 30
0.0
 40
0.0797325405187388
 50
268.9989899497351757
 51
3.0706347438357979
  0
LINE
  5
9247
  8
0
 10
4379.6371869414715547
 20
230.3380392882586989
 30
0.0
 11
4379.6371195170722785
 21
232.7051344990588007
 31
0.0
  0
ARC
  5
9248
  8
0
 10
4375.0158051587868613
 20
225.5430275717309883
 30
0.0
 40
1.5522678338785421
 50
345.7694898360044817
 51
357.4107544509677723
  0
ARC
  5
9249
  8
0
 10
4379.5617503540979669
 20
227.6146995826005934
 30
0.0
 40
0.0755817696212508
 50
355.7014757931337954
 51
89.1652228172156214
  0
LINE
  5
924A
  8
0
 10
4379.5628515120715747
 20
227.6902733303585933
 30
0.0
 11
4379.0160910274507842
 21
227.6901242045628919
 31
0.0
  0
LINE
  5
924B
  8
0
 10
4376.5204410108908633
 20
225.1614435303256982
 30
0.0
 11
4379.5561759464271745
 21
225.1579478801079119
 31
0.0
  0
ARC
  5
924C
  8
0
 10
4379.5575688764965889
 20
225.2376682524314049
 30
0.0
 40
0.0797325405187388
 50
268.9989899497351757
 51
3.0706347438357979
  0
LINE
  5
924D
  8
0
 10
4379.6371869414715547
 20
225.2419392882586919
 30
0.0
 11
4379.6371195170722785
 21
227.6090344990587937
 31
0.0
  0
ARC
  5
924E
  8
0
 10
4375.0158080258479458
 20
222.211759665170689
 30
0.0
 40
1.552264963746703
 50
1.1658750917399781
 51
14.2305303175402802
  0
LINE
  5
924F
  8
0
 10
4376.5677516385931085
 20
222.2433435302586986
 30
0.0
 11
4376.5677516386685966
 21
220.4153435302731907
 31
0.0
  0
ARC
  5
9250
  8
0
 10
4375.0158051587868613
 20
220.4469275717310097
 30
0.0
 40
1.5522678338785421
 50
345.7694898360044817
 51
358.8341205529084732
  0
ARC
  5
9251
  8
0
 10
4379.5617503540979669
 20
222.5185995826005865
 30
0.0
 40
0.0755817696212508
 50
355.7014757931337954
 51
89.1652228172156214
  0
LINE
  5
9252
  8
0
 10
4379.5628515120715747
 20
222.5941733303587
 30
0.0
 11
4376.5204409616699195
 21
222.5933435302781902
 31
0.0
  0
LINE
  5
9253
  8
0
 10
4376.5204410108908633
 20
220.065343530325606
 30
0.0
 11
4379.5561759464271745
 21
220.061847880107905
 31
0.0
  0
ARC
  5
9254
  8
0
 10
4379.5575688764965889
 20
220.1415682524313979
 30
0.0
 40
0.0797325405187388
 50
268.9989899497351757
 51
3.0706347438357979
  0
LINE
  5
9255
  8
0
 10
4379.6371869414715547
 20
220.1458392882587134
 30
0.0
 11
4379.6371195170722785
 21
222.5129344990587015
 31
0.0
  0
ARC
  5
9256
  8
0
 10
4375.0158080259479902
 20
217.1156596651707105
 30
0.0
 40
1.552264963746703
 50
1.1658750917399781
 51
14.2305303175402802
  0
LINE
  5
9257
  8
0
 10
4376.5677516386931529
 20
217.1472435302586064
 30
0.0
 11
4376.567751638768641
 21
215.3192435302732122
 31
0.0
  0
ARC
  5
9258
  8
0
 10
4375.0158051588869057
 20
215.3508275717310028
 30
0.0
 40
1.5522678338785421
 50
345.7694898360044817
 51
358.8341205529084732
  0
ARC
  5
9259
  8
0
 10
4379.5617503541980113
 20
217.4224995826006079
 30
0.0
 40
0.0755817696212508
 50
355.7014757931337954
 51
89.1652228172156214
  0
LINE
  5
925A
  8
0
 10
4379.5628515121716191
 20
217.4980733303586931
 30
0.0
 11
4376.5204409617708734
 21
217.4972435302782117
 31
0.0
  0
LINE
  5
925B
  8
0
 10
4376.5204410109909077
 20
214.9692435303255991
 30
0.0
 11
4379.5561759465272189
 21
214.965747880107898
 31
0.0
  0
ARC
  5
925C
  8
0
 10
4379.5575688765957239
 20
215.045468252431391
 30
0.0
 40
0.0797325405187388
 50
268.9989899497351757
 51
3.0706347438357979
  0
LINE
  5
925D
  8
0
 10
4379.6371869415734182
 20
215.0497392882587064
 30
0.0
 11
4379.637119517172323
 21
217.4168344990586945
 31
0.0
  0
LINE
  5
925E
  8
0
 10
4376.5203997983771842
 20
214.8909868540586956
 30
0.0
 11
4376.5204410109909077
 21
214.9692435303255991
 31
0.0
  0
LINE
  5
925F
  8
0
 10
4376.5203997983771842
 20
217.5756195103587061
 30
0.0
 11
4376.5204409617708734
 21
217.4972435302782117
 31
0.0
  0
LINE
  5
9260
  8
0
 10
4376.5204410108690354
 20
220.065343530325606
 30
0.0
 11
4376.5203997983771842
 21
219.9870868540587026
 31
0.0
  0
LINE
  5
9261
  8
0
 10
4376.5203997983771842
 20
222.671719510358713
 30
0.0
 11
4376.5204409616699195
 21
222.5933435302781902
 31
0.0
  0
LINE
  5
9262
  8
0
 10
4376.5204410108908633
 20
225.1614435303256982
 30
0.0
 11
4376.5203997983771842
 21
225.0831868540587095
 31
0.0
  0
LINE
  5
9263
  8
0
 10
4376.5204410108908633
 20
230.2575435303255063
 30
0.0
 11
4376.5203997983771842
 21
230.179286854058688
 31
0.0
  0
LINE
  5
9264
  8
0
 10
4376.5204410108954107
 20
235.3536435303255132
 30
0.0
 11
4376.5203997983771842
 21
235.2753868540586097
 31
0.0
  0
LINE
  5
9265
  8
0
 10
4376.5203997983771842
 20
237.9600195103585918
 30
0.0
 11
4376.5204409616781049
 21
237.8816435302661034
 31
0.0
  0
ARC
  5
9266
  8
0
 10
4376.815966328941613
 20
240.4463191561794986
 30
0.0
 40
0.3048925178335519
 50
178.7362503745117976
 51
194.2077375342751111
  0
LINE
  5
9267
  8
0
 10
4376.948157716856258
 20
240.4998509847910952
 30
0.0
 11
4377.9076681425385686
 21
240.4998509847910952
 31
0.0
  0
LINE
  5
9268
  8
0
 10
4379.4076681425403876
 20
240.4998509847910952
 30
0.0
 11
4433.4487758454588402
 21
240.4998509847910952
 31
0.0
  0
ARC
  5
9269
  8
0
 10
4374.9498713767598019
 20
257.8791581418515761
 30
0.0
 40
1.618225219196606
 50
1.306097632395111
 51
13.9566228784822801
  0
LINE
  5
926A
  8
0
 10
4376.5676761635513685
 20
257.916043530275374
 30
0.0
 11
4376.5676761913182418
 21
256.0880435302586875
 31
0.0
  0
ARC
  5
926B
  8
0
 10
4374.9498801839290536
 20
256.1249278677000802
 30
0.0
 40
1.6182164181199781
 50
346.0433379949046184
 51
358.6939324843684176
  0
ARC
  5
926C
  8
0
 10
4376.7741907511672252
 20
211.785450977300286
 30
0.0
 40
0.0622799297156135
 50
272.8118206547792965
 51
6.8022238238282027
  0
ARC
  5
926D
  8
0
 10
4376.6892771180955606
 20
211.8482496732144114
 30
0.0
 40
0.1250036442470351
 50
270.0082357213067894
 51
9.2064206335235461
  0
ARC
  5
926E
  8
0
 10
4375.2510369531883043
 20
211.6108813961560031
 30
0.0
 40
1.595404217641563
 50
6.5484836707045213
 51
20.1033847732480702
  0
ARC
  5
926F
  8
0
 10
4375.2267857233491668
 20
211.611206448582891
 30
0.0
 40
1.6065806992969269
 50
9.2065302959259707
 51
19.9452304359087584
  0
ARC
  5
9270
  8
0
 10
4376.5231173585789293
 20
212.0767818482742086
 30
0.0
 40
0.2406897594336453
 50
20.0363402094571903
 51
65.795444144881742
  0
ARC
  5
9271
  8
0
 10
4376.5114365036442905
 20
212.0774080809655118
 30
0.0
 40
0.2399528833841081
 50
19.9413713469181388
 51
65.8221682422982468
  0
ARC
  5
9272
  8
0
 10
4376.7034622407491042
 20
212.4821294240101111
 30
0.0
 40
0.2029704285257853
 50
207.7927801799002907
 51
246.2754466484558975
  0
ARC
  5
9273
  8
0
 10
4376.6900738727072167
 20
212.477089170830709
 30
0.0
 40
0.197833514560077
 50
206.9302288959237899
 51
246.033694005150295
  0
LINE
  5
9274
  8
0
 10
4376.5239065341565947
 20
212.3874893527587062
 30
0.0
 11
4433.873027028157594
 21
212.3874893527587062
 31
0.0
  0
LINE
  5
9275
  8
0
 10
4376.5103888137773538
 20
212.4238823288586957
 30
0.0
 11
4376.5103888137773538
 21
212.4011814022586009
 31
0.0
  0
ARC
  5
9276
  8
0
 10
4376.5405114464765575
 20
212.4012072648139906
 30
0.0
 40
0.030122643800803
 50
180.0491928132078101
 51
207.090801162188086
  0
ARC
  5
9277
  8
0
 10
4377.296842600425407
 20
225.9567938245930065
 30
0.0
 40
14.4618378764934992
 50
90.219689700862105
 51
93.0990204830858374
  0
ARC
  5
9278
  8
0
 10
4433.3573417769976004
 20
210.3381871076149991
 30
0.0
 40
0.6323766085258528
 50
270.7818874816442758
 51
358.1772500829139858
  0
ARC
  5
9279
  8
0
 10
4434.1593240200490982
 20
211.5981721696585964
 30
0.0
 40
0.125154397011138
 50
92.0555785455047442
 51
178.6114574736182021
  0
LINE
  5
927A
  8
0
 10
4434.0342063739362857
 20
211.6012049443880869
 30
0.0
 11
4433.9893984090249432
 21
210.3180727117274103
 31
0.0
  0
ARC
  5
927B
  8
0
 10
4435.1609681424934024
 20
269.9714149669773064
 30
0.0
 40
0.0624999999534858
 50
92.9999998997123498
 51
180.0000000170205112
  0
CIRCLE
  5
927C
  8
0
 10
4434.4484681425383314
 20
269.5453220302586033
 30
0.0
 40
0.09375
  0
CIRCLE
  5
927D
  8
0
 10
4433.6984681425383314
 20
269.5453220302586033
 30
0.0
 40
0.09375
  0
CIRCLE
  5
927E
  8
0
 10
4432.9484681425383314
 20
269.5453220302586033
 30
0.0
 40
0.09375
  0
CIRCLE
  5
927F
  8
0
 10
4432.1984681425383314
 20
269.5453220302586033
 30
0.0
 40
0.09375
  0
CIRCLE
  5
9280
  8
0
 10
4431.4484681425383314
 20
269.5453220302586033
 30
0.0
 40
0.09375
  0
CIRCLE
  5
9281
  8
0
 10
4430.6984681425383314
 20
269.5453220302586033
 30
0.0
 40
0.09375
  0
CIRCLE
  5
9282
  8
0
 10
4429.9484681425383314
 20
269.5453220302586033
 30
0.0
 40
0.09375
  0
CIRCLE
  5
9283
  8
0
 10
4429.1984681425383314
 20
269.5453220302586033
 30
0.0
 40
0.09375
  0
CIRCLE
  5
9284
  8
0
 10
4428.4484681425383314
 20
269.5453220302586033
 30
0.0
 40
0.09375
  0
CIRCLE
  5
9285
  8
0
 10
4427.6984681425383314
 20
269.5453220302586033
 30
0.0
 40
0.09375
  0
CIRCLE
  5
9286
  8
0
 10
4426.9484681425383314
 20
269.5453220302586033
 30
0.0
 40
0.09375
  0
CIRCLE
  5
9287
  8
0
 10
4426.1984681425383314
 20
269.5453220302586033
 30
0.0
 40
0.09375
  0
CIRCLE
  5
9288
  8
0
 10
4425.4484681425383314
 20
269.5453220302586033
 30
0.0
 40
0.09375
  0
CIRCLE
  5
9289
  8
0
 10
4424.6984681425383314
 20
269.5453220302586033
 30
0.0
 40
0.09375
  0
CIRCLE
  5
928A
  8
0
 10
4423.9484681425383314
 20
269.5453220302586033
 30
0.0
 40
0.09375
  0
CIRCLE
  5
928B
  8
0
 10
4423.1984681425383314
 20
269.5453220302586033
 30
0.0
 40
0.09375
  0
CIRCLE
  5
928C
  8
0
 10
4422.4484681425392409
 20
269.5453220302586033
 30
0.0
 40
0.09375
  0
CIRCLE
  5
928D
  8
0
 10
4421.6984681425392409
 20
269.5453220302586033
 30
0.0
 40
0.09375
  0
CIRCLE
  5
928E
  8
0
 10
4420.9484681425392409
 20
269.5453220302586033
 30
0.0
 40
0.09375
  0
CIRCLE
  5
928F
  8
0
 10
4420.1984681425392409
 20
269.5453220302586033
 30
0.0
 40
0.09375
  0
CIRCLE
  5
9290
  8
0
 10
4419.4484681425383314
 20
269.5453220302586033
 30
0.0
 40
0.09375
  0
CIRCLE
  5
9291
  8
0
 10
4418.6984681425383314
 20
269.5453220302586033
 30
0.0
 40
0.09375
  0
CIRCLE
  5
9292
  8
0
 10
4417.9484681425383314
 20
269.5453220302586033
 30
0.0
 40
0.09375
  0
CIRCLE
  5
9293
  8
0
 10
4417.1984681425383314
 20
269.5453220302586033
 30
0.0
 40
0.09375
  0
CIRCLE
  5
9294
  8
0
 10
4416.4484681425383314
 20
269.5453220302586033
 30
0.0
 40
0.09375
  0
CIRCLE
  5
9295
  8
0
 10
4415.6984681425383314
 20
269.5453220302586033
 30
0.0
 40
0.09375
  0
CIRCLE
  5
9296
  8
0
 10
4414.9484681425383314
 20
269.5453220302586033
 30
0.0
 40
0.09375
  0
CIRCLE
  5
9297
  8
0
 10
4414.1984681425383314
 20
269.5453220302586033
 30
0.0
 40
0.09375
  0
CIRCLE
  5
9298
  8
0
 10
4405.9484681426383759
 20
269.5453220302586033
 30
0.0
 40
0.09375
  0
CIRCLE
  5
9299
  8
0
 10
4406.6984681426383759
 20
269.5453220302586033
 30
0.0
 40
0.09375
  0
CIRCLE
  5
929A
  8
0
 10
4407.4484681426383759
 20
269.5453220302586033
 30
0.0
 40
0.09375
  0
CIRCLE
  5
929B
  8
0
 10
4408.1984681426383759
 20
269.5453220302586033
 30
0.0
 40
0.09375
  0
CIRCLE
  5
929C
  8
0
 10
4408.9484681426383759
 20
269.5453220302586033
 30
0.0
 40
0.09375
  0
CIRCLE
  5
929D
  8
0
 10
4409.6984681426383759
 20
269.5453220302586033
 30
0.0
 40
0.09375
  0
CIRCLE
  5
929E
  8
0
 10
4410.4484681426392854
 20
269.5453220302586033
 30
0.0
 40
0.09375
  0
CIRCLE
  5
929F
  8
0
 10
4411.1984681426392854
 20
269.5453220302586033
 30
0.0
 40
0.09375
  0
CIRCLE
  5
92A0
  8
0
 10
4411.9484681426392854
 20
269.5453220302586033
 30
0.0
 40
0.09375
  0
CIRCLE
  5
92A1
  8
0
 10
4412.6984681426392854
 20
269.5453220302586033
 30
0.0
 40
0.09375
  0
CIRCLE
  5
92A2
  8
0
 10
4413.4484681426392854
 20
269.5453220302586033
 30
0.0
 40
0.09375
  0
ARC
  5
92A3
  8
0
 10
4434.6583877905186455
 20
256.7542986002465
 30
0.0
 40
13.2924619577110192
 50
88.4086282997297985
 51
89.0509726832245718
  0
ARC
  5
92A4
  8
0
 10
4435.020374578956762
 20
269.9767630962646763
 30
0.0
 40
0.0652645652224314
 50
73.1601983280698818
 51
83.7019390295574652
  0
ARC
  5
92A5
  8
0
 10
4435.0382919884959847
 20
270.0359064481044129
 30
0.0
 40
0.0034667890539801
 50
23.8051489340697415
 51
73.4154948619710552
  0
LINE
  5
92A6
  8
0
 10
4435.041463834922979
 20
270.0373057395668752
 30
0.0
 11
4435.0984681425698
 21
269.9417861427273237
 31
0.0
  0
ARC
  5
92A7
  8
0
 10
4435.0357248566842827
 20
268.8389234085257726
 30
0.0
 40
0.0631070482025065
 50
273.193582506546818
 51
353.8451755204021083
  0
LINE
  5
92A8
  8
0
 10
4435.0392405296988727
 20
268.7759143648406734
 30
0.0
 11
4434.27884969812294
 21
268.7360535192580073
 31
0.0
  0
ARC
  5
92A9
  8
0
 10
4434.2924278397040325
 20
268.4782484201242028
 30
0.0
 40
0.2581624199379199
 50
93.014882386779604
 51
180.0005303994325061
  0
LINE
  5
92AA
  8
0
 10
4434.0342654197784213
 20
268.4782460302586742
 30
0.0
 11
4434.034268142538167
 21
211.8482460302587072
 31
0.0
  0
ARC
  5
92AB
  8
0
 10
4434.1594083845293426
 20
211.8483026826862954
 30
0.0
 40
0.1251402548152468
 50
180.0259384569503993
 51
267.9055372812507017
  0
ARC
  5
92AC
  8
0
 10
4435.4454064262472457
 20
268.0715797046706825
 30
0.0
 40
1.6165649126030699
 50
166.0368440684499944
 51
178.7003171073741896
  0
LINE
  5
92AD
  8
0
 10
4433.8292573994231134
 20
268.1082463073994973
 30
0.0
 11
4433.8292573987391734
 21
266.2802435302585877
 31
0.0
  0
ARC
  5
92AE
  8
0
 10
4435.4470512053330822
 20
266.3171274494837917
 30
0.0
 40
1.618214208364283
 50
181.3060544878989901
 51
193.9566661938872869
  0
ARC
  5
92AF
  8
0
 10
4423.5404698933571126
 20
268.3768638971415044
 30
0.0
 40
0.082590736034968
 50
98.7086293287313197
 51
176.0578882937635115
  0
LINE
  5
92B0
  8
0
 10
4423.527964855137725
 20
268.458502452358573
 30
0.0
 11
4430.6690747870388805
 21
268.4609850039586263
 31
0.0
  0
ARC
  5
92B1
  8
0
 10
4430.6598068359890021
 20
268.3755386351763264
 30
0.0
 40
0.0859475238429649
 50
4.6549835224746277
 51
83.8096064398095137
  0
LINE
  5
92B2
  8
0
 10
4430.7454708582390595
 20
268.3825137442585742
 30
0.0
 11
4430.7454617131388659
 21
266.0059451490478182
 31
0.0
  0
ARC
  5
92B3
  8
0
 10
4430.6632274020166733
 20
266.0114750145020253
 30
0.0
 40
0.0824200299533133
 50
278.6135839955026086
 51
356.1529236846308208
  0
LINE
  5
92B4
  8
0
 10
4430.6755714300388718
 20
265.9299846082586214
 30
0.0
 11
4423.5344615052390509
 21
265.9275020565586942
 31
0.0
  0
ARC
  5
92B5
  8
0
 10
4423.5437235787649115
 20
266.0129427102652926
 30
0.0
 40
0.0859412084614658
 50
184.6514972331663103
 51
263.813091192919785
  0
LINE
  5
92B6
  8
0
 10
4423.4580654268384023
 20
266.0059733257587027
 30
0.0
 11
4423.4580745654384373
 21
268.3825418911587235
 31
0.0
  0
ARC
  5
92B7
  8
0
 10
4430.8393330597582462
 20
268.3820154294897975
 30
0.0
 40
0.0796300539901669
 50
89.0823246575048557
 51
183.0096542621280946
  0
LINE
  5
92B8
  8
0
 10
4430.8406083965010112
 20
268.4616352700741118
 30
0.0
 11
4433.8766092389387268
 21
268.4616534178990719
 31
0.0
  0
LINE
  5
92B9
  8
0
 10
4433.8766092395526357
 20
265.9268336418588206
 30
0.0
 11
4430.8407566401856457
 21
265.9266996644172991
 31
0.0
  0
ARC
  5
92BA
  8
0
 10
4430.8395171810789179
 20
266.0065695148265945
 30
0.0
 40
0.0798794670943839
 50
177.0077559573136057
 51
270.8890723521359973
  0
LINE
  5
92BB
  8
0
 10
4430.759746620838996
 20
266.0107392848586869
 30
0.0
 11
4430.7598128393392471
 21
268.3778345153586997
 31
0.0
  0
LINE
  5
92BC
  8
0
 10
4435.0984681425379677
 20
269.971414966958605
 30
0.0
 11
4435.098468143761238
 21
268.832157356541984
 31
0.0
  0
ARC
  5
92BD
  8
0
 10
4428.2198384055827773
 20
198.2840749358948926
 30
0.0
 40
1.2956674695888071
 50
277.2971049253619071
 51
340.0599573340650181
  0
ARC
  5
92BE
  8
0
 10
4405.7461776573936731
 20
209.0421469206229119
 30
0.0
 40
26.205593333657049
 50
334.6981241785484258
 51
357.3368230473366793
  0
LINE
  5
92BF
  8
0
 10
4435.1984681425392409
 20
270.0359660302586917
 30
0.0
 11
4435.1984681425392409
 21
212.2736015786585995
 31
0.0
  0
ARC
  5
92C0
  8
0
 10
4433.023364235601548
 20
243.0276957840681007
 30
0.0
 40
0.7885450019640446
 50
274.4662665479622206
 51
356.3564961187468043
  0
ARC
  5
92C1
  8
0
 10
4433.4640483033535929
 20
237.1968856394896932
 30
0.0
 40
3.3030006539860381
 50
82.7482021411811246
 51
90.2649259233823358
  0
LINE
  5
92C2
  8
0
 10
4435.157697142239158
 20
270.0338293126587246
 30
0.0
 11
4435.1984681425392409
 21
270.0359660302586917
 31
0.0
  0
ARC
  5
92C3
  8
0
 10
4431.0997497855823894
 20
292.6635955808511085
 30
0.0
 40
23.8808080705674399
 50
269.1676152912262978
 51
276.0910459020332723
  0
ARC
  5
92C4
  8
0
 10
4434.662514285191719
 20
264.0302395405223024
 30
0.0
 40
4.9944754093200636
 50
93.0274795091835642
 51
101.8873600635597967
  0
ARC
  5
92C5
  8
0
 10
13263.9643198220692284
 20
-167887.9652391212875955
 30
0.0
 40
168388.6342796013050247
 50
93.0055546351912596
 51
93.0057192370183543
  0
ARC
  5
92C6
  8
0
 10
4434.8784632328370208
 20
269.105567669806419
 30
0.0
 40
0.0625483017807696
 50
273.0767498460953107
 51
359.8532436870152083
  0
LINE
  5
92C7
  8
0
 10
4434.9410113294379698
 20
269.1054074599587125
 30
0.0
 11
4434.9410113294379698
 21
269.975482513258612
 31
0.0
  0
ARC
  5
92C8
  8
0
 10
4435.0118649533596908
 20
269.9718133977698926
 30
0.0
 40
0.0709485618690094
 50
96.6998139986676364
 51
177.0356178381715893
  0
LINE
  5
92C9
  8
0
 10
4435.154596638766634
 20
193.7232460302587072
 30
0.0
 11
4435.1545983922378582
 21
211.5232626436149133
 31
0.0
  0
ARC
  5
92CA
  8
0
 10
4416.2393698933574342
 20
268.3768638971415044
 30
0.0
 40
0.082590736034968
 50
98.7086293287313197
 51
176.0578882937635115
  0
LINE
  5
92CB
  8
0
 10
4416.226864855138956
 20
268.458502452358573
 30
0.0
 11
4423.3679747870392021
 21
268.4609850039586263
 31
0.0
  0
ARC
  5
92CC
  8
0
 10
4423.3587068359902332
 20
268.3755386351763264
 30
0.0
 40
0.0859475238429649
 50
4.6549835224746277
 51
83.8096064398095137
  0
LINE
  5
92CD
  8
0
 10
4423.4443708582375621
 20
268.3825137442585742
 30
0.0
 11
4423.4443617131391875
 21
266.0059451490478182
 31
0.0
  0
ARC
  5
92CE
  8
0
 10
4423.3621274020169949
 20
266.0114750145020253
 30
0.0
 40
0.0824200299533133
 50
278.6135839955026086
 51
356.1529236846308208
  0
LINE
  5
92CF
  8
0
 10
4423.3744714300391934
 20
265.9299846082586214
 30
0.0
 11
4416.2333615052375535
 21
265.9275020565586942
 31
0.0
  0
ARC
  5
92D0
  8
0
 10
4416.2426235787652331
 20
266.0129427102652926
 30
0.0
 40
0.0859412084614658
 50
184.6514972331663103
 51
263.813091192919785
  0
LINE
  5
92D1
  8
0
 10
4416.1569654268378144
 20
266.0059733257587027
 30
0.0
 11
4416.1569745654378494
 21
268.3825418911587235
 31
0.0
  0
ARC
  5
92D2
  8
0
 10
4408.9382698933568463
 20
268.3768638971415044
 30
0.0
 40
0.082590736034968
 50
98.7086293287313197
 51
176.0578882937635115
  0
LINE
  5
92D3
  8
0
 10
4408.9257648551383681
 20
268.458502452358573
 30
0.0
 11
4416.0668747870386142
 21
268.4609850039586263
 31
0.0
  0
ARC
  5
92D4
  8
0
 10
4416.0576068359887358
 20
268.3755386351763264
 30
0.0
 40
0.0859475238429649
 50
4.6549835224746277
 51
83.8096064398095137
  0
LINE
  5
92D5
  8
0
 10
4416.1432708582378837
 20
268.3825137442585742
 30
0.0
 11
4416.1432617131385996
 21
266.0059451490478182
 31
0.0
  0
ARC
  5
92D6
  8
0
 10
4416.0610274020173165
 20
266.0114750145020253
 30
0.0
 40
0.0824200299533133
 50
278.6135839955026086
 51
356.1529236846308208
  0
LINE
  5
92D7
  8
0
 10
4416.0733714300404245
 20
265.9299846082586214
 30
0.0
 11
4408.9322615052378751
 21
265.9275020565586942
 31
0.0
  0
ARC
  5
92D8
  8
0
 10
4408.9415235787646452
 20
266.0129427102652926
 30
0.0
 40
0.0859412084614658
 50
184.6514972331663103
 51
263.813091192919785
  0
LINE
  5
92D9
  8
0
 10
4408.8558654268390455
 20
266.0059733257587027
 30
0.0
 11
4408.855874565438171
 21
268.3825418911587235
 31
0.0
  0
ARC
  5
92DA
  8
0
 10
4405.2877198933556429
 20
265.8288138971415151
 30
0.0
 40
0.082590736034968
 50
98.7086293287313197
 51
176.0578882937635115
  0
LINE
  5
92DB
  8
0
 10
4405.2752148551389837
 20
265.9104524523585837
 30
0.0
 11
4412.4163247870383202
 21
265.9129350039585802
 31
0.0
  0
ARC
  5
92DC
  8
0
 10
4412.4070568359902609
 20
265.8274886351763939
 30
0.0
 40
0.0859475238429649
 50
4.6549835224746277
 51
83.8096064398095137
  0
LINE
  5
92DD
  8
0
 10
4412.4927208582375897
 20
265.8344637442585849
 30
0.0
 11
4412.4927117131392151
 21
263.4578951490477721
 31
0.0
  0
ARC
  5
92DE
  8
0
 10
4412.410477402016113
 20
263.4634250145019223
 30
0.0
 40
0.0824200299533133
 50
278.6135839955026086
 51
356.1529236846308208
  0
LINE
  5
92DF
  8
0
 10
4412.422821430039221
 20
263.3819346082585753
 30
0.0
 11
4405.2817115052375812
 21
263.379452056558705
 31
0.0
  0
ARC
  5
92E0
  8
0
 10
4405.2909735787652608
 20
263.4648927102653033
 30
0.0
 40
0.0859412084614658
 50
184.6514972331663103
 51
263.813091192919785
  0
LINE
  5
92E1
  8
0
 10
4405.2053154268378421
 20
263.4579233257587134
 30
0.0
 11
4405.2053245654387865
 21
265.8344918911586774
 31
0.0
  0
ARC
  5
92E2
  8
0
 10
4412.5888198933571402
 20
265.8288138971415151
 30
0.0
 40
0.082590736034968
 50
98.7086293287313197
 51
176.0578882937635115
  0
LINE
  5
92E3
  8
0
 10
4412.5763148551377526
 20
265.9104524523585837
 30
0.0
 11
4419.7174247870389081
 21
265.9129350039585802
 31
0.0
  0
ARC
  5
92E4
  8
0
 10
4419.7081568359890298
 20
265.8274886351763939
 30
0.0
 40
0.0859475238429649
 50
4.6549835224746277
 51
83.8096064398095137
  0
LINE
  5
92E5
  8
0
 10
4419.7938208582390871
 20
265.8344637442585849
 30
0.0
 11
4419.7938117131388935
 21
263.4578951490477721
 31
0.0
  0
ARC
  5
92E6
  8
0
 10
4419.7115774020167009
 20
263.4634250145019223
 30
0.0
 40
0.0824200299533133
 50
278.6135839955026086
 51
356.1529236846308208
  0
LINE
  5
92E7
  8
0
 10
4419.7239214300388994
 20
263.3819346082585753
 30
0.0
 11
4412.5828115052390785
 21
263.379452056558705
 31
0.0
  0
ARC
  5
92E8
  8
0
 10
4412.5920735787658487
 20
263.4648927102653033
 30
0.0
 40
0.0859412084614658
 50
184.6514972331663103
 51
263.813091192919785
  0
LINE
  5
92E9
  8
0
 10
4412.5064154268393395
 20
263.4579233257587134
 30
0.0
 11
4412.5064245654375554
 21
265.8344918911586774
 31
0.0
  0
ARC
  5
92EA
  8
0
 10
4419.8899198933559092
 20
265.8288138971415151
 30
0.0
 40
0.082590736034968
 50
98.7086293287313197
 51
176.0578882937635115
  0
LINE
  5
92EB
  8
0
 10
4419.87741485513925
 20
265.9104524523585837
 30
0.0
 11
4427.0185247870385865
 21
265.9129350039585802
 31
0.0
  0
ARC
  5
92EC
  8
0
 10
4427.0092568359877987
 20
265.8274886351763939
 30
0.0
 40
0.0859475238429649
 50
4.6549835224746277
 51
83.8096064398095137
  0
LINE
  5
92ED
  8
0
 10
4427.094920858237856
 20
265.8344637442585849
 30
0.0
 11
4427.0949117131385719
 21
263.4578951490477721
 31
0.0
  0
ARC
  5
92EE
  8
0
 10
4427.0126774020172888
 20
263.4634250145019223
 30
0.0
 40
0.0824200299533133
 50
278.6135839955026086
 51
356.1529236846308208
  0
LINE
  5
92EF
  8
0
 10
4427.0250214300385778
 20
263.3819346082585753
 30
0.0
 11
4419.8839115052378475
 21
263.379452056558705
 31
0.0
  0
ARC
  5
92F0
  8
0
 10
4419.8931735787646176
 20
263.4648927102653033
 30
0.0
 40
0.0859412084614658
 50
184.6514972331663103
 51
263.813091192919785
  0
LINE
  5
92F1
  8
0
 10
4419.8075154268381084
 20
263.4579233257587134
 30
0.0
 11
4419.8075245654390528
 21
265.8344918911586774
 31
0.0
  0
ARC
  5
92F2
  8
0
 10
4408.9382698933568463
 20
263.2807638971414121
 30
0.0
 40
0.082590736034968
 50
98.7086293287313197
 51
176.0578882937635115
  0
LINE
  5
92F3
  8
0
 10
4408.9257648551383681
 20
263.3624024523585945
 30
0.0
 11
4416.0668747870386142
 21
263.3648850039587046
 31
0.0
  0
ARC
  5
92F4
  8
0
 10
4416.0576068359887358
 20
263.279438635176291
 30
0.0
 40
0.0859475238429649
 50
4.6549835224746277
 51
83.8096064398095137
  0
LINE
  5
92F5
  8
0
 10
4416.1432708582378837
 20
263.2864137442587094
 30
0.0
 11
4416.1432617131385996
 21
260.9098451490477828
 31
0.0
  0
ARC
  5
92F6
  8
0
 10
4416.0610274020173165
 20
260.9153750145018762
 30
0.0
 40
0.0824200299533133
 50
278.6135839955026086
 51
356.1529236846308208
  0
LINE
  5
92F7
  8
0
 10
4416.0733714300404245
 20
260.833884608258586
 30
0.0
 11
4408.9322615052378751
 21
260.8314020565587157
 31
0.0
  0
ARC
  5
92F8
  8
0
 10
4408.9415235787646452
 20
260.9168427102653141
 30
0.0
 40
0.0859412084614658
 50
184.6514972331663103
 51
263.813091192919785
  0
LINE
  5
92F9
  8
0
 10
4408.8558654268390455
 20
260.9098733257587241
 30
0.0
 11
4408.855874565438171
 21
263.2864418911586881
 31
0.0
  0
ARC
  5
92FA
  8
0
 10
4416.2393698933574342
 20
263.2807638971414121
 30
0.0
 40
0.082590736034968
 50
98.7086293287313197
 51
176.0578882937635115
  0
LINE
  5
92FB
  8
0
 10
4416.226864855138956
 20
263.3624024523585945
 30
0.0
 11
4423.3679747870392021
 21
263.3648850039587046
 31
0.0
  0
ARC
  5
92FC
  8
0
 10
4423.3587068359902332
 20
263.279438635176291
 30
0.0
 40
0.0859475238429649
 50
4.6549835224746277
 51
83.8096064398095137
  0
LINE
  5
92FD
  8
0
 10
4423.4443708582375621
 20
263.2864137442587094
 30
0.0
 11
4423.4443617131391875
 21
260.9098451490477828
 31
0.0
  0
ARC
  5
92FE
  8
0
 10
4423.3621274020169949
 20
260.9153750145018762
 30
0.0
 40
0.0824200299533133
 50
278.6135839955026086
 51
356.1529236846308208
  0
LINE
  5
92FF
  8
0
 10
4423.3744714300391934
 20
260.833884608258586
 30
0.0
 11
4416.2333615052375535
 21
260.8314020565587157
 31
0.0
  0
ARC
  5
9300
  8
0
 10
4416.2426235787652331
 20
260.9168427102653141
 30
0.0
 40
0.0859412084614658
 50
184.6514972331663103
 51
263.813091192919785
  0
LINE
  5
9301
  8
0
 10
4416.1569654268378144
 20
260.9098733257587241
 30
0.0
 11
4416.1569745654378494
 21
263.2864418911586881
 31
0.0
  0
ARC
  5
9302
  8
0
 10
4423.5404698933571126
 20
263.2807638971414121
 30
0.0
 40
0.082590736034968
 50
98.7086293287313197
 51
176.0578882937635115
  0
LINE
  5
9303
  8
0
 10
4423.527964855137725
 20
263.3624024523585945
 30
0.0
 11
4430.6690747870388805
 21
263.3648850039587046
 31
0.0
  0
ARC
  5
9304
  8
0
 10
4430.6598068359890021
 20
263.279438635176291
 30
0.0
 40
0.0859475238429649
 50
4.6549835224746277
 51
83.8096064398095137
  0
LINE
  5
9305
  8
0
 10
4430.7454708582390595
 20
263.2864137442587094
 30
0.0
 11
4430.7454617131388659
 21
260.9098451490477828
 31
0.0
  0
ARC
  5
9306
  8
0
 10
4430.6632274020166733
 20
260.9153750145018762
 30
0.0
 40
0.0824200299533133
 50
278.6135839955026086
 51
356.1529236846308208
  0
LINE
  5
9307
  8
0
 10
4430.6755714300388718
 20
260.833884608258586
 30
0.0
 11
4423.5344615052390509
 21
260.8314020565587157
 31
0.0
  0
ARC
  5
9308
  8
0
 10
4423.5437235787649115
 20
260.9168427102653141
 30
0.0
 40
0.0859412084614658
 50
184.6514972331663103
 51
263.813091192919785
  0
LINE
  5
9309
  8
0
 10
4423.4580654268393118
 20
260.9098733257587241
 30
0.0
 11
4423.4580745654384373
 21
263.2864418911586881
 31
0.0
  0
ARC
  5
930A
  8
0
 10
4419.8899198933559092
 20
260.7327138971414229
 30
0.0
 40
0.082590736034968
 50
98.7086293287313197
 51
176.0578882937635115
  0
LINE
  5
930B
  8
0
 10
4419.87741485513925
 20
260.8143524523587189
 30
0.0
 11
4427.0185247870385865
 21
260.816835003958488
 31
0.0
  0
ARC
  5
930C
  8
0
 10
4427.0092568359877987
 20
260.7313886351763017
 30
0.0
 40
0.0859475238429649
 50
4.6549835224746277
 51
83.8096064398095137
  0
LINE
  5
930D
  8
0
 10
4427.094920858237856
 20
260.7383637442587201
 30
0.0
 11
4427.0949117131385719
 21
258.3617951490476798
 31
0.0
  0
ARC
  5
930E
  8
0
 10
4427.0126774020172888
 20
258.3673250145018869
 30
0.0
 40
0.0824200299533133
 50
278.6135839955026086
 51
356.1529236846308208
  0
LINE
  5
930F
  8
0
 10
4427.0250214300385778
 20
258.2858346082585967
 30
0.0
 11
4419.8839115052378475
 21
258.2833520565587264
 31
0.0
  0
ARC
  5
9310
  8
0
 10
4419.8931735787646176
 20
258.3687927102653248
 30
0.0
 40
0.0859412084614658
 50
184.6514972331663103
 51
263.813091192919785
  0
LINE
  5
9311
  8
0
 10
4419.8075154268381084
 20
258.361823325758678
 30
0.0
 11
4419.8075245654390528
 21
260.7383918911586989
 31
0.0
  0
ARC
  5
9312
  8
0
 10
4412.5888198933571402
 20
260.7327138971414229
 30
0.0
 40
0.082590736034968
 50
98.7086293287313197
 51
176.0578882937635115
  0
LINE
  5
9313
  8
0
 10
4412.5763148551377526
 20
260.8143524523587189
 30
0.0
 11
4419.7174247870389081
 21
260.816835003958488
 31
0.0
  0
ARC
  5
9314
  8
0
 10
4419.7081568359890298
 20
260.7313886351763017
 30
0.0
 40
0.0859475238429649
 50
4.6549835224746277
 51
83.8096064398095137
  0
LINE
  5
9315
  8
0
 10
4419.7938208582390871
 20
260.7383637442587201
 30
0.0
 11
4419.7938117131388935
 21
258.3617951490476798
 31
0.0
  0
ARC
  5
9316
  8
0
 10
4419.7115774020167009
 20
258.3673250145018869
 30
0.0
 40
0.0824200299533133
 50
278.6135839955026086
 51
356.1529236846308208
  0
LINE
  5
9317
  8
0
 10
4419.7239214300388994
 20
258.2858346082585967
 30
0.0
 11
4412.5828115052390785
 21
258.2833520565587264
 31
0.0
  0
ARC
  5
9318
  8
0
 10
4412.5920735787658487
 20
258.3687927102653248
 30
0.0
 40
0.0859412084614658
 50
184.6514972331663103
 51
263.813091192919785
  0
LINE
  5
9319
  8
0
 10
4412.5064154268393395
 20
258.361823325758678
 30
0.0
 11
4412.5064245654375554
 21
260.7383918911586989
 31
0.0
  0
ARC
  5
931A
  8
0
 10
4405.2877198933556429
 20
260.7327138971414229
 30
0.0
 40
0.082590736034968
 50
98.7086293287313197
 51
176.0578882937635115
  0
LINE
  5
931B
  8
0
 10
4405.2752148551389837
 20
260.8143524523587189
 30
0.0
 11
4412.4163247870383202
 21
260.816835003958488
 31
0.0
  0
ARC
  5
931C
  8
0
 10
4412.4070568359902609
 20
260.7313886351763017
 30
0.0
 40
0.0859475238429649
 50
4.6549835224746277
 51
83.8096064398095137
  0
LINE
  5
931D
  8
0
 10
4412.4927208582375897
 20
260.7383637442587201
 30
0.0
 11
4412.4927117131392151
 21
258.3617951490476798
 31
0.0
  0
ARC
  5
931E
  8
0
 10
4412.410477402016113
 20
258.3673250145018869
 30
0.0
 40
0.0824200299533133
 50
278.6135839955026086
 51
356.1529236846308208
  0
LINE
  5
931F
  8
0
 10
4412.422821430039221
 20
258.2858346082585967
 30
0.0
 11
4405.2817115052375812
 21
258.2833520565587264
 31
0.0
  0
ARC
  5
9320
  8
0
 10
4405.2909735787652608
 20
258.3687927102653248
 30
0.0
 40
0.0859412084614658
 50
184.6514972331663103
 51
263.813091192919785
  0
LINE
  5
9321
  8
0
 10
4405.2053154268378421
 20
258.361823325758678
 30
0.0
 11
4405.2053245654387865
 21
260.7383918911586989
 31
0.0
  0
ARC
  5
9322
  8
0
 10
4408.9382698933568463
 20
258.1846638971413768
 30
0.0
 40
0.082590736034968
 50
98.7086293287313197
 51
176.0578882937635115
  0
LINE
  5
9323
  8
0
 10
4408.9257648551383681
 20
258.2663024523586728
 30
0.0
 11
4416.0668747870386142
 21
258.2687850039586124
 31
0.0
  0
ARC
  5
9324
  8
0
 10
4416.0576068359887358
 20
258.1833386351764261
 30
0.0
 40
0.0859475238429649
 50
4.6549835224746277
 51
83.8096064398095137
  0
LINE
  5
9325
  8
0
 10
4416.1432708582378837
 20
258.190313744258674
 30
0.0
 11
4416.1432617131385996
 21
255.8137451490476906
 31
0.0
  0
ARC
  5
9326
  8
0
 10
4416.0610274020173165
 20
255.8192750145018977
 30
0.0
 40
0.0824200299533133
 50
278.6135839955026086
 51
356.1529236846308208
  0
LINE
  5
9327
  8
0
 10
4416.0733714300404245
 20
255.7377846082586075
 30
0.0
 11
4408.9322615052378751
 21
255.7353020565587087
 31
0.0
  0
ARC
  5
9328
  8
0
 10
4408.9415235787646452
 20
255.8207427102653924
 30
0.0
 40
0.0859412084614658
 50
184.6514972331663103
 51
263.813091192919785
  0
LINE
  5
9329
  8
0
 10
4408.8558654268390455
 20
255.8137733257586888
 30
0.0
 11
4408.855874565438171
 21
258.1903418911585959
 31
0.0
  0
ARC
  5
932A
  8
0
 10
4416.2393698933574342
 20
258.1846638971413768
 30
0.0
 40
0.082590736034968
 50
98.7086293287313197
 51
176.0578882937635115
  0
LINE
  5
932B
  8
0
 10
4416.226864855138956
 20
258.2663024523586728
 30
0.0
 11
4423.3679747870392021
 21
258.2687850039586124
 31
0.0
  0
ARC
  5
932C
  8
0
 10
4423.3587068359902332
 20
258.1833386351764261
 30
0.0
 40
0.0859475238429649
 50
4.6549835224746277
 51
83.8096064398095137
  0
LINE
  5
932D
  8
0
 10
4423.4443708582375621
 20
258.190313744258674
 30
0.0
 11
4423.4443617131391875
 21
255.8137451490476906
 31
0.0
  0
ARC
  5
932E
  8
0
 10
4423.3621274020169949
 20
255.8192750145018977
 30
0.0
 40
0.0824200299533133
 50
278.6135839955026086
 51
356.1529236846308208
  0
LINE
  5
932F
  8
0
 10
4423.3744714300391934
 20
255.7377846082586075
 30
0.0
 11
4416.2333615052375535
 21
255.7353020565587087
 31
0.0
  0
ARC
  5
9330
  8
0
 10
4416.2426235787652331
 20
255.8207427102653924
 30
0.0
 40
0.0859412084614658
 50
184.6514972331663103
 51
263.813091192919785
  0
LINE
  5
9331
  8
0
 10
4416.1569654268378144
 20
255.8137733257586888
 30
0.0
 11
4416.1569745654378494
 21
258.1903418911585959
 31
0.0
  0
ARC
  5
9332
  8
0
 10
4423.5404698933571126
 20
258.1846638971413768
 30
0.0
 40
0.082590736034968
 50
98.7086293287313197
 51
176.0578882937635115
  0
LINE
  5
9333
  8
0
 10
4423.527964855137725
 20
258.2663024523586728
 30
0.0
 11
4430.6690747870388805
 21
258.2687850039586124
 31
0.0
  0
ARC
  5
9334
  8
0
 10
4430.6598068359890021
 20
258.1833386351764261
 30
0.0
 40
0.0859475238429649
 50
4.6549835224746277
 51
83.8096064398095137
  0
LINE
  5
9335
  8
0
 10
4430.7454708582390595
 20
258.190313744258674
 30
0.0
 11
4430.7454617131388659
 21
255.8137451490476906
 31
0.0
  0
ARC
  5
9336
  8
0
 10
4430.6632274020166733
 20
255.8192750145018977
 30
0.0
 40
0.0824200299533133
 50
278.6135839955026086
 51
356.1529236846308208
  0
LINE
  5
9337
  8
0
 10
4430.6755714300388718
 20
255.7377846082586075
 30
0.0
 11
4423.5344615052390509
 21
255.7353020565587087
 31
0.0
  0
ARC
  5
9338
  8
0
 10
4423.5437235787649115
 20
255.8207427102653924
 30
0.0
 40
0.0859412084614658
 50
184.6514972331663103
 51
263.813091192919785
  0
LINE
  5
9339
  8
0
 10
4423.4580654268393118
 20
255.8137733257586888
 30
0.0
 11
4423.4580745654384373
 21
258.1903418911585959
 31
0.0
  0
ARC
  5
933A
  8
0
 10
4419.8899198933559092
 20
255.6366138971413875
 30
0.0
 40
0.082590736034968
 50
98.7086293287313197
 51
176.0578882937635115
  0
LINE
  5
933B
  8
0
 10
4419.87741485513925
 20
255.7182524523587119
 30
0.0
 11
4427.0185247870385865
 21
255.7207350039585947
 31
0.0
  0
ARC
  5
933C
  8
0
 10
4427.0092568359877987
 20
255.6352886351764084
 30
0.0
 40
0.0859475238429649
 50
4.6549835224746277
 51
83.8096064398095137
  0
LINE
  5
933D
  8
0
 10
4427.094920858237856
 20
255.6422637442587131
 30
0.0
 11
4427.0949117131385719
 21
253.2656951490477013
 31
0.0
  0
ARC
  5
933E
  8
0
 10
4427.0126774020172888
 20
253.2712250145019937
 30
0.0
 40
0.0824200299533133
 50
278.6135839955026086
 51
356.1529236846308208
  0
LINE
  5
933F
  8
0
 10
4427.0250214300385778
 20
253.1897346082585898
 30
0.0
 11
4419.8839115052378475
 21
253.187252056558691
 31
0.0
  0
ARC
  5
9340
  8
0
 10
4419.8931735787646176
 20
253.2726927102654031
 30
0.0
 40
0.0859412084614658
 50
184.6514972331663103
 51
263.813091192919785
  0
LINE
  5
9341
  8
0
 10
4419.8075154268381084
 20
253.2657233257586995
 30
0.0
 11
4419.8075245654390528
 21
255.6422918911586066
 31
0.0
  0
ARC
  5
9342
  8
0
 10
4412.5888198933571402
 20
255.6366138971413875
 30
0.0
 40
0.082590736034968
 50
98.7086293287313197
 51
176.0578882937635115
  0
LINE
  5
9343
  8
0
 10
4412.5763148551377526
 20
255.7182524523587119
 30
0.0
 11
4419.7174247870389081
 21
255.7207350039585947
 31
0.0
  0
ARC
  5
9344
  8
0
 10
4419.7081568359890298
 20
255.6352886351764084
 30
0.0
 40
0.0859475238429649
 50
4.6549835224746277
 51
83.8096064398095137
  0
LINE
  5
9345
  8
0
 10
4419.7938208582390871
 20
255.6422637442587131
 30
0.0
 11
4419.7938117131388935
 21
253.2656951490477013
 31
0.0
  0
ARC
  5
9346
  8
0
 10
4419.7115774020167009
 20
253.2712250145019937
 30
0.0
 40
0.0824200299533133
 50
278.6135839955026086
 51
356.1529236846308208
  0
LINE
  5
9347
  8
0
 10
4419.7239214300388994
 20
253.1897346082585898
 30
0.0
 11
4412.5828115052390785
 21
253.187252056558691
 31
0.0
  0
ARC
  5
9348
  8
0
 10
4412.5920735787658487
 20
253.2726927102654031
 30
0.0
 40
0.0859412084614658
 50
184.6514972331663103
 51
263.813091192919785
  0
LINE
  5
9349
  8
0
 10
4412.5064154268393395
 20
253.2657233257586995
 30
0.0
 11
4412.5064245654375554
 21
255.6422918911586066
 31
0.0
  0
ARC
  5
934A
  8
0
 10
4405.2877198933556429
 20
255.6366138971413875
 30
0.0
 40
0.082590736034968
 50
98.7086293287313197
 51
176.0578882937635115
  0
LINE
  5
934B
  8
0
 10
4405.2752148551389837
 20
255.7182524523587119
 30
0.0
 11
4412.4163247870383202
 21
255.7207350039585947
 31
0.0
  0
ARC
  5
934C
  8
0
 10
4412.4070568359902609
 20
255.6352886351764084
 30
0.0
 40
0.0859475238429649
 50
4.6549835224746277
 51
83.8096064398095137
  0
LINE
  5
934D
  8
0
 10
4412.4927208582375897
 20
255.6422637442587131
 30
0.0
 11
4412.4927117131392151
 21
253.2656951490477013
 31
0.0
  0
ARC
  5
934E
  8
0
 10
4412.410477402016113
 20
253.2712250145019937
 30
0.0
 40
0.0824200299533133
 50
278.6135839955026086
 51
356.1529236846308208
  0
LINE
  5
934F
  8
0
 10
4412.422821430039221
 20
253.1897346082585898
 30
0.0
 11
4405.2817115052375812
 21
253.187252056558691
 31
0.0
  0
ARC
  5
9350
  8
0
 10
4405.2909735787652608
 20
253.2726927102654031
 30
0.0
 40
0.0859412084614658
 50
184.6514972331663103
 51
263.813091192919785
  0
LINE
  5
9351
  8
0
 10
4405.2053154268378421
 20
253.2657233257586995
 30
0.0
 11
4405.2053245654387865
 21
255.6422918911586066
 31
0.0
  0
ARC
  5
9352
  8
0
 10
4408.9382698933568463
 20
253.0885638971413982
 30
0.0
 40
0.082590736034968
 50
98.7086293287313197
 51
176.0578882937635115
  0
LINE
  5
9353
  8
0
 10
4408.9257648551383681
 20
253.1702024523586942
 30
0.0
 11
4416.0668747870386142
 21
253.1726850039586054
 31
0.0
  0
ARC
  5
9354
  8
0
 10
4416.0576068359887358
 20
253.0872386351763907
 30
0.0
 40
0.0859475238429649
 50
4.6549835224746277
 51
83.8096064398095137
  0
LINE
  5
9355
  8
0
 10
4416.1432708582378837
 20
253.0942137442586954
 30
0.0
 11
4416.1432617131385996
 21
250.717645149047712
 31
0.0
  0
ARC
  5
9356
  8
0
 10
4416.0610274020173165
 20
250.7231750145020044
 30
0.0
 40
0.0824200299533133
 50
278.6135839955026086
 51
356.1529236846308208
  0
LINE
  5
9357
  8
0
 10
4416.0733714300404245
 20
250.6416846082586005
 30
0.0
 11
4408.9322615052378751
 21
250.6392020565587018
 31
0.0
  0
ARC
  5
9358
  8
0
 10
4408.9415235787646452
 20
250.7246427102653001
 30
0.0
 40
0.0859412084614658
 50
184.6514972331663103
 51
263.813091192919785
  0
LINE
  5
9359
  8
0
 10
4408.8558654268390455
 20
250.7176733257585965
 30
0.0
 11
4408.855874565438171
 21
253.0942418911585889
 31
0.0
  0
ARC
  5
935A
  8
0
 10
4416.2393698933574342
 20
253.0885638971413982
 30
0.0
 40
0.082590736034968
 50
98.7086293287313197
 51
176.0578882937635115
  0
LINE
  5
935B
  8
0
 10
4416.226864855138956
 20
253.1702024523586942
 30
0.0
 11
4423.3679747870392021
 21
253.1726850039586054
 31
0.0
  0
ARC
  5
935C
  8
0
 10
4423.3587068359902332
 20
253.0872386351763907
 30
0.0
 40
0.0859475238429649
 50
4.6549835224746277
 51
83.8096064398095137
  0
LINE
  5
935D
  8
0
 10
4423.4443708582375621
 20
253.0942137442586954
 30
0.0
 11
4423.4443617131391875
 21
250.717645149047712
 31
0.0
  0
ARC
  5
935E
  8
0
 10
4423.3621274020169949
 20
250.7231750145020044
 30
0.0
 40
0.0824200299533133
 50
278.6135839955026086
 51
356.1529236846308208
  0
LINE
  5
935F
  8
0
 10
4423.3744714300391934
 20
250.6416846082586005
 30
0.0
 11
4416.2333615052375535
 21
250.6392020565587018
 31
0.0
  0
ARC
  5
9360
  8
0
 10
4416.2426235787652331
 20
250.7246427102653001
 30
0.0
 40
0.0859412084614658
 50
184.6514972331663103
 51
263.813091192919785
  0
LINE
  5
9361
  8
0
 10
4416.1569654268378144
 20
250.7176733257585965
 30
0.0
 11
4416.1569745654378494
 21
253.0942418911585889
 31
0.0
  0
ARC
  5
9362
  8
0
 10
4423.5404698933571126
 20
253.0885638971413982
 30
0.0
 40
0.082590736034968
 50
98.7086293287313197
 51
176.0578882937635115
  0
LINE
  5
9363
  8
0
 10
4423.527964855137725
 20
253.1702024523586942
 30
0.0
 11
4430.6690747870388805
 21
253.1726850039586054
 31
0.0
  0
ARC
  5
9364
  8
0
 10
4430.6598068359890021
 20
253.0872386351763907
 30
0.0
 40
0.0859475238429649
 50
4.6549835224746277
 51
83.8096064398095137
  0
LINE
  5
9365
  8
0
 10
4430.7454708582390595
 20
253.0942137442586954
 30
0.0
 11
4430.7454617131388659
 21
250.717645149047712
 31
0.0
  0
ARC
  5
9366
  8
0
 10
4430.6632274020166733
 20
250.7231750145020044
 30
0.0
 40
0.0824200299533133
 50
278.6135839955026086
 51
356.1529236846308208
  0
LINE
  5
9367
  8
0
 10
4430.6755714300388718
 20
250.6416846082586005
 30
0.0
 11
4423.5344615052390509
 21
250.6392020565587018
 31
0.0
  0
ARC
  5
9368
  8
0
 10
4423.5437235787649115
 20
250.7246427102653001
 30
0.0
 40
0.0859412084614658
 50
184.6514972331663103
 51
263.813091192919785
  0
LINE
  5
9369
  8
0
 10
4423.4580654268393118
 20
250.7176733257585965
 30
0.0
 11
4423.4580745654384373
 21
253.0942418911585889
 31
0.0
  0
ARC
  5
936A
  8
0
 10
4419.8902439856337878
 20
250.5404480526864006
 30
0.0
 40
0.082590736034968
 50
98.7086293287313197
 51
176.0578882937635115
  0
LINE
  5
936B
  8
0
 10
4419.8777389474153097
 20
250.6220866079036966
 30
0.0
 11
4427.0188488793155557
 21
250.6245691595036078
 31
0.0
  0
ARC
  5
936C
  8
0
 10
4427.0095809282656774
 20
250.5391227907213931
 30
0.0
 40
0.0859475238429649
 50
4.6549835224746277
 51
83.8096064398095137
  0
LINE
  5
936D
  8
0
 10
4427.0952449505148252
 20
250.5460978998036978
 30
0.0
 11
4427.0952358054146316
 21
248.169529304592686
 31
0.0
  0
ARC
  5
936E
  8
0
 10
4427.013001494294258
 20
248.1750591700470068
 30
0.0
 40
0.0824200299533133
 50
278.6135839955026086
 51
356.1529236846308208
  0
LINE
  5
936F
  8
0
 10
4427.025345522315547
 20
248.0935687638036882
 30
0.0
 11
4419.8842355975157261
 21
248.0910862121037042
 31
0.0
  0
ARC
  5
9370
  8
0
 10
4419.8934976710415867
 20
248.1765268658103025
 30
0.0
 40
0.0859412084614658
 50
184.6514972331663103
 51
263.813091192919785
  0
LINE
  5
9371
  8
0
 10
4419.8078395191150776
 20
248.1695574813035989
 30
0.0
 11
4419.8078486577151125
 21
250.5461260467035913
 31
0.0
  0
ARC
  5
9372
  8
0
 10
4412.5888198933571402
 20
250.540513897141409
 30
0.0
 40
0.082590736034968
 50
98.7086293287313197
 51
176.0578882937635115
  0
LINE
  5
9373
  8
0
 10
4412.5763148551377526
 20
250.622152452358705
 30
0.0
 11
4419.7174247870389081
 21
250.6246350039585877
 31
0.0
  0
ARC
  5
9374
  8
0
 10
4419.7081568359890298
 20
250.5391886351764015
 30
0.0
 40
0.0859475238429649
 50
4.6549835224746277
 51
83.8096064398095137
  0
LINE
  5
9375
  8
0
 10
4419.7938208582390871
 20
250.5461637442587062
 30
0.0
 11
4419.7938117131388935
 21
248.1695951490476943
 31
0.0
  0
ARC
  5
9376
  8
0
 10
4419.7115774020167009
 20
248.1751250145019867
 30
0.0
 40
0.0824200299533133
 50
278.6135839955026086
 51
356.1529236846308208
  0
LINE
  5
9377
  8
0
 10
4419.7239214300388994
 20
248.0936346082584976
 30
0.0
 11
4412.5828115052390785
 21
248.0911520565587125
 31
0.0
  0
ARC
  5
9378
  8
0
 10
4412.5920735787658487
 20
248.1765927102653109
 30
0.0
 40
0.0859412084614658
 50
184.6514972331663103
 51
263.813091192919785
  0
LINE
  5
9379
  8
0
 10
4412.5064154268393395
 20
248.1696233257586073
 30
0.0
 11
4412.5064245654375554
 21
250.5461918911585997
 31
0.0
  0
ARC
  5
937A
  8
0
 10
4405.2877198933556429
 20
250.540513897141409
 30
0.0
 40
0.082590736034968
 50
98.7086293287313197
 51
176.0578882937635115
  0
LINE
  5
937B
  8
0
 10
4405.2752148551389837
 20
250.622152452358705
 30
0.0
 11
4412.4163247870383202
 21
250.6246350039585877
 31
0.0
  0
ARC
  5
937C
  8
0
 10
4412.4070568359902609
 20
250.5391886351764015
 30
0.0
 40
0.0859475238429649
 50
4.6549835224746277
 51
83.8096064398095137
  0
LINE
  5
937D
  8
0
 10
4412.4927208582375897
 20
250.5461637442587062
 30
0.0
 11
4412.4927117131392151
 21
248.1695951490476943
 31
0.0
  0
ARC
  5
937E
  8
0
 10
4412.410477402016113
 20
248.1751250145019867
 30
0.0
 40
0.0824200299533133
 50
278.6135839955026086
 51
356.1529236846308208
  0
LINE
  5
937F
  8
0
 10
4412.422821430039221
 20
248.0936346082584976
 30
0.0
 11
4405.2817115052375812
 21
248.0911520565587125
 31
0.0
  0
ARC
  5
9380
  8
0
 10
4405.2909735787652608
 20
248.1765927102653109
 30
0.0
 40
0.0859412084614658
 50
184.6514972331663103
 51
263.813091192919785
  0
LINE
  5
9381
  8
0
 10
4405.2053154268378421
 20
248.1696233257586073
 30
0.0
 11
4405.2053245654387865
 21
250.5461918911585997
 31
0.0
  0
ARC
  5
9382
  8
0
 10
4408.9382698933568463
 20
247.9924638971413913
 30
0.0
 40
0.082590736034968
 50
98.7086293287313197
 51
176.0578882937635115
  0
LINE
  5
9383
  8
0
 10
4408.9257648551383681
 20
248.074102452358602
 30
0.0
 11
4416.0668747870386142
 21
248.0765850039585985
 31
0.0
  0
ARC
  5
9384
  8
0
 10
4416.0576068359887358
 20
247.9911386351764122
 30
0.0
 40
0.0859475238429649
 50
4.6549835224746277
 51
83.8096064398095137
  0
LINE
  5
9385
  8
0
 10
4416.1432708582378837
 20
247.9981137442586032
 30
0.0
 11
4416.1432617131385996
 21
245.6215451490477051
 31
0.0
  0
ARC
  5
9386
  8
0
 10
4416.0610274020173165
 20
245.6270750145019974
 30
0.0
 40
0.0824200299533133
 50
278.6135839955026086
 51
356.1529236846308208
  0
LINE
  5
9387
  8
0
 10
4416.0733714300404245
 20
245.5455846082585083
 30
0.0
 11
4408.9322615052378751
 21
245.5431020565586095
 31
0.0
  0
ARC
  5
9388
  8
0
 10
4408.9415235787646452
 20
245.6285427102652932
 30
0.0
 40
0.0859412084614658
 50
184.6514972331663103
 51
263.813091192919785
  0
LINE
  5
9389
  8
0
 10
4408.8558654268390455
 20
245.6215733257585896
 30
0.0
 11
4408.855874565438171
 21
247.9981418911586104
 31
0.0
  0
ARC
  5
938A
  8
0
 10
4416.2393698933574342
 20
247.9924638971413913
 30
0.0
 40
0.082590736034968
 50
98.7086293287313197
 51
176.0578882937635115
  0
LINE
  5
938B
  8
0
 10
4416.226864855138956
 20
248.074102452358602
 30
0.0
 11
4423.3679747870392021
 21
248.0765850039585985
 31
0.0
  0
ARC
  5
938C
  8
0
 10
4423.3587068359902332
 20
247.9911386351764122
 30
0.0
 40
0.0859475238429649
 50
4.6549835224746277
 51
83.8096064398095137
  0
LINE
  5
938D
  8
0
 10
4423.4443708582375621
 20
247.9981137442586032
 30
0.0
 11
4423.4443617131391875
 21
245.6215451490477051
 31
0.0
  0
ARC
  5
938E
  8
0
 10
4423.3621274020169949
 20
245.6270750145019974
 30
0.0
 40
0.0824200299533133
 50
278.6135839955026086
 51
356.1529236846308208
  0
LINE
  5
938F
  8
0
 10
4423.3744714300391934
 20
245.5455846082585083
 30
0.0
 11
4416.2333615052375535
 21
245.5431020565586095
 31
0.0
  0
ARC
  5
9390
  8
0
 10
4416.2426235787652331
 20
245.6285427102652932
 30
0.0
 40
0.0859412084614658
 50
184.6514972331663103
 51
263.813091192919785
  0
LINE
  5
9391
  8
0
 10
4416.1569654268378144
 20
245.6215733257585896
 30
0.0
 11
4416.1569745654378494
 21
247.9981418911586104
 31
0.0
  0
ARC
  5
9392
  8
0
 10
4423.5404698933571126
 20
247.9924638971413913
 30
0.0
 40
0.082590736034968
 50
98.7086293287313197
 51
176.0578882937635115
  0
LINE
  5
9393
  8
0
 10
4423.527964855137725
 20
248.074102452358602
 30
0.0
 11
4430.6690747870388805
 21
248.0765850039585985
 31
0.0
  0
ARC
  5
9394
  8
0
 10
4430.6598068359890021
 20
247.9911386351764122
 30
0.0
 40
0.0859475238429649
 50
4.6549835224746277
 51
83.8096064398095137
  0
LINE
  5
9395
  8
0
 10
4430.7454708582390595
 20
247.9981137442586032
 30
0.0
 11
4430.7454617131388659
 21
245.6215451490477051
 31
0.0
  0
ARC
  5
9396
  8
0
 10
4430.6632274020166733
 20
245.6270750145019974
 30
0.0
 40
0.0824200299533133
 50
278.6135839955026086
 51
356.1529236846308208
  0
LINE
  5
9397
  8
0
 10
4430.6755714300388718
 20
245.5455846082585083
 30
0.0
 11
4423.5344615052390509
 21
245.5431020565586095
 31
0.0
  0
ARC
  5
9398
  8
0
 10
4423.5437235787649115
 20
245.6285427102652932
 30
0.0
 40
0.0859412084614658
 50
184.6514972331663103
 51
263.813091192919785
  0
LINE
  5
9399
  8
0
 10
4423.4580654268393118
 20
245.6215733257585896
 30
0.0
 11
4423.4580745654384373
 21
247.9981418911586104
 31
0.0
  0
ARC
  5
939A
  8
0
 10
4419.8899198933559092
 20
245.444413897141402
 30
0.0
 40
0.082590736034968
 50
98.7086293287313197
 51
176.0578882937635115
  0
LINE
  5
939B
  8
0
 10
4419.87741485513925
 20
245.5260524523586128
 30
0.0
 11
4427.0185247870385865
 21
245.5285350039586092
 31
0.0
  0
ARC
  5
939C
  8
0
 10
4427.0092568359877987
 20
245.4430886351763945
 30
0.0
 40
0.0859475238429649
 50
4.6549835224746277
 51
83.8096064398095137
  0
LINE
  5
939D
  8
0
 10
4427.094920858237856
 20
245.450063744258614
 30
0.0
 11
4427.0949117131385719
 21
243.0734951490478011
 31
0.0
  0
ARC
  5
939E
  8
0
 10
4427.0126774020172888
 20
243.0790250145020082
 30
0.0
 40
0.0824200299533133
 50
278.6135839955026086
 51
356.1529236846308208
  0
LINE
  5
939F
  8
0
 10
4427.0250214300385778
 20
242.9975346082584906
 30
0.0
 11
4419.8839115052378475
 21
242.9950520565585919
 31
0.0
  0
ARC
  5
93A0
  8
0
 10
4419.8931735787646176
 20
243.0804927102653039
 30
0.0
 40
0.0859412084614658
 50
184.6514972331663103
 51
263.813091192919785
  0
LINE
  5
93A1
  8
0
 10
4419.8075154268381084
 20
243.0735233257586003
 30
0.0
 11
4419.8075245654390528
 21
245.4500918911587064
 31
0.0
  0
ARC
  5
93A2
  8
0
 10
4412.5888198933571402
 20
245.444413897141402
 30
0.0
 40
0.082590736034968
 50
98.7086293287313197
 51
176.0578882937635115
  0
LINE
  5
93A3
  8
0
 10
4412.5763148551377526
 20
245.5260524523586128
 30
0.0
 11
4419.7174247870389081
 21
245.5285350039586092
 31
0.0
  0
ARC
  5
93A4
  8
0
 10
4419.7081568359890298
 20
245.4430886351763945
 30
0.0
 40
0.0859475238429649
 50
4.6549835224746277
 51
83.8096064398095137
  0
LINE
  5
93A5
  8
0
 10
4419.7938208582390871
 20
245.450063744258614
 30
0.0
 11
4419.7938117131388935
 21
243.0734951490478011
 31
0.0
  0
ARC
  5
93A6
  8
0
 10
4419.7115774020167009
 20
243.0790250145020082
 30
0.0
 40
0.0824200299533133
 50
278.6135839955026086
 51
356.1529236846308208
  0
LINE
  5
93A7
  8
0
 10
4419.7239214300388994
 20
242.9975346082584906
 30
0.0
 11
4412.5828115052390785
 21
242.9950520565585919
 31
0.0
  0
ARC
  5
93A8
  8
0
 10
4412.5920735787658487
 20
243.0804927102653039
 30
0.0
 40
0.0859412084614658
 50
184.6514972331663103
 51
263.813091192919785
  0
LINE
  5
93A9
  8
0
 10
4412.5064154268393395
 20
243.0735233257586003
 30
0.0
 11
4412.5064245654375554
 21
245.4500918911587064
 31
0.0
  0
ARC
  5
93AA
  8
0
 10
4405.2877198933556429
 20
245.444413897141402
 30
0.0
 40
0.082590736034968
 50
98.7086293287313197
 51
176.0578882937635115
  0
LINE
  5
93AB
  8
0
 10
4405.2752148551389837
 20
245.5260524523586128
 30
0.0
 11
4412.4163247870383202
 21
245.5285350039586092
 31
0.0
  0
ARC
  5
93AC
  8
0
 10
4412.4070568359902609
 20
245.4430886351763945
 30
0.0
 40
0.0859475238429649
 50
4.6549835224746277
 51
83.8096064398095137
  0
LINE
  5
93AD
  8
0
 10
4412.4927208582375897
 20
245.450063744258614
 30
0.0
 11
4412.4927117131392151
 21
243.0734951490478011
 31
0.0
  0
ARC
  5
93AE
  8
0
 10
4412.410477402016113
 20
243.0790250145020082
 30
0.0
 40
0.0824200299533133
 50
278.6135839955026086
 51
356.1529236846308208
  0
LINE
  5
93AF
  8
0
 10
4412.422821430039221
 20
242.9975346082584906
 30
0.0
 11
4405.2817115052375812
 21
242.9950520565585919
 31
0.0
  0
ARC
  5
93B0
  8
0
 10
4405.2909735787652608
 20
243.0804927102653039
 30
0.0
 40
0.0859412084614658
 50
184.6514972331663103
 51
263.813091192919785
  0
LINE
  5
93B1
  8
0
 10
4405.2053154268378421
 20
243.0735233257586003
 30
0.0
 11
4405.2053245654387865
 21
245.4500918911587064
 31
0.0
  0
ARC
  5
93B2
  8
0
 10
4435.4454064262472457
 20
262.9754797046714998
 30
0.0
 40
1.6165649126030699
 50
166.0368440684499944
 51
178.7003171073741896
  0
LINE
  5
93B3
  8
0
 10
4433.8292573994231134
 20
263.0121463074003145
 30
0.0
 11
4433.8292573987391734
 21
261.184143530259405
 31
0.0
  0
ARC
  5
93B4
  8
0
 10
4435.4470512053330822
 20
261.221027449484609
 30
0.0
 40
1.618214208364283
 50
181.3060544878989901
 51
193.9566661938872869
  0
ARC
  5
93B5
  8
0
 10
4430.8393330597582462
 20
263.2859154294906148
 30
0.0
 40
0.0796300539901669
 50
89.0823246575048557
 51
183.0096542621280946
  0
LINE
  5
93B6
  8
0
 10
4430.8406083965010112
 20
263.3655352700748722
 30
0.0
 11
4433.8766092389387268
 21
263.3655534178998892
 31
0.0
  0
LINE
  5
93B7
  8
0
 10
4433.8766092395526357
 20
260.830733641859581
 30
0.0
 11
4430.8407566401856457
 21
260.8305996644181164
 31
0.0
  0
ARC
  5
93B8
  8
0
 10
4430.8395171810789179
 20
260.9104695148275255
 30
0.0
 40
0.0798794670943839
 50
177.0077559573136057
 51
270.8890723521359973
  0
LINE
  5
93B9
  8
0
 10
4430.759746620838996
 20
260.9146392848595042
 30
0.0
 11
4430.7598128393392471
 21
263.2817345153594033
 31
0.0
  0
ARC
  5
93BA
  8
0
 10
4430.8393330597582462
 20
258.1898154294908068
 30
0.0
 40
0.0796300539901669
 50
89.0823246575048557
 51
183.0096542621280946
  0
LINE
  5
93BB
  8
0
 10
4430.8406083965010112
 20
258.269435270075121
 30
0.0
 11
4433.8766092389387268
 21
258.2694534179000811
 31
0.0
  0
LINE
  5
93BC
  8
0
 10
4433.8766092395526357
 20
255.7346336418598014
 30
0.0
 11
4430.8407566401856457
 21
255.7344996644183084
 31
0.0
  0
ARC
  5
93BD
  8
0
 10
4430.8395171810789179
 20
255.8143695148276038
 30
0.0
 40
0.0798794670943839
 50
177.0077559573136057
 51
270.8890723521359973
  0
LINE
  5
93BE
  8
0
 10
4430.759746620838996
 20
255.8185392848596109
 30
0.0
 11
4430.7598128393392471
 21
258.1856345153595953
 31
0.0
  0
ARC
  5
93BF
  8
0
 10
4435.4453945330296847
 20
252.7832797037804937
 30
0.0
 40
1.6165649126030699
 50
166.0368440684499944
 51
178.7003171073741896
  0
LINE
  5
93C0
  8
0
 10
4433.8292455062055524
 20
252.8199463065091948
 30
0.0
 11
4433.8292455055207029
 21
250.9919435293683989
 31
0.0
  0
ARC
  5
93C1
  8
0
 10
4435.4470393121173402
 20
251.0288274485936029
 30
0.0
 40
1.618214208364283
 50
181.3060544878989901
 51
193.9566661938872869
  0
ARC
  5
93C2
  8
0
 10
4430.8393211665406852
 20
253.0937154285996087
 30
0.0
 40
0.0796300539901669
 50
89.0823246575048557
 51
183.0096542621280946
  0
LINE
  5
93C3
  8
0
 10
4430.8405965032843596
 20
253.1733352691838945
 30
0.0
 11
4433.8765973457211658
 21
253.1733534170089115
 31
0.0
  0
LINE
  5
93C4
  8
0
 10
4433.8765973463359842
 20
250.6385336409686033
 30
0.0
 11
4430.8407447469680847
 21
250.6383996635269966
 31
0.0
  0
ARC
  5
93C5
  8
0
 10
4430.8395052878622664
 20
250.7182695139364057
 30
0.0
 40
0.0798794670943839
 50
177.0077559573136057
 51
270.8890723521359973
  0
LINE
  5
93C6
  8
0
 10
4430.759734727621435
 20
250.7224392839684981
 30
0.0
 11
4430.7598009461207766
 21
253.0895345144685109
 31
0.0
  0
ARC
  5
93C7
  8
0
 10
4435.4454067515225688
 20
247.6871796622081945
 30
0.0
 40
1.616565238696688
 50
166.0368453636465915
 51
178.7003164681044041
  0
LINE
  5
93C8
  8
0
 10
4433.8292573990984238
 20
247.7238462903652874
 30
0.0
 11
4433.8292573984126648
 21
245.8958435132244915
 31
0.0
  0
ARC
  5
93C9
  8
0
 10
4435.4470508409231115
 20
245.9327274039956137
 30
0.0
 40
1.6182138437253071
 50
181.3060537745205067
 51
193.9566677405130974
  0
ARC
  5
93CA
  8
0
 10
4430.8393330900662477
 20
247.9976154022295134
 30
0.0
 40
0.0796300831407492
 50
89.0823468040049704
 51
183.0096337336011914
  0
LINE
  5
93CB
  8
0
 10
4430.8406083965010112
 20
248.0772352724534926
 30
0.0
 11
4433.8766092389387268
 21
248.0772534186585858
 31
0.0
  0
LINE
  5
93CC
  8
0
 10
4433.8766092395526357
 20
245.5424336419252995
 30
0.0
 11
4430.8407590872157016
 21
245.5422996257152874
 31
0.0
  0
ARC
  5
93CD
  8
0
 10
4430.8395166761411019
 20
245.622168089228694
 30
0.0
 40
0.0798781262253188
 50
177.0066720221026912
 51
270.8912049506047879
  0
LINE
  5
93CE
  8
0
 10
4430.7597475338388904
 20
245.6263392983586016
 30
0.0
 11
4430.7598128390382044
 21
247.9934345150591923
 31
0.0
  0
ARC
  5
93CF
  8
0
 10
4427.1910198933574065
 20
265.8288138971415151
 30
0.0
 40
0.082590736034968
 50
98.7086293287313197
 51
176.0578882937635115
  0
LINE
  5
93D0
  8
0
 10
4427.1785148551380189
 20
265.9104524523585837
 30
0.0
 11
4433.8766092365640361
 21
265.9127809930312196
 31
0.0
  0
LINE
  5
93D1
  8
0
 10
4433.8766092389387268
 20
263.3817783388179237
 30
0.0
 11
4427.1850115052402543
 21
263.379452056558705
 31
0.0
  0
ARC
  5
93D2
  8
0
 10
4427.1942735787652055
 20
263.4648927102653033
 30
0.0
 40
0.0859412084614658
 50
184.6514972331663103
 51
263.813091192919785
  0
LINE
  5
93D3
  8
0
 10
4427.1086154268377868
 20
263.4579233257587134
 30
0.0
 11
4427.1086245654378217
 21
265.8344918911586774
 31
0.0
  0
ARC
  5
93D4
  8
0
 10
4435.3428307128970118
 20
263.7515627205647775
 30
0.0
 40
1.4985765344588109
 50
180.7402684163834863
 51
191.0635674596531999
  0
LINE
  5
93D5
  8
0
 10
4433.8443792550369835
 20
263.7322014687617866
 30
0.0
 11
4433.8443901888076653
 21
265.5602079493119163
 31
0.0
  0
ARC
  5
93D6
  8
0
 10
4435.3725125034088705
 20
265.5378768791077277
 30
0.0
 40
1.5282854723779731
 50
169.0872382838946919
 51
179.1627731654062075
  0
ARC
  5
93D7
  8
0
 10
4427.1910198933574065
 20
260.7327138971414797
 30
0.0
 40
0.082590736034968
 50
98.7086293287313197
 51
176.0578882937635115
  0
LINE
  5
93D8
  8
0
 10
4427.1785148551380189
 20
260.8143524523587189
 30
0.0
 11
4433.8766092394389489
 21
260.8166809930322074
 31
0.0
  0
LINE
  5
93D9
  8
0
 10
4433.8766092394180305
 20
258.285678338818002
 30
0.0
 11
4427.1850115052402543
 21
258.2833520565587264
 31
0.0
  0
ARC
  5
93DA
  8
0
 10
4427.1942735787652055
 20
258.3687927102653248
 30
0.0
 40
0.0859412084614658
 50
184.6514972331663103
 51
263.813091192919785
  0
LINE
  5
93DB
  8
0
 10
4427.1086154268377868
 20
258.361823325758678
 30
0.0
 11
4427.1086245654378217
 21
260.7383918911586989
 31
0.0
  0
ARC
  5
93DC
  8
0
 10
4435.3428307128970118
 20
258.6554627205649126
 30
0.0
 40
1.4985765344588109
 50
180.7402684163834863
 51
191.0635674596531999
  0
LINE
  5
93DD
  8
0
 10
4433.8443792550369835
 20
258.6361014687618081
 30
0.0
 11
4433.8443901888076653
 21
260.4641079493119946
 31
0.0
  0
ARC
  5
93DE
  8
0
 10
4435.3725125034088705
 20
260.4417768791076924
 30
0.0
 40
1.5282854723779731
 50
169.0872382838946919
 51
179.1627731654062075
  0
ARC
  5
93DF
  8
0
 10
4427.1910198933574065
 20
255.6366138971413875
 30
0.0
 40
0.082590736034968
 50
98.7086293287313197
 51
176.0578882937635115
  0
LINE
  5
93E0
  8
0
 10
4427.1785148551380189
 20
255.7182524523587119
 30
0.0
 11
4433.8766092394371299
 21
255.7205809930322005
 31
0.0
  0
LINE
  5
93E1
  8
0
 10
4433.8765999333718355
 20
253.1895783355828087
 30
0.0
 11
4427.1850115052402543
 21
253.187252056558691
 31
0.0
  0
ARC
  5
93E2
  8
0
 10
4427.1942735787652055
 20
253.2726927102654031
 30
0.0
 40
0.0859412084614658
 50
184.6514972331663103
 51
263.813091192919785
  0
LINE
  5
93E3
  8
0
 10
4427.1086154268377868
 20
253.2657233257586995
 30
0.0
 11
4427.1086245654378217
 21
255.6422918911586066
 31
0.0
  0
ARC
  5
93E4
  8
0
 10
4435.3428307128970118
 20
253.559362720564792
 30
0.0
 40
1.4985765344588109
 50
180.7402684163834863
 51
191.0635674596531999
  0
LINE
  5
93E5
  8
0
 10
4433.8443792550369835
 20
253.5400014687618011
 30
0.0
 11
4433.8443901888076653
 21
255.3680079493119877
 31
0.0
  0
ARC
  5
93E6
  8
0
 10
4435.3725125034088705
 20
255.3456768791077138
 30
0.0
 40
1.5282854723782251
 50
169.0872382838963119
 51
179.1627731654062075
  0
ARC
  5
93E7
  8
0
 10
4427.1910198933574065
 20
250.540513897141409
 30
0.0
 40
0.082590736034968
 50
98.7086293287313197
 51
176.0578882937635115
  0
LINE
  5
93E8
  8
0
 10
4427.1785148551380189
 20
250.622152452358705
 30
0.0
 11
4433.8765995910571291
 21
250.6244809896780055
 31
0.0
  0
LINE
  5
93E9
  8
0
 10
4433.8766092389387268
 20
248.0934783388179028
 30
0.0
 11
4427.1850115052402543
 21
248.0911520565587125
 31
0.0
  0
ARC
  5
93EA
  8
0
 10
4427.1942735787652055
 20
248.1765927102653109
 30
0.0
 40
0.0859412084614658
 50
184.6514972331663103
 51
263.813091192919785
  0
LINE
  5
93EB
  8
0
 10
4427.1086154268377868
 20
248.1696233257586073
 30
0.0
 11
4427.1086245654378217
 21
250.5461918911585997
 31
0.0
  0
ARC
  5
93EC
  8
0
 10
4435.3428307128970118
 20
248.4632627205648134
 30
0.0
 40
1.4985765344588109
 50
180.7402684163834863
 51
191.0635674596531999
  0
LINE
  5
93ED
  8
0
 10
4433.8443792550369835
 20
248.4439014687619078
 30
0.0
 11
4433.8443901888076653
 21
250.2719079493120091
 31
0.0
  0
ARC
  5
93EE
  8
0
 10
4435.3725125034088705
 20
250.2495768791075932
 30
0.0
 40
1.528285472378434
 50
169.0872382838963119
 51
179.1627731654012905
  0
ARC
  5
93EF
  8
0
 10
4427.1910198933574065
 20
245.444413897141402
 30
0.0
 40
0.082590736034968
 50
98.7086293287313197
 51
176.0578882937635115
  0
LINE
  5
93F0
  8
0
 10
4427.1785148551380189
 20
245.5260524523586128
 30
0.0
 11
4433.876609240702237
 21
245.5283809930326129
 31
0.0
  0
LINE
  5
93F1
  8
0
 10
4433.8766094659540613
 20
242.9973783388967092
 30
0.0
 11
4427.1850115052402543
 21
242.9950520565585919
 31
0.0
  0
ARC
  5
93F2
  8
0
 10
4427.1942735787652055
 20
243.0804927102653039
 30
0.0
 40
0.0859412084614658
 50
184.6514972331663103
 51
263.813091192919785
  0
LINE
  5
93F3
  8
0
 10
4427.1086154268377868
 20
243.0735233257586003
 30
0.0
 11
4427.1086245654378217
 21
245.4500918911587064
 31
0.0
  0
ARC
  5
93F4
  8
0
 10
4435.3428307128970118
 20
243.3671627205648065
 30
0.0
 40
1.4985765344588109
 50
180.7402684163834863
 51
191.0635674596531999
  0
LINE
  5
93F5
  8
0
 10
4433.8443792550369835
 20
243.3478014687617872
 30
0.0
 11
4433.8443901888076653
 21
245.1758079493118885
 31
0.0
  0
ARC
  5
93F6
  8
0
 10
4435.3725125034088705
 20
245.1534768791075862
 30
0.0
 40
1.52828547237819
 50
169.0872382838963119
 51
179.1627731654062075
  0
LINE
  5
93F7
  8
0
 10
4433.8766092360110633
 20
265.9268336418587069
 30
0.0
 11
4433.8766092389387268
 21
265.8523824018323012
 31
0.0
  0
LINE
  5
93F8
  8
0
 10
4433.8766092389387268
 20
265.8523824018323012
 30
0.0
 11
4433.8718636738385612
 21
265.8272029501587213
 31
0.0
  0
LINE
  5
93F9
  8
0
 10
4433.8766092389387268
 20
263.3655534178998892
 30
0.0
 11
4433.8766092389387268
 21
263.440125525958706
 31
0.0
  0
LINE
  5
93FA
  8
0
 10
4433.8766092389387268
 20
263.440125525958706
 30
0.0
 11
4433.8721053969884451
 21
263.4639889478085024
 31
0.0
  0
LINE
  5
93FB
  8
0
 10
4433.8766092395553642
 20
260.830733641851225
 30
0.0
 11
4433.8766092389387268
 21
260.7562822422585782
 31
0.0
  0
LINE
  5
93FC
  8
0
 10
4433.8766092389387268
 20
260.7562822422585782
 30
0.0
 11
4433.8718636738385612
 21
260.7311029501585722
 31
0.0
  0
LINE
  5
93FD
  8
0
 10
4433.8766092395517262
 20
258.269453417799582
 30
0.0
 11
4433.8766092389387268
 21
258.3440255259586138
 31
0.0
  0
LINE
  5
93FE
  8
0
 10
4433.8766092389387268
 20
258.3440255259586138
 30
0.0
 11
4433.8721053969884451
 21
258.3678889478077281
 31
0.0
  0
LINE
  5
93FF
  8
0
 10
4433.8766092395526357
 20
255.7346336419207944
 30
0.0
 11
4433.8766092389387268
 21
255.6601822422587134
 31
0.0
  0
LINE
  5
9400
  8
0
 10
4433.8766092389387268
 20
255.6601822422587134
 30
0.0
 11
4433.8718636738385612
 21
255.6350029501587073
 31
0.0
  0
LINE
  5
9401
  8
0
 10
4433.8765973457211658
 20
253.1733534170089115
 30
0.0
 11
4433.8766092389387268
 21
253.2479255259586068
 31
0.0
  0
LINE
  5
9402
  8
0
 10
4433.8766092389387268
 20
253.2479255259586068
 30
0.0
 11
4433.8721053969884451
 21
253.2717889478078064
 31
0.0
  0
LINE
  5
9403
  8
0
 10
4433.8765973463359842
 20
250.6385336409684896
 30
0.0
 11
4433.8766092389387268
 21
250.5640822422587064
 31
0.0
  0
LINE
  5
9404
  8
0
 10
4433.8766092389387268
 20
250.5640822422587064
 30
0.0
 11
4433.8718636738385612
 21
250.5389029501587004
 31
0.0
  0
LINE
  5
9405
  8
0
 10
4433.8766092389387268
 20
248.0772534186585858
 30
0.0
 11
4433.8766092389387268
 21
248.1518255259587136
 31
0.0
  0
LINE
  5
9406
  8
0
 10
4433.8766092389387268
 20
248.1518255259587136
 30
0.0
 11
4433.8721053963827217
 21
248.1756889509096879
 31
0.0
  0
LINE
  5
9407
  8
0
 10
4433.8766092395526357
 20
245.5424336419252995
 30
0.0
 11
4433.8766092456389742
 21
245.4679822770586952
 31
0.0
  0
LINE
  5
9408
  8
0
 10
4433.8766092456389742
 20
245.4679822770586952
 30
0.0
 11
4433.8718636738385612
 21
245.4428029501586934
 31
0.0
  0
LINE
  5
9409
  8
0
 10
4433.8716375960621008
 20
242.9084153782659996
 30
0.0
 11
4433.8766094717348096
 21
242.9327232565956081
 31
0.0
  0
LINE
  5
940A
  8
0
 10
4433.8766094717348096
 20
242.9327232565956081
 30
0.0
 11
4433.8766094607390187
 21
243.0557243683587103
 31
0.0
  0
LINE
  5
940B
  8
0
 10
4433.8766094607390187
 20
243.0557243683587103
 30
0.0
 11
4433.8721053969884451
 21
243.0795889478075082
 31
0.0
  0
ARC
  5
940C
  8
0
 10
4435.2889166661198033
 20
242.6145568847285858
 30
0.0
 40
1.447422805074277
 50
168.2862739863302863
 51
179.4780272873474019
  0
LINE
  5
940D
  8
0
 10
4433.841553924838081
 20
242.6277429302587052
 30
0.0
 11
4433.841553924838081
 21
240.7997429302585886
 31
0.0
  0
ARC
  5
940E
  8
0
 10
4435.4254832027590965
 20
240.8256482580445947
 30
0.0
 40
1.584141105917636
 50
180.9369948830079124
 51
193.603961973648012
  0
ARC
  5
940F
  8
0
 10
4433.7015893846837571
 20
241.4101222167525123
 30
0.0
 40
1.5712292105843659
 50
86.032072078377638
 51
89.793691400008484
  0
ARC
  5
9410
  8
0
 10
4433.2626391334160871
 20
194.7032782982136894
 30
0.0
 40
45.8125990487561694
 50
89.2369514715604453
 51
89.481272129122658
  0
ARC
  5
9411
  8
0
 10
4405.2877775481865683
 20
240.3482578366335929
 30
0.0
 40
0.0826573140842531
 50
98.7882941876520562
 51
176.0416938207403064
  0
LINE
  5
9412
  8
0
 10
4405.2751488386384153
 20
240.4299447221586945
 30
0.0
 11
4412.4228871976392838
 21
240.4299432659585989
 31
0.0
  0
ARC
  5
9413
  8
0
 10
4412.410271196328722
 20
240.3482761325363981
 30
0.0
 40
0.0826358528148742
 50
3.9639699068362289
 51
81.2183212518673656
  0
LINE
  5
9414
  8
0
 10
4412.4927093609576332
 20
240.3539886786415138
 30
0.0
 11
4412.492718875681021
 21
237.9774233444665867
 31
0.0
  0
ARC
  5
9415
  8
0
 10
4412.4102408956778163
 20
237.9831456209396947
 30
0.0
 40
0.0826762458821125
 50
278.7987771596183961
 51
356.0312104063337983
  0
LINE
  5
9416
  8
0
 10
4412.4228874465379704
 20
237.9014423383586063
 30
0.0
 11
4405.2751490905384344
 21
237.9016934505586107
 31
0.0
  0
ARC
  5
9417
  8
0
 10
4405.287219244057269
 20
237.9828766287357951
 30
0.0
 40
0.0820755568051146
 50
183.8293813992376045
 51
261.5433263201658178
  0
LINE
  5
9418
  8
0
 10
4405.2053269331017873
 20
237.9773951661863975
 30
0.0
 11
4405.2053174091961409
 21
240.3539637151239106
 31
0.0
  0
ARC
  5
9419
  8
0
 10
4412.5888775481862467
 20
240.3482578366335929
 30
0.0
 40
0.0826573140842531
 50
98.7882941876520562
 51
176.0416938207403064
  0
LINE
  5
941A
  8
0
 10
4412.5762488386390032
 20
240.4299447221586945
 30
0.0
 11
4419.7239871976389622
 21
240.4299432659585989
 31
0.0
  0
ARC
  5
941B
  8
0
 10
4419.7113711963302194
 20
240.3482761325363981
 30
0.0
 40
0.0826358528148742
 50
3.9639699068362289
 51
81.2183212518673656
  0
LINE
  5
941C
  8
0
 10
4419.7938093609591306
 20
240.3539886786415138
 30
0.0
 11
4419.7938188756806994
 21
237.9774233444665015
 31
0.0
  0
ARC
  5
941D
  8
0
 10
4419.7113408956793137
 20
237.9831456209396947
 30
0.0
 40
0.0826762458821125
 50
278.7987771596183961
 51
356.0312104063337983
  0
LINE
  5
941E
  8
0
 10
4419.7239874465385583
 20
237.9014423383586063
 30
0.0
 11
4412.5762490905381128
 21
237.9016934505586107
 31
0.0
  0
ARC
  5
941F
  8
0
 10
4412.5883192440560379
 20
237.9828766287357951
 30
0.0
 40
0.0820755568051146
 50
183.8293813992376045
 51
261.5433263201658178
  0
LINE
  5
9420
  8
0
 10
4412.5064269331032847
 20
237.9773951661863975
 30
0.0
 11
4412.5064174091958193
 21
240.3539637151239106
 31
0.0
  0
ARC
  5
9421
  8
0
 10
4419.8899775481859251
 20
240.3482578366335929
 30
0.0
 40
0.0826573140842531
 50
98.7882941876520562
 51
176.0416938207403064
  0
LINE
  5
9422
  8
0
 10
4419.8773488386377721
 20
240.4299447221586945
 30
0.0
 11
4427.0250871976377312
 21
240.4299432659585989
 31
0.0
  0
ARC
  5
9423
  8
0
 10
4427.0124711963298978
 20
240.3482761325363981
 30
0.0
 40
0.0826358528148742
 50
3.9639699068362289
 51
81.2183212518673656
  0
LINE
  5
9424
  8
0
 10
4427.094909360958809
 20
240.3539886786415138
 30
0.0
 11
4427.0949188756803778
 21
237.9774233444665015
 31
0.0
  0
ARC
  5
9425
  8
0
 10
4427.0124408956780826
 20
237.9831456209396947
 30
0.0
 40
0.0826762458821125
 50
278.7987771596183961
 51
356.0312104063337983
  0
LINE
  5
9426
  8
0
 10
4427.0250874465382367
 20
237.9014423383586063
 30
0.0
 11
4419.8773490905387007
 21
237.9016934505586107
 31
0.0
  0
ARC
  5
9427
  8
0
 10
4419.8894192440548068
 20
237.9828766287357951
 30
0.0
 40
0.0820755568051146
 50
183.8293813992376045
 51
261.5433263201658178
  0
LINE
  5
9428
  8
0
 10
4419.8075269331020536
 20
237.9773951661863975
 30
0.0
 11
4419.8075174091945883
 21
240.3539637151239106
 31
0.0
  0
ARC
  5
9429
  8
0
 10
4423.5405275481862191
 20
237.8002078366336036
 30
0.0
 40
0.0826573140842531
 50
98.7882941876520562
 51
176.0416938207403064
  0
LINE
  5
942A
  8
0
 10
4423.5278988386389756
 20
237.8818947221587052
 30
0.0
 11
4430.6756371976389346
 21
237.8818932659586096
 31
0.0
  0
ARC
  5
942B
  8
0
 10
4430.6630211963301917
 20
237.8002261325364088
 30
0.0
 40
0.0826358528148742
 50
3.9639699068362289
 51
81.2183212518673656
  0
LINE
  5
942C
  8
0
 10
4430.7454593609581934
 20
237.8059386786414962
 30
0.0
 11
4430.7454688756797623
 21
235.4293733444665975
 31
0.0
  0
ARC
  5
942D
  8
0
 10
4430.662990895679286
 20
235.4350956209397054
 30
0.0
 40
0.0826762458821125
 50
278.7987771596183961
 51
356.0312104063337983
  0
LINE
  5
942E
  8
0
 10
4430.6756374465394401
 20
235.3533923383587023
 30
0.0
 11
4423.5278990905380851
 21
235.353643450558593
 31
0.0
  0
ARC
  5
942F
  8
0
 10
4423.5399692440560102
 20
235.4348266287358058
 30
0.0
 40
0.0820755568051146
 50
183.8293813992376045
 51
261.5433263201658178
  0
LINE
  5
9430
  8
0
 10
4423.4580769331023475
 20
235.4293451661864083
 30
0.0
 11
4423.4580674091948822
 21
237.8059137151238929
 31
0.0
  0
ARC
  5
9431
  8
0
 10
4416.2394275481856312
 20
237.8002078366336036
 30
0.0
 40
0.0826573140842531
 50
98.7882941876520562
 51
176.0416938207403064
  0
LINE
  5
9432
  8
0
 10
4416.2267988386383877
 20
237.8818947221587052
 30
0.0
 11
4423.3745371976383467
 21
237.8818932659586096
 31
0.0
  0
ARC
  5
9433
  8
0
 10
4423.3619211963286944
 20
237.8002261325364088
 30
0.0
 40
0.0826358528148742
 50
3.9639699068362289
 51
81.2183212518673656
  0
LINE
  5
9434
  8
0
 10
4423.4443593609576055
 20
237.8059386786414962
 30
0.0
 11
4423.4443688756809934
 21
235.4293733444665975
 31
0.0
  0
ARC
  5
9435
  8
0
 10
4423.3618908956768792
 20
235.4350956209397054
 30
0.0
 40
0.0826762458821125
 50
278.7987771596183961
 51
356.0312104063337983
  0
LINE
  5
9436
  8
0
 10
4423.3745374465388522
 20
235.3533923383587023
 30
0.0
 11
4416.2267990905384067
 21
235.353643450558593
 31
0.0
  0
ARC
  5
9437
  8
0
 10
4416.2388692440572413
 20
235.4348266287358058
 30
0.0
 40
0.0820755568051146
 50
183.8293813992376045
 51
261.5433263201658178
  0
LINE
  5
9438
  8
0
 10
4416.1569769331026691
 20
235.4293451661864083
 30
0.0
 11
4416.1569674091961133
 21
237.8059137151238929
 31
0.0
  0
ARC
  5
9439
  8
0
 10
4408.9383275481850433
 20
237.8002078366336036
 30
0.0
 40
0.0826573140842531
 50
98.7882941876520562
 51
176.0416938207403064
  0
LINE
  5
943A
  8
0
 10
4408.9256988386387093
 20
237.8818947221587052
 30
0.0
 11
4416.0734371976377588
 21
237.8818932659586096
 31
0.0
  0
ARC
  5
943B
  8
0
 10
4416.0608211963299254
 20
237.8002261325364088
 30
0.0
 40
0.0826358528148742
 50
3.9639699068362289
 51
81.2183212518673656
  0
LINE
  5
943C
  8
0
 10
4416.1432593609588366
 20
237.8059386786414962
 30
0.0
 11
4416.1432688756804055
 21
235.4293733444665975
 31
0.0
  0
ARC
  5
943D
  8
0
 10
4416.0607908956781102
 20
235.4350956209397054
 30
0.0
 40
0.0826762458821125
 50
278.7987771596183961
 51
356.0312104063337983
  0
LINE
  5
943E
  8
0
 10
4416.0734374465391738
 20
235.3533923383587023
 30
0.0
 11
4408.9256990905387283
 21
235.353643450558593
 31
0.0
  0
ARC
  5
943F
  8
0
 10
4408.9377692440548344
 20
235.4348266287358058
 30
0.0
 40
0.0820755568051146
 50
183.8293813992376045
 51
261.5433263201658178
  0
LINE
  5
9440
  8
0
 10
4408.8558769331020812
 20
235.4293451661864083
 30
0.0
 11
4408.8558674091964349
 21
237.8059137151238929
 31
0.0
  0
ARC
  5
9441
  8
0
 10
4405.2877775481865683
 20
235.2521578366335859
 30
0.0
 40
0.0826573140842531
 50
98.7882941876520562
 51
176.0416938207403064
  0
LINE
  5
9442
  8
0
 10
4405.2751488386384153
 20
235.3338447221586875
 30
0.0
 11
4412.4228871976383743
 21
235.3338432659587056
 31
0.0
  0
ARC
  5
9443
  8
0
 10
4412.410271196328722
 20
235.2521761325363912
 30
0.0
 40
0.0826358528148742
 50
3.9639699068362289
 51
81.2183212518673656
  0
LINE
  5
9444
  8
0
 10
4412.4927093609576332
 20
235.2578886786415069
 30
0.0
 11
4412.492718875681021
 21
232.8813233444666082
 31
0.0
  0
ARC
  5
9445
  8
0
 10
4412.4102408956778163
 20
232.8870456209396878
 30
0.0
 40
0.0826762458821125
 50
278.7987771596183961
 51
356.0312104063337983
  0
LINE
  5
9446
  8
0
 10
4412.4228874465379704
 20
232.8053423383585994
 30
0.0
 11
4405.2751490905384344
 21
232.8055934505586038
 31
0.0
  0
ARC
  5
9447
  8
0
 10
4405.287219244057269
 20
232.8867766287357881
 30
0.0
 40
0.0820755568051146
 50
183.8293813992376045
 51
261.5433263201658178
  0
LINE
  5
9448
  8
0
 10
4405.2053269331017873
 20
232.8812951661863906
 30
0.0
 11
4405.2053174091961409
 21
235.2578637151239036
 31
0.0
  0
ARC
  5
9449
  8
0
 10
4412.5888775481862467
 20
235.2521578366335859
 30
0.0
 40
0.0826573140842531
 50
98.7882941876520562
 51
176.0416938207403064
  0
LINE
  5
944A
  8
0
 10
4412.5762488386390032
 20
235.3338447221586875
 30
0.0
 11
4419.7239871976389622
 21
235.3338432659587056
 31
0.0
  0
ARC
  5
944B
  8
0
 10
4419.7113711963302194
 20
235.2521761325363912
 30
0.0
 40
0.0826358528148742
 50
3.9639699068362289
 51
81.2183212518673656
  0
LINE
  5
944C
  8
0
 10
4419.7938093609591306
 20
235.2578886786415069
 30
0.0
 11
4419.7938188756806994
 21
232.8813233444666082
 31
0.0
  0
ARC
  5
944D
  8
0
 10
4419.7113408956793137
 20
232.8870456209396878
 30
0.0
 40
0.0826762458821125
 50
278.7987771596183961
 51
356.0312104063337983
  0
LINE
  5
944E
  8
0
 10
4419.7239874465385583
 20
232.8053423383585994
 30
0.0
 11
4412.5762490905381128
 21
232.8055934505586038
 31
0.0
  0
ARC
  5
944F
  8
0
 10
4412.5883192440560379
 20
232.8867766287357881
 30
0.0
 40
0.0820755568051146
 50
183.8293813992376045
 51
261.5433263201658178
  0
LINE
  5
9450
  8
0
 10
4412.5064269331032847
 20
232.8812951661863906
 30
0.0
 11
4412.5064174091958193
 21
235.2578637151239036
 31
0.0
  0
ARC
  5
9451
  8
0
 10
4419.8899775481859251
 20
235.2521578366335859
 30
0.0
 40
0.0826573140842531
 50
98.7882941876520562
 51
176.0416938207403064
  0
LINE
  5
9452
  8
0
 10
4419.8773488386377721
 20
235.3338447221586875
 30
0.0
 11
4427.0250871976377312
 21
235.3338432659587056
 31
0.0
  0
ARC
  5
9453
  8
0
 10
4427.0124711963298978
 20
235.2521761325363912
 30
0.0
 40
0.0826358528148742
 50
3.9639699068362289
 51
81.2183212518673656
  0
LINE
  5
9454
  8
0
 10
4427.094909360958809
 20
235.2578886786415069
 30
0.0
 11
4427.0949188756803778
 21
232.8813233444666082
 31
0.0
  0
ARC
  5
9455
  8
0
 10
4427.0124408956780826
 20
232.8870456209396878
 30
0.0
 40
0.0826762458821125
 50
278.7987771596183961
 51
356.0312104063337983
  0
LINE
  5
9456
  8
0
 10
4427.0250874465382367
 20
232.8053423383585994
 30
0.0
 11
4419.8773490905387007
 21
232.8055934505586038
 31
0.0
  0
ARC
  5
9457
  8
0
 10
4419.8894192440548068
 20
232.8867766287357881
 30
0.0
 40
0.0820755568051146
 50
183.8293813992376045
 51
261.5433263201658178
  0
LINE
  5
9458
  8
0
 10
4419.8075269331020536
 20
232.8812951661863906
 30
0.0
 11
4419.8075174091945883
 21
235.2578637151239036
 31
0.0
  0
ARC
  5
9459
  8
0
 10
4408.9383275481850433
 20
232.7041078366335967
 30
0.0
 40
0.0826573140842531
 50
98.7882941876520562
 51
176.0416938207403064
  0
LINE
  5
945A
  8
0
 10
4408.9256988386387093
 20
232.7857947221586983
 30
0.0
 11
4416.0734371976377588
 21
232.7857932659586879
 31
0.0
  0
ARC
  5
945B
  8
0
 10
4416.0608211963299254
 20
232.7041261325364019
 30
0.0
 40
0.0826358528148742
 50
3.9639699068362289
 51
81.2183212518673656
  0
LINE
  5
945C
  8
0
 10
4416.1432593609588366
 20
232.7098386786414892
 30
0.0
 11
4416.1432688756804055
 21
230.3332733444665905
 31
0.0
  0
ARC
  5
945D
  8
0
 10
4416.0607908956781102
 20
230.3389956209396985
 30
0.0
 40
0.0826762458821125
 50
278.7987771596183961
 51
356.0312104063337983
  0
LINE
  5
945E
  8
0
 10
4416.0734374465391738
 20
230.2572923383586101
 30
0.0
 11
4408.9256990905387283
 21
230.2575434505585861
 31
0.0
  0
ARC
  5
945F
  8
0
 10
4408.9377692440548344
 20
230.3387266287357988
 30
0.0
 40
0.0820755568051146
 50
183.8293813992376045
 51
261.5433263201658178
  0
LINE
  5
9460
  8
0
 10
4408.8558769331020812
 20
230.3332451661864013
 30
0.0
 11
4408.8558674091964349
 21
232.7098137151238859
 31
0.0
  0
ARC
  5
9461
  8
0
 10
4416.2394275481856312
 20
232.7041078366335967
 30
0.0
 40
0.0826573140842531
 50
98.7882941876520562
 51
176.0416938207403064
  0
LINE
  5
9462
  8
0
 10
4416.2267988386383877
 20
232.7857947221586983
 30
0.0
 11
4423.3745371976383467
 21
232.7857932659586879
 31
0.0
  0
ARC
  5
9463
  8
0
 10
4423.3619211963286944
 20
232.7041261325364019
 30
0.0
 40
0.0826358528148742
 50
3.9639699068362289
 51
81.2183212518673656
  0
LINE
  5
9464
  8
0
 10
4423.4443593609576055
 20
232.7098386786414892
 30
0.0
 11
4423.4443688756809934
 21
230.3332733444665905
 31
0.0
  0
ARC
  5
9465
  8
0
 10
4423.3618908956768792
 20
230.3389956209396985
 30
0.0
 40
0.0826762458821125
 50
278.7987771596183961
 51
356.0312104063337983
  0
LINE
  5
9466
  8
0
 10
4423.3745374465388522
 20
230.2572923383586101
 30
0.0
 11
4416.2267990905384067
 21
230.2575434505585861
 31
0.0
  0
ARC
  5
9467
  8
0
 10
4416.2388692440572413
 20
230.3387266287357988
 30
0.0
 40
0.0820755568051146
 50
183.8293813992376045
 51
261.5433263201658178
  0
LINE
  5
9468
  8
0
 10
4416.1569769331026691
 20
230.3332451661864013
 30
0.0
 11
4416.1569674091961133
 21
232.7098137151238859
 31
0.0
  0
ARC
  5
9469
  8
0
 10
4423.5405275481862191
 20
232.7041078366335967
 30
0.0
 40
0.0826573140842531
 50
98.7882941876520562
 51
176.0416938207403064
  0
LINE
  5
946A
  8
0
 10
4423.5278988386389756
 20
232.7857947221586983
 30
0.0
 11
4430.6756371976389346
 21
232.7857932659586879
 31
0.0
  0
ARC
  5
946B
  8
0
 10
4430.6630211963301917
 20
232.7041261325364019
 30
0.0
 40
0.0826358528148742
 50
3.9639699068362289
 51
81.2183212518673656
  0
LINE
  5
946C
  8
0
 10
4430.7454593609581934
 20
232.7098386786414892
 30
0.0
 11
4430.7454688756797623
 21
230.3332733444665905
 31
0.0
  0
ARC
  5
946D
  8
0
 10
4430.662990895679286
 20
230.3389956209396985
 30
0.0
 40
0.0826762458821125
 50
278.7987771596183961
 51
356.0312104063337983
  0
LINE
  5
946E
  8
0
 10
4430.6756374465394401
 20
230.2572923383586101
 30
0.0
 11
4423.5278990905380851
 21
230.2575434505585861
 31
0.0
  0
ARC
  5
946F
  8
0
 10
4423.5399692440560102
 20
230.3387266287357988
 30
0.0
 40
0.0820755568051146
 50
183.8293813992376045
 51
261.5433263201658178
  0
LINE
  5
9470
  8
0
 10
4423.4580769331023475
 20
230.3332451661864013
 30
0.0
 11
4423.4580674091948822
 21
232.7098137151238859
 31
0.0
  0
ARC
  5
9471
  8
0
 10
4405.2877775481865683
 20
230.1560578366334937
 30
0.0
 40
0.0826573140842531
 50
98.7882941876520562
 51
176.0416938207403064
  0
LINE
  5
9472
  8
0
 10
4405.2751488386384153
 20
230.237744722158709
 30
0.0
 11
4412.4228871976383743
 21
230.2377432659586987
 31
0.0
  0
ARC
  5
9473
  8
0
 10
4412.410271196328722
 20
230.1560761325364126
 30
0.0
 40
0.0826358528148742
 50
3.9639699068362289
 51
81.2183212518673656
  0
LINE
  5
9474
  8
0
 10
4412.4927093609576332
 20
230.1617886786414999
 30
0.0
 11
4412.492718875681021
 21
227.7852233444666012
 31
0.0
  0
ARC
  5
9475
  8
0
 10
4412.4102408956778163
 20
227.7909456209395955
 30
0.0
 40
0.0826762458821125
 50
305.1159250016596047
 51
356.0312104063337983
  0
ARC
  5
9476
  8
0
 10
4405.287219244057269
 20
227.7906766287358096
 30
0.0
 40
0.0820755568051146
 50
183.8293813992376045
 51
235.0951595469753954
  0
LINE
  5
9477
  8
0
 10
4405.2053269331017873
 20
227.7851951661862984
 30
0.0
 11
4405.2053174091961409
 21
230.1617637151238966
 31
0.0
  0
ARC
  5
9478
  8
0
 10
4412.5888775481862467
 20
230.1560578366334937
 30
0.0
 40
0.0826573140842531
 50
98.7882941876520562
 51
176.0416938207403064
  0
LINE
  5
9479
  8
0
 10
4412.5762488386390032
 20
230.237744722158709
 30
0.0
 11
4419.7239871976389622
 21
230.2377432659586987
 31
0.0
  0
ARC
  5
947A
  8
0
 10
4419.7113711963302194
 20
230.1560761325364126
 30
0.0
 40
0.0826358528148742
 50
3.9639699068362289
 51
81.2183212518673656
  0
LINE
  5
947B
  8
0
 10
4419.7938093609591306
 20
230.1617886786414999
 30
0.0
 11
4419.7938188756806994
 21
227.7852233444666012
 31
0.0
  0
ARC
  5
947C
  8
0
 10
4419.7113408956793137
 20
227.7909456209395955
 30
0.0
 40
0.0826762458821125
 50
305.0563056091418161
 51
356.0312104063337983
  0
ARC
  5
947D
  8
0
 10
4412.5883192440560379
 20
227.7906766287358096
 30
0.0
 40
0.0820755568051146
 50
183.8293813992376045
 51
235.1555340622342953
  0
LINE
  5
947E
  8
0
 10
4412.5064269331032847
 20
227.7851951661862984
 30
0.0
 11
4412.5064174091958193
 21
230.1617637151238966
 31
0.0
  0
ARC
  5
947F
  8
0
 10
4419.8899775481859251
 20
230.1560578366334937
 30
0.0
 40
0.0826573140842531
 50
98.7882941876520562
 51
176.0416938207403064
  0
LINE
  5
9480
  8
0
 10
4419.8773488386377721
 20
230.237744722158709
 30
0.0
 11
4427.0250871976377312
 21
230.2377432659586987
 31
0.0
  0
ARC
  5
9481
  8
0
 10
4427.0124711963298978
 20
230.1560761325364126
 30
0.0
 40
0.0826358528148742
 50
3.9639699068362289
 51
81.2183212518673656
  0
LINE
  5
9482
  8
0
 10
4427.094909360958809
 20
230.1617886786414999
 30
0.0
 11
4427.0949188756803778
 21
227.7852233444666012
 31
0.0
  0
ARC
  5
9483
  8
0
 10
4427.0124408956780826
 20
227.7909456209395955
 30
0.0
 40
0.0826762458821125
 50
278.7987771596183961
 51
356.0312104063337983
  0
LINE
  5
9484
  8
0
 10
4427.0250874465382367
 20
227.7092423383585924
 30
0.0
 11
4424.57672394740257
 21
227.709328353530708
 31
0.0
  0
ARC
  5
9485
  8
0
 10
4419.8894192440548068
 20
227.7906766287358096
 30
0.0
 40
0.0820755568051146
 50
183.8293813992376045
 51
235.2160001013288024
  0
LINE
  5
9486
  8
0
 10
4419.8075269331020536
 20
227.7851951661862984
 30
0.0
 11
4419.8075174091945883
 21
230.1617637151238966
 31
0.0
  0
LINE
  5
9487
  8
0
 10
4416.1432649280795886
 20
226.2231961075632114
 30
0.0
 11
4416.1432688756804055
 21
225.237173344466612
 31
0.0
  0
ARC
  5
9488
  8
0
 10
4416.0607908956781102
 20
225.2428956209396063
 30
0.0
 40
0.0826762458821125
 50
278.7987771596183961
 51
356.0312104063337983
  0
LINE
  5
9489
  8
0
 10
4416.0734374465391738
 20
225.1611923383586031
 30
0.0
 11
4408.9256990905387283
 21
225.1614434505586928
 31
0.0
  0
ARC
  5
948A
  8
0
 10
4408.9377692440548344
 20
225.2426266287357919
 30
0.0
 40
0.0820755568051146
 50
183.8293813992376045
 51
261.5433263201658178
  0
LINE
  5
948B
  8
0
 10
4408.8558769331020812
 20
225.2371451661863944
 30
0.0
 11
4408.855872981788707
 21
226.2231445418977103
 31
0.0
  0
LINE
  5
948C
  8
0
 10
4423.4443681028196806
 20
225.4302167176456066
 30
0.0
 11
4423.4443688756809934
 21
225.237173344466612
 31
0.0
  0
ARC
  5
948D
  8
0
 10
4423.3618908956768792
 20
225.2428956209396063
 30
0.0
 40
0.0826762458821125
 50
278.7987771596183961
 51
356.0312104063337983
  0
LINE
  5
948E
  8
0
 10
4423.3745374465388522
 20
225.1611923383586031
 30
0.0
 11
4416.2267990905384067
 21
225.1614434505586928
 31
0.0
  0
ARC
  5
948F
  8
0
 10
4416.2388692440572413
 20
225.2426266287357919
 30
0.0
 40
0.0820755568051146
 50
183.8293813992376045
 51
261.5433263201658178
  0
LINE
  5
9490
  8
0
 10
4416.1569769331026691
 20
225.2371451661863944
 30
0.0
 11
4416.1569729815828396
 21
226.2231962045615035
 31
0.0
  0
LINE
  5
9491
  8
0
 10
4424.5870313680843537
 20
227.6896945063828923
 30
0.0
 11
4430.6756371976389346
 21
227.6896932659587094
 31
0.0
  0
ARC
  5
9492
  8
0
 10
4430.6630211963301917
 20
227.6080261325365086
 30
0.0
 40
0.0826358528148742
 50
3.9639699068362289
 51
81.2183212518673656
  0
LINE
  5
9493
  8
0
 10
4430.7454593609581934
 20
227.6137386786415107
 30
0.0
 11
4430.7454688756797623
 21
225.237173344466612
 31
0.0
  0
ARC
  5
9494
  8
0
 10
4430.662990895679286
 20
225.2428956209396063
 30
0.0
 40
0.0826762458821125
 50
278.7987771596183961
 51
356.0312104063337983
  0
LINE
  5
9495
  8
0
 10
4430.6756374465394401
 20
225.1611923383586031
 30
0.0
 11
4423.5278990905380851
 21
225.1614434505586928
 31
0.0
  0
ARC
  5
9496
  8
0
 10
4423.5399692440560102
 20
225.2426266287357919
 30
0.0
 40
0.0820755568051146
 50
183.8293813992376045
 51
261.5433263201658178
  0
LINE
  5
9497
  8
0
 10
4423.4580769331023475
 20
225.2371451661863944
 30
0.0
 11
4423.4580761503793838
 21
225.4324637833732083
 31
0.0
  0
ARC
  5
9498
  8
0
 10
4419.8899775481859251
 20
225.0599578366334867
 30
0.0
 40
0.0826573140842531
 50
98.7882941876520562
 51
176.0416938207403064
  0
LINE
  5
9499
  8
0
 10
4419.8773488386377721
 20
225.1416447221587021
 30
0.0
 11
4427.0250871976377312
 21
225.1416432659586917
 31
0.0
  0
ARC
  5
949A
  8
0
 10
4427.0124711963298978
 20
225.0599761325364909
 30
0.0
 40
0.0826358528148742
 50
3.9639699068362289
 51
81.2183212518673656
  0
LINE
  5
949B
  8
0
 10
4427.094909360958809
 20
225.065688678641493
 30
0.0
 11
4427.0949188756803778
 21
222.689123344466509
 31
0.0
  0
ARC
  5
949C
  8
0
 10
4427.0124408956780826
 20
222.6948456209397023
 30
0.0
 40
0.0826762458821125
 50
278.7987771596183961
 51
356.0312104063337983
  0
LINE
  5
949D
  8
0
 10
4427.0250874465382367
 20
222.6131423383586991
 30
0.0
 11
4419.8773490905387007
 21
222.6133934505587035
 31
0.0
  0
ARC
  5
949E
  8
0
 10
4419.8894192440548068
 20
222.6945766287358026
 30
0.0
 40
0.0820755568051146
 50
183.8293813992376045
 51
261.5433263201658178
  0
LINE
  5
949F
  8
0
 10
4419.8075269331020536
 20
222.6890951661864051
 30
0.0
 11
4419.8075174091945883
 21
225.0656637151238897
 31
0.0
  0
ARC
  5
94A0
  8
0
 10
4412.5888775481862467
 20
225.0599578366334867
 30
0.0
 40
0.0826573140842531
 50
98.7882941876520562
 51
176.0416938207403064
  0
LINE
  5
94A1
  8
0
 10
4412.5762488386390032
 20
225.1416447221587021
 30
0.0
 11
4419.7239871976389622
 21
225.1416432659586917
 31
0.0
  0
ARC
  5
94A2
  8
0
 10
4419.7113711963302194
 20
225.0599761325364909
 30
0.0
 40
0.0826358528148742
 50
3.9639699068362289
 51
81.2183212518673656
  0
LINE
  5
94A3
  8
0
 10
4419.7938093609591306
 20
225.065688678641493
 30
0.0
 11
4419.7938188756806994
 21
222.689123344466509
 31
0.0
  0
ARC
  5
94A4
  8
0
 10
4419.7113408956793137
 20
222.6948456209397023
 30
0.0
 40
0.0826762458821125
 50
278.7987771596183961
 51
356.0312104063337983
  0
LINE
  5
94A5
  8
0
 10
4419.7239874465385583
 20
222.6131423383586991
 30
0.0
 11
4412.5762490905381128
 21
222.6133934505587035
 31
0.0
  0
ARC
  5
94A6
  8
0
 10
4412.5883192440560379
 20
222.6945766287358026
 30
0.0
 40
0.0820755568051146
 50
183.8293813992376045
 51
261.5433263201658178
  0
LINE
  5
94A7
  8
0
 10
4412.5064269331032847
 20
222.6890951661864051
 30
0.0
 11
4412.5064174091958193
 21
225.0656637151238897
 31
0.0
  0
ARC
  5
94A8
  8
0
 10
4405.2877775481865683
 20
225.0599578366334867
 30
0.0
 40
0.0826573140842531
 50
98.7882941876520562
 51
176.0416938207403064
  0
LINE
  5
94A9
  8
0
 10
4405.2751488386384153
 20
225.1416447221587021
 30
0.0
 11
4412.4228871976383743
 21
225.1416432659586917
 31
0.0
  0
ARC
  5
94AA
  8
0
 10
4412.410271196328722
 20
225.0599761325364909
 30
0.0
 40
0.0826358528148742
 50
3.9639699068362289
 51
81.2183212518673656
  0
LINE
  5
94AB
  8
0
 10
4412.4927093609576332
 20
225.065688678641493
 30
0.0
 11
4412.492718875681021
 21
222.689123344466509
 31
0.0
  0
ARC
  5
94AC
  8
0
 10
4412.4102408956778163
 20
222.6948456209397023
 30
0.0
 40
0.0826762458821125
 50
278.7987771596183961
 51
356.0312104063337983
  0
LINE
  5
94AD
  8
0
 10
4412.4228874465379704
 20
222.6131423383586991
 30
0.0
 11
4405.2751490905384344
 21
222.6133934505587035
 31
0.0
  0
ARC
  5
94AE
  8
0
 10
4405.287219244057269
 20
222.6945766287358026
 30
0.0
 40
0.0820755568051146
 50
183.8293813992376045
 51
261.5433263201658178
  0
LINE
  5
94AF
  8
0
 10
4405.2053269331017873
 20
222.6890951661864051
 30
0.0
 11
4405.2053174091961409
 21
225.0656637151238897
 31
0.0
  0
ARC
  5
94B0
  8
0
 10
4408.9383275481850433
 20
222.5119078366334975
 30
0.0
 40
0.0826573140842531
 50
98.7882941876520562
 51
176.0416938207403064
  0
LINE
  5
94B1
  8
0
 10
4408.9256988386387093
 20
222.5935947221587128
 30
0.0
 11
4416.0734371976377588
 21
222.5935932659587024
 31
0.0
  0
ARC
  5
94B2
  8
0
 10
4416.0608211963299254
 20
222.5119261325365017
 30
0.0
 40
0.0826358528148742
 50
3.9639699068329799
 51
81.2183212518673656
  0
LINE
  5
94B3
  8
0
 10
4416.1432593609588366
 20
222.5176386786415037
 30
0.0
 11
4416.1432688756804055
 21
220.141073344466605
 31
0.0
  0
ARC
  5
94B4
  8
0
 10
4416.0607908956781102
 20
220.146795620939713
 30
0.0
 40
0.0826762458821125
 50
278.7987771596183961
 51
356.0312104063337983
  0
LINE
  5
94B5
  8
0
 10
4416.0734374465391738
 20
220.0650923383587099
 30
0.0
 11
4408.9256990905387283
 21
220.0653434505586858
 31
0.0
  0
ARC
  5
94B6
  8
0
 10
4408.9377692440548344
 20
220.1465266287358986
 30
0.0
 40
0.0820755568051146
 50
183.8293813992376045
 51
261.5433263201658178
  0
LINE
  5
94B7
  8
0
 10
4408.8558769331020812
 20
220.1410451661863021
 30
0.0
 11
4408.8558674091964349
 21
222.5176137151239004
 31
0.0
  0
ARC
  5
94B8
  8
0
 10
4416.2394275481856312
 20
222.5119078366334975
 30
0.0
 40
0.0826573140842531
 50
98.7882941876520562
 51
176.0416938207403064
  0
LINE
  5
94B9
  8
0
 10
4416.2267988386383877
 20
222.5935947221587128
 30
0.0
 11
4423.3745371976383467
 21
222.5935932659587024
 31
0.0
  0
ARC
  5
94BA
  8
0
 10
4423.3619211963286944
 20
222.5119261325365017
 30
0.0
 40
0.0826358528148742
 50
3.9639699068329799
 51
81.2183212518673656
  0
LINE
  5
94BB
  8
0
 10
4423.4443593609576055
 20
222.5176386786415037
 30
0.0
 11
4423.4443681222028317
 21
220.3292753397828108
 31
0.0
  0
LINE
  5
94BC
  8
0
 10
4422.3007700395455686
 20
220.0651300616331127
 30
0.0
 11
4416.2267990905384067
 21
220.0653434505586858
 31
0.0
  0
ARC
  5
94BD
  8
0
 10
4416.2388692440572413
 20
220.1465266287358986
 30
0.0
 40
0.0820755568051146
 50
183.8293813992376045
 51
261.5433263201658178
  0
LINE
  5
94BE
  8
0
 10
4416.1569769331026691
 20
220.1410451661863021
 30
0.0
 11
4416.1569674091961133
 21
222.5176137151239004
 31
0.0
  0
ARC
  5
94BF
  8
0
 10
4423.5405275481862191
 20
222.5119078366334975
 30
0.0
 40
0.0826573140842531
 50
98.7882941876520562
 51
176.0416938207403064
  0
LINE
  5
94C0
  8
0
 10
4423.5278988386389756
 20
222.5935947221587128
 30
0.0
 11
4430.6756371976389346
 21
222.5935932659587024
 31
0.0
  0
ARC
  5
94C1
  8
0
 10
4430.6630211963301917
 20
222.5119261325365017
 30
0.0
 40
0.0826358528148742
 50
3.9639699068329799
 51
81.2183212518673656
  0
LINE
  5
94C2
  8
0
 10
4430.7454593609581934
 20
222.5176386786415037
 30
0.0
 11
4430.7454688756797623
 21
220.141073344466605
 31
0.0
  0
ARC
  5
94C3
  8
0
 10
4430.662990895679286
 20
220.146795620939713
 30
0.0
 40
0.0826762458821125
 50
278.7987771596183961
 51
356.0312104063337983
  0
LINE
  5
94C4
  8
0
 10
4430.6756374465394401
 20
220.0650923383587099
 30
0.0
 11
4424.0958906108789961
 21
220.0653234960508939
 31
0.0
  0
LINE
  5
94C5
  8
0
 10
4423.4580761877914483
 20
220.3270282708406
 30
0.0
 11
4423.4580674091948822
 21
222.5176137151239004
 31
0.0
  0
ARC
  5
94C6
  8
0
 10
4419.8899775481859251
 20
219.9638578366335935
 30
0.0
 40
0.0826573140842531
 50
98.7882941876520562
 51
176.0416938207403064
  0
LINE
  5
94C7
  8
0
 10
4419.8773488386377721
 20
220.0455447221586098
 30
0.0
 11
4422.2734955570631428
 21
220.0455442339946046
 31
0.0
  0
LINE
  5
94C8
  8
0
 10
4424.1234412413259633
 20
220.0455438571073898
 30
0.0
 11
4427.0250871976377312
 21
220.0455432659587132
 31
0.0
  0
ARC
  5
94C9
  8
0
 10
4427.0124711963298978
 20
219.9638761325365124
 30
0.0
 40
0.0826358528148742
 50
3.9639699068329799
 51
81.2183212518673656
  0
LINE
  5
94CA
  8
0
 10
4427.094909360958809
 20
219.969588678641486
 30
0.0
 11
4427.0949188756803778
 21
217.5930233444665873
 31
0.0
  0
ARC
  5
94CB
  8
0
 10
4427.0124408956780826
 20
217.5987456209396953
 30
0.0
 40
0.0826762458821125
 50
278.7987771596183961
 51
356.0312104063337983
  0
LINE
  5
94CC
  8
0
 10
4427.0250874465382367
 20
217.5170423383586922
 30
0.0
 11
4424.109943976818613
 21
217.5171447523046879
 31
0.0
  0
LINE
  5
94CD
  8
0
 10
4422.2869031393365731
 20
217.5172087988285909
 30
0.0
 11
4419.8773490905387007
 21
217.5172934505586966
 31
0.0
  0
ARC
  5
94CE
  8
0
 10
4419.8894192440548068
 20
217.5984766287357957
 30
0.0
 40
0.0820755568051146
 50
183.8293813992376045
 51
261.5433263201658178
  0
LINE
  5
94CF
  8
0
 10
4419.8075269331020536
 20
217.5929951661863129
 30
0.0
 11
4419.8075251569071042
 21
218.0362220359087928
 31
0.0
  0
LINE
  5
94D0
  8
0
 10
4419.8075191455945969
 20
219.5362675045639946
 30
0.0
 11
4419.8075174091945883
 21
219.9695637151239112
 31
0.0
  0
ARC
  5
94D1
  8
0
 10
4412.5888775481862467
 20
219.9638578366335935
 30
0.0
 40
0.0826573140842531
 50
98.7882941876520562
 51
176.0416938207403064
  0
LINE
  5
94D2
  8
0
 10
4412.5762488386390032
 20
220.0455447221586098
 30
0.0
 11
4419.7239871976389622
 21
220.0455432659587132
 31
0.0
  0
ARC
  5
94D3
  8
0
 10
4419.7113711963302194
 20
219.9638761325365124
 30
0.0
 40
0.0826358528148742
 50
3.9639699068329799
 51
81.2183212518673656
  0
LINE
  5
94D4
  8
0
 10
4419.7938093609591306
 20
219.969588678641486
 30
0.0
 11
4419.7938110957848039
 21
219.5362675974091928
 31
0.0
  0
LINE
  5
94D5
  8
0
 10
4419.7938171013083775
 20
218.0362219389105007
 30
0.0
 11
4419.7938188756806994
 21
217.5930233444665873
 31
0.0
  0
ARC
  5
94D6
  8
0
 10
4419.7113408956793137
 20
217.5987456209396953
 30
0.0
 40
0.0826762458821125
 50
278.7987771596183961
 51
356.0312104063337983
  0
LINE
  5
94D7
  8
0
 10
4419.7239874465385583
 20
217.5170423383586922
 30
0.0
 11
4412.5762490905381128
 21
217.5172934505586966
 31
0.0
  0
ARC
  5
94D8
  8
0
 10
4412.5883192440560379
 20
217.5984766287357957
 30
0.0
 40
0.0820755568051146
 50
183.8293813992376045
 51
261.5433263201658178
  0
LINE
  5
94D9
  8
0
 10
4412.5064269331032847
 20
217.5929951661863129
 30
0.0
 11
4412.5064251571138811
 21
218.0361703732449996
 31
0.0
  0
LINE
  5
94DA
  8
0
 10
4412.5064191453966487
 20
219.5363169551970941
 30
0.0
 11
4412.5064174091958193
 21
219.9695637151239112
 31
0.0
  0
ARC
  5
94DB
  8
0
 10
4405.2877775481865683
 20
219.9638578366335935
 30
0.0
 40
0.0826573140842531
 50
98.7882941876520562
 51
176.0416938207403064
  0
LINE
  5
94DC
  8
0
 10
4405.2751488386384153
 20
220.0455447221586098
 30
0.0
 11
4412.4228871976383743
 21
220.0455432659587132
 31
0.0
  0
ARC
  5
94DD
  8
0
 10
4412.410271196328722
 20
219.9638761325365124
 30
0.0
 40
0.0826358528148742
 50
3.9639699068329799
 51
81.2183212518673656
  0
LINE
  5
94DE
  8
0
 10
4412.4927093609576332
 20
219.969588678641486
 30
0.0
 11
4412.4927110955877652
 21
219.5363170480422923
 31
0.0
  0
LINE
  5
94DF
  8
0
 10
4412.4927171015151544
 20
218.0361702762465939
 30
0.0
 11
4412.492718875681021
 21
217.5930233444665873
 31
0.0
  0
ARC
  5
94E0
  8
0
 10
4412.4102408956778163
 20
217.5987456209396953
 30
0.0
 40
0.0826762458821125
 50
278.7987771596183961
 51
356.0312104063337983
  0
LINE
  5
94E1
  8
0
 10
4412.4228874465379704
 20
217.5170423383586922
 30
0.0
 11
4405.2751490905384344
 21
217.5172934505586966
 31
0.0
  0
ARC
  5
94E2
  8
0
 10
4405.287219244057269
 20
217.5984766287357957
 30
0.0
 40
0.0820755568051146
 50
183.8293813992376045
 51
261.5433263201658178
  0
LINE
  5
94E3
  8
0
 10
4405.2053191451987004
 20
219.5363664058301936
 30
0.0
 11
4405.2053174091961409
 21
219.9695637151239112
 31
0.0
  0
ARC
  5
94E4
  8
0
 10
4408.9383275481850433
 20
217.4158078366336042
 30
0.0
 40
0.0826573140842531
 50
98.7882941876520562
 51
176.0416938207403064
  0
LINE
  5
94E5
  8
0
 10
4408.9256988386387093
 20
217.4974947221587058
 30
0.0
 11
4416.0734371976377588
 21
217.4974932659586955
 31
0.0
  0
ARC
  5
94E6
  8
0
 10
4416.0608211963299254
 20
217.4158261325364947
 30
0.0
 40
0.0826358528148742
 50
3.9639699068329799
 51
81.2183212518673656
  0
LINE
  5
94E7
  8
0
 10
4416.1432593609588366
 20
217.4215386786414967
 30
0.0
 11
4416.1432688756804055
 21
215.0449733444665981
 31
0.0
  0
ARC
  5
94E8
  8
0
 10
4416.0607908956781102
 20
215.050695620939706
 30
0.0
 40
0.0826762458821125
 50
278.7987771596183961
 51
356.0312104063337983
  0
LINE
  5
94E9
  8
0
 10
4416.0734374465391738
 20
214.9689923383587029
 30
0.0
 11
4408.9256990905387283
 21
214.9692434505585936
 31
0.0
  0
ARC
  5
94EA
  8
0
 10
4408.9377692440548344
 20
215.0504266287358064
 30
0.0
 40
0.0820755568051146
 50
183.8293813992376045
 51
261.5433263201658178
  0
LINE
  5
94EB
  8
0
 10
4408.8558769331020812
 20
215.0449451661864089
 30
0.0
 11
4408.8558674091964349
 21
217.4215137151238935
 31
0.0
  0
ARC
  5
94EC
  8
0
 10
4416.2394275481856312
 20
217.4158078366336042
 30
0.0
 40
0.0826573140842531
 50
98.7882941876520562
 51
176.0416938207403064
  0
LINE
  5
94ED
  8
0
 10
4416.2267988386383877
 20
217.4974947221587058
 30
0.0
 11
4422.3149959478942037
 21
217.4974934818177132
 31
0.0
  0
LINE
  5
94EE
  8
0
 10
4423.4443600748872996
 20
217.2432154383209024
 30
0.0
 11
4423.4443688756809934
 21
215.0449733444665981
 31
0.0
  0
ARC
  5
94EF
  8
0
 10
4423.3618908956768792
 20
215.050695620939706
 30
0.0
 40
0.0826762458821125
 50
278.7987771596183961
 51
356.0312104063337983
  0
LINE
  5
94F0
  8
0
 10
4423.3745374465388522
 20
214.9689923383587029
 30
0.0
 11
4416.2267990905384067
 21
214.9692434505585936
 31
0.0
  0
ARC
  5
94F1
  8
0
 10
4416.2388692440572413
 20
215.0504266287358064
 30
0.0
 40
0.0820755568051146
 50
183.8293813992376045
 51
261.5433263201658178
  0
LINE
  5
94F2
  8
0
 10
4416.1569769331026691
 20
215.0449451661864089
 30
0.0
 11
4416.1569674091961133
 21
217.4215137151238935
 31
0.0
  0
LINE
  5
94F3
  8
0
 10
4424.0819419820572875
 20
217.4974946092841037
 30
0.0
 11
4430.6756371976389346
 21
217.4974932659586955
 31
0.0
  0
ARC
  5
94F4
  8
0
 10
4430.6630211963301917
 20
217.4158261325364947
 30
0.0
 40
0.0826358528148742
 50
3.9639699068329799
 51
81.2183212518673656
  0
LINE
  5
94F5
  8
0
 10
4430.7454593609581934
 20
217.4215386786414967
 30
0.0
 11
4430.7454688756797623
 21
215.0449733444665981
 31
0.0
  0
ARC
  5
94F6
  8
0
 10
4430.662990895679286
 20
215.050695620939706
 30
0.0
 40
0.0826762458821125
 50
278.7987771596183961
 51
356.0312104063337983
  0
LINE
  5
94F7
  8
0
 10
4430.6756374465394401
 20
214.9689923383587029
 30
0.0
 11
4423.5278990905380851
 21
214.9692434505585936
 31
0.0
  0
ARC
  5
94F8
  8
0
 10
4423.5399692440560102
 20
215.0504266287358064
 30
0.0
 40
0.0820755568051146
 50
183.8293813992376045
 51
261.5433263201658178
  0
LINE
  5
94F9
  8
0
 10
4423.4580769331023475
 20
215.0449451661864089
 30
0.0
 11
4423.4580681147072028
 21
217.2454624294560972
 31
0.0
  0
ARC
  5
94FA
  8
0
 10
4419.8899775481859251
 20
214.8677578366335865
 30
0.0
 40
0.0826573140842531
 50
98.7882941876520562
 51
176.0416938207403064
  0
LINE
  5
94FB
  8
0
 10
4419.8773488386377721
 20
214.9494447221586881
 30
0.0
 11
4427.0250871976377312
 21
214.9494432659587062
 31
0.0
  0
ARC
  5
94FC
  8
0
 10
4427.0124711963298978
 20
214.8677761325365054
 30
0.0
 40
0.0826358528148742
 50
3.9639699068329799
 51
81.2183212518673656
  0
LINE
  5
94FD
  8
0
 10
4427.094909360958809
 20
214.8734886786415075
 30
0.0
 11
4427.0949188756803778
 21
212.4969233444666088
 31
0.0
  0
ARC
  5
94FE
  8
0
 10
4427.0124408956780826
 20
212.5026456209396883
 30
0.0
 40
0.0826762458821125
 50
278.7987771596183961
 51
356.0312104063337983
  0
LINE
  5
94FF
  8
0
 10
4427.0250874465382367
 20
212.4209423383586
 30
0.0
 11
4419.8773490905387007
 21
212.4211934505586044
 31
0.0
  0
ARC
  5
9500
  8
0
 10
4419.8894192440548068
 20
212.5023766287357887
 30
0.0
 40
0.0820755568051146
 50
183.8293813992376045
 51
261.5433263201658178
  0
LINE
  5
9501
  8
0
 10
4419.8075269331020536
 20
212.4968951661863912
 30
0.0
 11
4419.8075174091945883
 21
214.8734637151239042
 31
0.0
  0
ARC
  5
9502
  8
0
 10
4412.5888775481862467
 20
214.8677578366335865
 30
0.0
 40
0.0826573140842531
 50
98.7882941876520562
 51
176.0416938207403064
  0
LINE
  5
9503
  8
0
 10
4412.5762488386390032
 20
214.9494447221586881
 30
0.0
 11
4419.7239871976389622
 21
214.9494432659587062
 31
0.0
  0
ARC
  5
9504
  8
0
 10
4419.7113711963302194
 20
214.8677761325365054
 30
0.0
 40
0.0826358528148742
 50
3.9639699068329799
 51
81.2183212518673656
  0
LINE
  5
9505
  8
0
 10
4419.7938093609591306
 20
214.8734886786415075
 30
0.0
 11
4419.7938188756806994
 21
212.4969233444666088
 31
0.0
  0
ARC
  5
9506
  8
0
 10
4419.7113408956793137
 20
212.5026456209396883
 30
0.0
 40
0.0826762458821125
 50
278.7987771596183961
 51
356.0312104063337983
  0
LINE
  5
9507
  8
0
 10
4419.7239874465385583
 20
212.4209423383586
 30
0.0
 11
4412.5762490905381128
 21
212.4211934505586044
 31
0.0
  0
ARC
  5
9508
  8
0
 10
4412.5883192440560379
 20
212.5023766287357887
 30
0.0
 40
0.0820755568051146
 50
183.8293813992376045
 51
261.5433263201658178
  0
LINE
  5
9509
  8
0
 10
4412.5064269331032847
 20
212.4968951661863912
 30
0.0
 11
4412.5064174091958193
 21
214.8734637151239042
 31
0.0
  0
ARC
  5
950A
  8
0
 10
4405.2877775481865683
 20
214.8677578366335865
 30
0.0
 40
0.0826573140842531
 50
98.7882941876520562
 51
176.0416938207403064
  0
LINE
  5
950B
  8
0
 10
4405.2751488386384153
 20
214.9494447221586881
 30
0.0
 11
4412.4228871976383743
 21
214.9494432659587062
 31
0.0
  0
ARC
  5
950C
  8
0
 10
4412.410271196328722
 20
214.8677761325365054
 30
0.0
 40
0.0826358528148742
 50
3.9639699068329799
 51
81.2183212518673656
  0
LINE
  5
950D
  8
0
 10
4412.4927093609576332
 20
214.8734886786415075
 30
0.0
 11
4412.492718875681021
 21
212.4969233444666088
 31
0.0
  0
ARC
  5
950E
  8
0
 10
4412.4102408956778163
 20
212.5026456209396883
 30
0.0
 40
0.0826762458821125
 50
278.7987771596183961
 51
356.0312104063337983
  0
LINE
  5
950F
  8
0
 10
4412.4228874465379704
 20
212.4209423383586
 30
0.0
 11
4405.2751490905384344
 21
212.4211934505586044
 31
0.0
  0
ARC
  5
9510
  8
0
 10
4405.287219244057269
 20
212.5023766287357887
 30
0.0
 40
0.0820755568051146
 50
183.8293813992376045
 51
261.5433263201658178
  0
LINE
  5
9511
  8
0
 10
4405.2053269331017873
 20
212.4968951661863912
 30
0.0
 11
4405.2053174091961409
 21
214.8734637151239042
 31
0.0
  0
ARC
  5
9512
  8
0
 10
4427.1908856795243992
 20
235.2523341798479919
 30
0.0
 40
0.0824538872278029
 50
98.6752550162744484
 51
176.1547205045253861
  0
LINE
  5
9513
  8
0
 10
4427.17844883863836
 20
235.3338447221586875
 30
0.0
 11
4433.8765031106586321
 21
235.3335930454130107
 31
0.0
  0
LINE
  5
9514
  8
0
 10
4433.876503130923993
 20
232.8055934593807876
 30
0.0
 11
4427.1784490905392886
 21
232.805593450558689
 31
0.0
  0
ARC
  5
9515
  8
0
 10
4427.1900931809277608
 20
232.8863836565664087
 30
0.0
 40
0.0816250098177938
 50
183.5741281445181983
 51
261.7985800050805096
  0
LINE
  5
9516
  8
0
 10
4427.1086269334118697
 20
232.8812951652809886
 30
0.0
 11
4427.1086174139691138
 21
235.2578637369365993
 31
0.0
  0
ARC
  5
9517
  8
0
 10
4435.3264190882046023
 20
233.1732778275126918
 30
0.0
 40
1.48214524480013
 50
180.6836061534050089
 51
191.0796124920007912
  0
LINE
  5
9518
  8
0
 10
4433.8443793360738709
 20
233.1555945080849881
 30
0.0
 11
4433.8443898533723768
 21
234.9835852000587124
 31
0.0
  0
ARC
  5
9519
  8
0
 10
4435.3547362187664476
 20
234.9630497835100869
 30
0.0
 40
1.5104859637853101
 50
169.0263617270144891
 51
179.2210262292830123
  0
LINE
  5
951A
  8
0
 10
4433.876533763937914
 20
235.2753868540586097
 30
0.0
 11
4433.8718696863479636
 21
235.2505818579392098
 31
0.0
  0
LINE
  5
951B
  8
0
 10
4433.876533763937914
 20
232.8639195103586133
 30
0.0
 11
4433.8718993903376031
 21
232.8884498527584981
 31
0.0
  0
ARC
  5
951C
  8
0
 10
4427.1908856795243992
 20
240.3484341798479988
 30
0.0
 40
0.0824538872278029
 50
98.6752550162744484
 51
176.1547205045253861
  0
LINE
  5
951D
  8
0
 10
4427.17844883863836
 20
240.4299447221586945
 30
0.0
 11
4433.1555419755486582
 21
240.4185253928066004
 31
0.0
  0
LINE
  5
951E
  8
0
 10
4433.876503130920355
 20
237.9016934593807946
 30
0.0
 11
4427.1784490905392886
 21
237.901693450558696
 31
0.0
  0
ARC
  5
951F
  8
0
 10
4427.1900931809277608
 20
237.9824836565663873
 30
0.0
 40
0.0816250098177938
 50
183.5741281445181983
 51
261.7985800050805096
  0
LINE
  5
9520
  8
0
 10
4427.1086269334118697
 20
237.9773951652809956
 30
0.0
 11
4427.1086174139691138
 21
240.3539637369366062
 31
0.0
  0
ARC
  5
9521
  8
0
 10
4435.3264190882046023
 20
238.2693778275126988
 30
0.0
 40
1.48214524480013
 50
180.6836061534050089
 51
191.0796124920007912
  0
LINE
  5
9522
  8
0
 10
4433.8443793360738709
 20
238.2516945080849098
 30
0.0
 11
4433.8443898533723768
 21
240.0796852000586057
 31
0.0
  0
ARC
  5
9523
  8
0
 10
4435.3547362187682666
 20
240.0591497835100938
 30
0.0
 40
1.510485963787308
 50
169.0932626300790957
 51
179.221026229279687
  0
LINE
  5
9524
  8
0
 10
4433.876533763937914
 20
240.3714868540585883
 30
0.0
 11
4433.8715349630347191
 21
240.3449502065176091
 31
0.0
  0
LINE
  5
9525
  8
0
 10
4433.876533763937914
 20
237.9600195103585918
 30
0.0
 11
4433.8718993903376031
 21
237.984549852758505
 31
0.0
  0
ARC
  5
9526
  8
0
 10
4427.1908856795243992
 20
230.1562341798480986
 30
0.0
 40
0.0824538872278029
 50
98.6752550162744484
 51
176.1547205045253861
  0
LINE
  5
9527
  8
0
 10
4427.17844883863836
 20
230.237744722158709
 30
0.0
 11
4433.8765031106631795
 21
230.2374930454130038
 31
0.0
  0
LINE
  5
9528
  8
0
 10
4431.4582988447000389
 20
227.7094934561957018
 30
0.0
 11
4427.1784490905392886
 21
227.7094934505587105
 31
0.0
  0
ARC
  5
9529
  8
0
 10
4427.1900931809277608
 20
227.7902836565664018
 30
0.0
 40
0.0816250098177938
 50
183.5741281445181983
 51
261.7985800050805096
  0
LINE
  5
952A
  8
0
 10
4427.1086269334118697
 20
227.7851951652810101
 30
0.0
 11
4427.1086174139691138
 21
230.1617637369365923
 31
0.0
  0
LINE
  5
952B
  8
0
 10
4433.8443817165516521
 20
228.4732406873845036
 30
0.0
 11
4433.8443898533723768
 21
229.8874852000587055
 31
0.0
  0
ARC
  5
952C
  8
0
 10
4435.3547362187664476
 20
229.8669497835101083
 30
0.0
 40
1.5104859637853101
 50
169.0263617270144891
 51
179.2210262292830123
  0
LINE
  5
952D
  8
0
 10
4433.876533763937914
 20
230.179286854058688
 30
0.0
 11
4433.8718696863479636
 21
230.1544818579390892
 31
0.0
  0
ARC
  5
952E
  8
0
 10
4427.1908856795243992
 20
225.0601341798480917
 30
0.0
 40
0.0824538872278029
 50
98.6752550162744484
 51
176.1547205045253861
  0
LINE
  5
952F
  8
0
 10
4427.17844883863836
 20
225.1416447221587021
 30
0.0
 11
4433.8765031106631795
 21
225.1413930454129968
 31
0.0
  0
LINE
  5
9530
  8
0
 10
4433.8765031309249025
 20
222.6133934593808021
 30
0.0
 11
4427.1784490905392886
 21
222.6133934505587035
 31
0.0
  0
ARC
  5
9531
  8
0
 10
4427.1900931809277608
 20
222.6941836565663948
 30
0.0
 40
0.0816250098177938
 50
183.5741281445181983
 51
261.7985800050805096
  0
LINE
  5
9532
  8
0
 10
4427.1086269334118697
 20
222.6890951652810031
 30
0.0
 11
4427.1086174139691138
 21
225.0656637369366138
 31
0.0
  0
ARC
  5
9533
  8
0
 10
4435.3264190882046023
 20
222.9810778275127063
 30
0.0
 40
1.48214524480013
 50
180.6836061534050089
 51
191.0796124920007912
  0
LINE
  5
9534
  8
0
 10
4433.8443793360738709
 20
222.9633945080850026
 30
0.0
 11
4433.8443898533723768
 21
224.7913852000586985
 31
0.0
  0
ARC
  5
9535
  8
0
 10
4435.3547362187664476
 20
224.7708497835101014
 30
0.0
 40
1.5104859637853101
 50
169.0263617270144891
 51
179.2210262292830123
  0
LINE
  5
9536
  8
0
 10
4433.876533763937914
 20
225.0831868540587095
 30
0.0
 11
4433.8718696863479636
 21
225.0583818579391959
 31
0.0
  0
LINE
  5
9537
  8
0
 10
4433.876533763937914
 20
222.671719510358713
 30
0.0
 11
4433.8718993903376031
 21
222.6962498527583989
 31
0.0
  0
ARC
  5
9538
  8
0
 10
4427.1908856795243992
 20
219.9640341798481131
 30
0.0
 40
0.0824538872278029
 50
98.6752550162744484
 51
176.1547205045253861
  0
LINE
  5
9539
  8
0
 10
4427.17844883863836
 20
220.0455447221586098
 30
0.0
 11
4433.876503110678641
 21
220.0452930454129898
 31
0.0
  0
LINE
  5
953A
  8
0
 10
4433.8765031308521429
 20
217.5172934593807952
 30
0.0
 11
4427.1784490905392886
 21
217.5172934505586966
 31
0.0
  0
ARC
  5
953B
  8
0
 10
4427.1900931809277608
 20
217.5980836565663878
 30
0.0
 40
0.0816250098177938
 50
183.5741281445181983
 51
261.7985800050805096
  0
LINE
  5
953C
  8
0
 10
4427.1086269334118697
 20
217.5929951652809962
 30
0.0
 11
4427.1086174139691138
 21
219.9695637369366068
 31
0.0
  0
ARC
  5
953D
  8
0
 10
4435.3264190882046023
 20
217.8849778275126994
 30
0.0
 40
1.48214524480013
 50
180.6836061534050089
 51
191.0796124920007912
  0
LINE
  5
953E
  8
0
 10
4433.8443793360738709
 20
217.8672945080849956
 30
0.0
 11
4433.8443898533723768
 21
219.6952852000586063
 31
0.0
  0
ARC
  5
953F
  8
0
 10
4435.3547362187664476
 20
219.6747497835100944
 30
0.0
 40
1.5104859637853101
 50
169.0263617270144891
 51
179.2210262292830123
  0
LINE
  5
9540
  8
0
 10
4433.876533763937914
 20
219.9870868540587026
 30
0.0
 11
4433.8718696863479636
 21
219.962281857939189
 31
0.0
  0
LINE
  5
9541
  8
0
 10
4433.876533763937914
 20
217.5756195103587061
 30
0.0
 11
4433.8718993903376031
 21
217.6001498527585056
 31
0.0
  0
ARC
  5
9542
  8
0
 10
4427.1908856795243992
 20
214.8679341798479925
 30
0.0
 40
0.0824538872278029
 50
98.6752550162744484
 51
176.1547205045253861
  0
LINE
  5
9543
  8
0
 10
4427.17844883863836
 20
214.9494447221586881
 30
0.0
 11
4433.8765031105876915
 21
214.9491930454130113
 31
0.0
  0
LINE
  5
9544
  8
0
 10
4433.8865447485377445
 20
212.4211934593940043
 30
0.0
 11
4427.1784490905392886
 21
212.4211934505586896
 31
0.0
  0
ARC
  5
9545
  8
0
 10
4427.1900931809277608
 20
212.5019836565664093
 30
0.0
 40
0.0816250098177938
 50
183.5741281445181983
 51
261.7985800050805096
  0
LINE
  5
9546
  8
0
 10
4427.1086269334118697
 20
212.4968951652809892
 30
0.0
 11
4427.1086174139691138
 21
214.8734637369365998
 31
0.0
  0
ARC
  5
9547
  8
0
 10
4435.3264190882046023
 20
212.7888778275126924
 30
0.0
 40
1.48214524480013
 50
180.6836061534050089
 51
191.0796124920007912
  0
LINE
  5
9548
  8
0
 10
4433.8443793360738709
 20
212.7711945080849887
 30
0.0
 11
4433.8443898533723768
 21
214.5991852000585993
 31
0.0
  0
ARC
  5
9549
  8
0
 10
4435.3547362187664476
 20
214.5786497835102011
 30
0.0
 40
1.5104859637853101
 50
169.0263617270144891
 51
179.2210262292830123
  0
LINE
  5
954A
  8
0
 10
4433.876533763937914
 20
214.8909868540586956
 30
0.0
 11
4433.8718696863479636
 21
214.8661818579392104
 31
0.0
  0
LINE
  5
954B
  8
0
 10
4433.8865447485377445
 20
212.4238823288586957
 30
0.0
 11
4433.8718993903376031
 21
212.5040498527584987
 31
0.0
  0
ARC
  5
954C
  8
0
 10
4435.3811255364626049
 20
237.5000596651705962
 30
0.0
 40
1.552264963746703
 50
165.7694696824596861
 51
178.8341249082600086
  0
LINE
  5
954D
  8
0
 10
4433.8291819237183518
 20
237.5316435302586058
 30
0.0
 11
4433.8291819236428637
 21
235.7036435302732116
 31
0.0
  0
ARC
  5
954E
  8
0
 10
4435.381128403524599
 20
235.7352275717310022
 30
0.0
 40
1.5522678338785421
 50
181.1658794470914984
 51
194.2305101639954898
  0
ARC
  5
954F
  8
0
 10
4430.8351832082144028
 20
237.8068995826006073
 30
0.0
 40
0.0755817696212508
 50
90.8347771827843644
 51
184.2985242068660909
  0
LINE
  5
9550
  8
0
 10
4430.8340820502380666
 20
237.8824733303586925
 30
0.0
 11
4433.8764926006397218
 21
237.8816435302780974
 31
0.0
  0
LINE
  5
9551
  8
0
 10
4433.8764925514196875
 20
235.3536435303255985
 30
0.0
 11
4430.8407576158851953
 21
235.3501478801078974
 31
0.0
  0
ARC
  5
9552
  8
0
 10
4430.8393646858148713
 20
235.4298682524313904
 30
0.0
 40
0.0797325405187388
 50
176.9293652561642034
 51
271.0010100502648243
  0
LINE
  5
9553
  8
0
 10
4430.759746620838996
 20
235.4341392882587058
 30
0.0
 11
4430.7598140452391817
 21
237.8012344990588076
 31
0.0
  0
ARC
  5
9554
  8
0
 10
4435.3811255364680619
 20
232.4039596651707029
 30
0.0
 40
1.552264963746703
 50
165.7694696824596861
 51
178.8341249082600086
  0
LINE
  5
9555
  8
0
 10
4433.8291819237219897
 20
232.4355435302587125
 30
0.0
 11
4433.8291819236474112
 21
230.6075435302732046
 31
0.0
  0
ARC
  5
9556
  8
0
 10
4435.3811284035300559
 20
230.6391275717309952
 30
0.0
 40
1.5522678338785421
 50
181.1658794470914984
 51
194.2305101639954898
  0
ARC
  5
9557
  8
0
 10
4430.8351832082180408
 20
232.7107995826007141
 30
0.0
 40
0.0755817696212508
 50
90.8347771827843644
 51
184.2985242068660909
  0
LINE
  5
9558
  8
0
 10
4430.8340820502426141
 20
232.7863733303586002
 30
0.0
 11
4433.8764926006442693
 21
232.7855435302780904
 31
0.0
  0
LINE
  5
9559
  8
0
 10
4433.876492551426054
 20
230.2575435303255915
 30
0.0
 11
4430.8407576158888332
 21
230.2540478801078905
 31
0.0
  0
ARC
  5
955A
  8
0
 10
4430.8393646858194188
 20
230.3337682524312982
 30
0.0
 40
0.0797325405187388
 50
176.9293652561642034
 51
271.0010100502648243
  0
LINE
  5
955B
  8
0
 10
4430.7597466208417245
 20
230.3380392882586989
 30
0.0
 11
4430.7598140452419102
 21
232.7051344990588007
 31
0.0
  0
ARC
  5
955C
  8
0
 10
4435.3811284035300559
 20
225.5430275717309883
 30
0.0
 40
1.5522678338785421
 50
182.5892455490321993
 51
194.2305101639954898
  0
ARC
  5
955D
  8
0
 10
4430.8351832082180408
 20
227.6146995826005934
 30
0.0
 40
0.0755817696212508
 50
90.8347771827843644
 51
184.2985242068660909
  0
LINE
  5
955E
  8
0
 10
4430.8340820502426141
 20
227.6902733303585933
 30
0.0
 11
4431.3808425348652236
 21
227.6901242045628919
 31
0.0
  0
LINE
  5
955F
  8
0
 10
4433.876492551426054
 20
225.1614435303256982
 30
0.0
 11
4430.8407576158888332
 21
225.1579478801079119
 31
0.0
  0
ARC
  5
9560
  8
0
 10
4430.8393646858194188
 20
225.2376682524314049
 30
0.0
 40
0.0797325405187388
 50
176.9293652561642034
 51
271.0010100502648243
  0
LINE
  5
9561
  8
0
 10
4430.7597466208417245
 20
225.2419392882586919
 30
0.0
 11
4430.7598140452419102
 21
227.6090344990587937
 31
0.0
  0
ARC
  5
9562
  8
0
 10
4435.3811255364680619
 20
222.211759665170689
 30
0.0
 40
1.552264963746703
 50
165.7694696824596861
 51
178.8341249082600086
  0
LINE
  5
9563
  8
0
 10
4433.8291819237219897
 20
222.2433435302586986
 30
0.0
 11
4433.8291819236474112
 21
220.4153435302731907
 31
0.0
  0
ARC
  5
9564
  8
0
 10
4435.3811284035300559
 20
220.4469275717310097
 30
0.0
 40
1.5522678338785421
 50
181.1658794470914984
 51
194.2305101639954898
  0
ARC
  5
9565
  8
0
 10
4430.8351832082180408
 20
222.5185995826005865
 30
0.0
 40
0.0755817696212508
 50
90.8347771827843644
 51
184.2985242068660909
  0
LINE
  5
9566
  8
0
 10
4430.8340820502426141
 20
222.5941733303587
 30
0.0
 11
4433.8764926006442693
 21
222.5933435302781902
 31
0.0
  0
LINE
  5
9567
  8
0
 10
4433.876492551426054
 20
220.065343530325606
 30
0.0
 11
4430.8407576158888332
 21
220.061847880107905
 31
0.0
  0
ARC
  5
9568
  8
0
 10
4430.8393646858194188
 20
220.1415682524313979
 30
0.0
 40
0.0797325405187388
 50
176.9293652561642034
 51
271.0010100502648243
  0
LINE
  5
9569
  8
0
 10
4430.7597466208417245
 20
220.1458392882587134
 30
0.0
 11
4430.7598140452419102
 21
222.5129344990587015
 31
0.0
  0
ARC
  5
956A
  8
0
 10
4435.3811255363680175
 20
217.1156596651707105
 30
0.0
 40
1.552264963746703
 50
165.7694696824596861
 51
178.8341249082600086
  0
LINE
  5
956B
  8
0
 10
4433.8291819236228548
 20
217.1472435302586064
 30
0.0
 11
4433.8291819235473668
 21
215.3192435302732122
 31
0.0
  0
ARC
  5
956C
  8
0
 10
4435.381128403429102
 20
215.3508275717310028
 30
0.0
 40
1.5522678338785421
 50
181.1658794470914984
 51
194.2305101639954898
  0
ARC
  5
956D
  8
0
 10
4430.8351832081179964
 20
217.4224995826006079
 30
0.0
 40
0.0755817696212508
 50
90.8347771827843644
 51
184.2985242068660909
  0
LINE
  5
956E
  8
0
 10
4430.8340820501425696
 20
217.4980733303586931
 30
0.0
 11
4433.8764926005451343
 21
217.4972435302782117
 31
0.0
  0
LINE
  5
956F
  8
0
 10
4433.8764925513251001
 20
214.9692435303255991
 30
0.0
 11
4430.8407576157887888
 21
214.965747880107898
 31
0.0
  0
ARC
  5
9570
  8
0
 10
4430.8393646857193744
 20
215.045468252431391
 30
0.0
 40
0.0797325405187388
 50
176.9293652561642034
 51
271.0010100502648243
  0
LINE
  5
9571
  8
0
 10
4430.7597466207425896
 20
215.0497392882587064
 30
0.0
 11
4430.7598140451418658
 21
217.4168344990586945
 31
0.0
  0
LINE
  5
9572
  8
0
 10
4433.876533763937914
 20
214.8909868540586956
 30
0.0
 11
4433.8764925513251001
 21
214.9692435303255991
 31
0.0
  0
LINE
  5
9573
  8
0
 10
4433.876533763937914
 20
217.5756195103587061
 30
0.0
 11
4433.8764926005451343
 21
217.4972435302782117
 31
0.0
  0
LINE
  5
9574
  8
0
 10
4433.8764925514469724
 20
220.065343530325606
 30
0.0
 11
4433.876533763937914
 21
219.9870868540587026
 31
0.0
  0
LINE
  5
9575
  8
0
 10
4433.876533763937914
 20
222.671719510358713
 30
0.0
 11
4433.8764926006442693
 21
222.5933435302781902
 31
0.0
  0
LINE
  5
9576
  8
0
 10
4433.876492551426054
 20
225.1614435303256982
 30
0.0
 11
4433.876533763937914
 21
225.0831868540587095
 31
0.0
  0
LINE
  5
9577
  8
0
 10
4433.876492551426054
 20
230.2575435303255063
 30
0.0
 11
4433.876533763937914
 21
230.179286854058688
 31
0.0
  0
LINE
  5
9578
  8
0
 10
4433.8764926006406313
 20
232.7855435302828937
 30
0.0
 11
4433.876533763937914
 21
232.8639195103586133
 31
0.0
  0
LINE
  5
9579
  8
0
 10
4433.8764925514196875
 20
235.3536435303255132
 30
0.0
 11
4433.876533763937914
 21
235.2753868540586097
 31
0.0
  0
LINE
  5
957A
  8
0
 10
4433.876533763937914
 20
237.9600195103585918
 30
0.0
 11
4433.8764926006369933
 21
237.8816435302661034
 31
0.0
  0
ARC
  5
957B
  8
0
 10
4433.5809672333743947
 20
240.4463191561794986
 30
0.0
 40
0.3048925178335519
 50
345.7922624657248889
 51
1.2637496254881551
  0
ARC
  5
957C
  8
0
 10
4435.4470621855562058
 20
257.8791581418515761
 30
0.0
 40
1.618225219196606
 50
166.0433771215176932
 51
178.6939023676048919
  0
LINE
  5
957D
  8
0
 10
4433.8292573987637297
 20
257.916043530275374
 30
0.0
 11
4433.8292573709968565
 21
256.0880435302586875
 31
0.0
  0
ARC
  5
957E
  8
0
 10
4435.4470533783860446
 20
256.1249278677000802
 30
0.0
 40
1.6182164181199781
 50
181.3060675156316108
 51
193.95666200509541
  0
ARC
  5
957F
  8
0
 10
4433.6227428111487825
 20
211.785450977300286
 30
0.0
 40
0.0622799297156135
 50
173.1977761761718
 51
267.188179345272772
  0
ARC
  5
9580
  8
0
 10
4433.7076564442186282
 20
211.8482496732144114
 30
0.0
 40
0.1250036442470351
 50
170.7935793664763935
 51
269.9917642786932106
  0
ARC
  5
9581
  8
0
 10
4435.1458966091267939
 20
211.6108813961560031
 30
0.0
 40
1.595404217641563
 50
159.8966152267518908
 51
173.4515163292954867
  0
ARC
  5
9582
  8
0
 10
4435.1701478389659314
 20
211.611206448582891
 30
0.0
 40
1.6065806992969269
 50
160.0547695640912025
 51
170.7934697040739991
  0
ARC
  5
9583
  8
0
 10
4433.87381620373435
 20
212.0767818482742086
 30
0.0
 40
0.2406897594336453
 50
114.2045558551182012
 51
159.9636597905428061
  0
ARC
  5
9584
  8
0
 10
4433.8854970586698983
 20
212.0774080809655118
 30
0.0
 40
0.2399528833841081
 50
114.1778317577016963
 51
160.0586286530817972
  0
ARC
  5
9585
  8
0
 10
4433.693471321657853
 20
212.4821294239112035
 30
0.0
 40
0.202970428398175
 50
293.7245533389647107
 51
332.2072198326786747
  0
ARC
  5
9586
  8
0
 10
4433.7068596896087911
 20
212.477089170830709
 30
0.0
 40
0.197833514560077
 50
293.9663059948496766
 51
333.0697711040762101
  0
LINE
  5
9587
  8
0
 10
4433.8865447485377445
 20
212.4238823288586957
 30
0.0
 11
4433.8865447485377445
 21
212.4011814022586009
 31
0.0
  0
ARC
  5
9588
  8
0
 10
4433.8564221158367218
 20
212.4012072648139906
 30
0.0
 40
0.030122643800803
 50
332.9091988378118003
 51
359.9508071867920762
  0
ARC
  5
9589
  8
0
 10
4433.1000909618896912
 20
225.9567938245930065
 30
0.0
 40
14.4618378764934992
 50
86.9009795169141483
 51
89.780310299137895
  0
ARC
  5
958A
  8
0
 10
4408.7597636689588398
 20
268.3768638971415044
 30
0.0
 40
0.082590736034968
 50
3.942111706236497
 51
81.2913706712686945
  0
LINE
  5
958B
  8
0
 10
4408.772268707177318
 20
268.458502452358573
 30
0.0
 11
4401.631158775277072
 21
268.4609850039586263
 31
0.0
  0
ARC
  5
958C
  8
0
 10
4401.6404267263260408
 20
268.3755386351763264
 30
0.0
 40
0.0859475238429649
 50
96.1903935601904863
 51
175.3450164775254052
  0
LINE
  5
958D
  8
0
 10
4401.5547627040759835
 20
268.3825137442585742
 30
0.0
 11
4401.5547718491770866
 21
266.0059451490478182
 31
0.0
  0
ARC
  5
958E
  8
0
 10
4401.6370061602983697
 20
266.0114750145020253
 30
0.0
 40
0.0824200299533133
 50
183.8470763153692076
 51
261.3864160044975051
  0
LINE
  5
958F
  8
0
 10
4401.6246621322761712
 20
265.9299846082586214
 30
0.0
 11
4408.7657720570759921
 21
265.9275020565586942
 31
0.0
  0
ARC
  5
9590
  8
0
 10
4408.7565099835492219
 20
266.0129427102652926
 30
0.0
 40
0.0859412084614658
 50
276.186908807080215
 51
355.3485027668336897
  0
LINE
  5
9591
  8
0
 10
4408.8421681354766406
 20
266.0059733257587027
 30
0.0
 11
4408.8421589968766057
 21
268.3825418911587235
 31
0.0
  0
ARC
  5
9592
  8
0
 10
4408.7597636689588398
 20
263.2807638971414121
 30
0.0
 40
0.082590736034968
 50
3.942111706236497
 51
81.2913706712686945
  0
LINE
  5
9593
  8
0
 10
4408.772268707177318
 20
263.3624024523585945
 30
0.0
 11
4401.631158775277072
 21
263.3648850039587046
 31
0.0
  0
ARC
  5
9594
  8
0
 10
4401.6404267263260408
 20
263.279438635176291
 30
0.0
 40
0.0859475238429649
 50
96.1903935601904863
 51
175.3450164775254052
  0
LINE
  5
9595
  8
0
 10
4401.5547627040759835
 20
263.2864137442587094
 30
0.0
 11
4401.5547718491770866
 21
260.9098451490477828
 31
0.0
  0
ARC
  5
9596
  8
0
 10
4401.6370061602983697
 20
260.9153750145018762
 30
0.0
 40
0.0824200299533133
 50
183.8470763153692076
 51
261.3864160044975051
  0
LINE
  5
9597
  8
0
 10
4401.6246621322761712
 20
260.833884608258586
 30
0.0
 11
4408.7657720570759921
 21
260.8314020565587157
 31
0.0
  0
ARC
  5
9598
  8
0
 10
4408.7565099835492219
 20
260.9168427102653141
 30
0.0
 40
0.0859412084614658
 50
276.186908807080215
 51
355.3485027668336897
  0
LINE
  5
9599
  8
0
 10
4408.8421681354766406
 20
260.9098733257587241
 30
0.0
 11
4408.8421589968766057
 21
263.2864418911586881
 31
0.0
  0
ARC
  5
959A
  8
0
 10
4408.7597636689588398
 20
258.1846638971413768
 30
0.0
 40
0.082590736034968
 50
3.942111706236497
 51
81.2913706712686945
  0
LINE
  5
959B
  8
0
 10
4408.772268707177318
 20
258.2663024523586728
 30
0.0
 11
4401.631158775277072
 21
258.2687850039586124
 31
0.0
  0
ARC
  5
959C
  8
0
 10
4401.6404267263260408
 20
258.1833386351764261
 30
0.0
 40
0.0859475238429649
 50
96.1903935601904863
 51
175.3450164775254052
  0
LINE
  5
959D
  8
0
 10
4401.5547627040759835
 20
258.190313744258674
 30
0.0
 11
4401.5547718491770866
 21
255.8137451490476906
 31
0.0
  0
ARC
  5
959E
  8
0
 10
4401.6370061602983697
 20
255.8192750145018977
 30
0.0
 40
0.0824200299533133
 50
183.8470763153692076
 51
261.3864160044975051
  0
LINE
  5
959F
  8
0
 10
4401.6246621322761712
 20
255.7377846082586075
 30
0.0
 11
4408.7657720570759921
 21
255.7353020565587087
 31
0.0
  0
ARC
  5
95A0
  8
0
 10
4408.7565099835492219
 20
255.8207427102653924
 30
0.0
 40
0.0859412084614658
 50
276.186908807080215
 51
355.3485027668336897
  0
LINE
  5
95A1
  8
0
 10
4408.8421681354766406
 20
255.8137733257586888
 30
0.0
 11
4408.8421589968766057
 21
258.1903418911585959
 31
0.0
  0
ARC
  5
95A2
  8
0
 10
4408.7597636689588398
 20
253.0885638971413982
 30
0.0
 40
0.082590736034968
 50
3.942111706236497
 51
81.2913706712686945
  0
LINE
  5
95A3
  8
0
 10
4408.772268707177318
 20
253.1702024523586942
 30
0.0
 11
4401.631158775277072
 21
253.1726850039586054
 31
0.0
  0
ARC
  5
95A4
  8
0
 10
4401.6404267263260408
 20
253.0872386351763907
 30
0.0
 40
0.0859475238429649
 50
96.1903935601904863
 51
175.3450164775254052
  0
LINE
  5
95A5
  8
0
 10
4401.5547627040759835
 20
253.0942137442586954
 30
0.0
 11
4401.5547718491770866
 21
250.717645149047712
 31
0.0
  0
ARC
  5
95A6
  8
0
 10
4401.6370061602983697
 20
250.7231750145020044
 30
0.0
 40
0.0824200299533133
 50
183.8470763153692076
 51
261.3864160044975051
  0
LINE
  5
95A7
  8
0
 10
4401.6246621322761712
 20
250.6416846082586005
 30
0.0
 11
4408.7657720570759921
 21
250.6392020565587018
 31
0.0
  0
ARC
  5
95A8
  8
0
 10
4408.7565099835492219
 20
250.7246427102653001
 30
0.0
 40
0.0859412084614658
 50
276.186908807080215
 51
355.3485027668336897
  0
LINE
  5
95A9
  8
0
 10
4408.8421681354766406
 20
250.7176733257585965
 30
0.0
 11
4408.8421589968766057
 21
253.0942418911585889
 31
0.0
  0
ARC
  5
95AA
  8
0
 10
4408.7597636689588398
 20
247.9924638971413913
 30
0.0
 40
0.082590736034968
 50
3.942111706236497
 51
81.2913706712686945
  0
LINE
  5
95AB
  8
0
 10
4408.772268707177318
 20
248.074102452358602
 30
0.0
 11
4401.631158775277072
 21
248.0765850039585985
 31
0.0
  0
ARC
  5
95AC
  8
0
 10
4401.6404267263260408
 20
247.9911386351764122
 30
0.0
 40
0.0859475238429649
 50
96.1903935601904863
 51
175.3450164775254052
  0
LINE
  5
95AD
  8
0
 10
4401.5547627040759835
 20
247.9981137442586032
 30
0.0
 11
4401.5547718491770866
 21
245.6215451490477051
 31
0.0
  0
ARC
  5
95AE
  8
0
 10
4401.6370061602983697
 20
245.6270750145019974
 30
0.0
 40
0.0824200299533133
 50
183.8470763153692076
 51
261.3864160044975051
  0
LINE
  5
95AF
  8
0
 10
4401.6246621322761712
 20
245.5455846082585083
 30
0.0
 11
4408.7657720570759921
 21
245.5431020565586095
 31
0.0
  0
ARC
  5
95B0
  8
0
 10
4408.7565099835492219
 20
245.6285427102652932
 30
0.0
 40
0.0859412084614658
 50
276.186908807080215
 51
355.3485027668336897
  0
LINE
  5
95B1
  8
0
 10
4408.8421681354766406
 20
245.6215733257585896
 30
0.0
 11
4408.8421589968766057
 21
247.9981418911586104
 31
0.0
  0
ARC
  5
95B2
  8
0
 10
4408.7596968581301553
 20
237.8002360376335957
 30
0.0
 40
0.0826573140842531
 50
3.9583061792597301
 51
81.2117058123479865
  0
LINE
  5
95B3
  8
0
 10
4408.7723255676773988
 20
237.8819229231586974
 30
0.0
 11
4401.6245872086783493
 21
237.8819214669586017
 31
0.0
  0
ARC
  5
95B4
  8
0
 10
4401.6372032099852731
 20
237.8002543335364862
 30
0.0
 40
0.0826358528148742
 50
98.7816787481326344
 51
176.036030093163788
  0
LINE
  5
95B5
  8
0
 10
4401.5547650453572714
 20
237.8059668796414883
 30
0.0
 11
4401.5547555306347931
 21
235.4294015454665896
 31
0.0
  0
ARC
  5
95B6
  8
0
 10
4401.6372335106379978
 20
235.4351238219396976
 30
0.0
 40
0.0826762458821125
 50
183.9687895936694986
 51
261.2012228403814902
  0
LINE
  5
95B7
  8
0
 10
4401.6245869597760247
 20
235.3534205393586944
 30
0.0
 11
4408.7723253157773797
 21
235.3536716515586988
 31
0.0
  0
ARC
  5
95B8
  8
0
 10
4408.7602551622603642
 20
235.4348548297357979
 30
0.0
 40
0.0820755568051146
 50
278.4566736798342959
 51
356.1706186007623955
  0
LINE
  5
95B9
  8
0
 10
4408.8421474732131173
 20
235.4293733671864004
 30
0.0
 11
4408.8421569971196732
 21
237.8059419161237997
 31
0.0
  0
ARC
  5
95BA
  8
0
 10
4408.7596968649286282
 20
232.7041360166336119
 30
0.0
 40
0.0826573140842531
 50
3.9583061792597301
 51
81.2117058123479865
  0
LINE
  5
95BB
  8
0
 10
4408.7723255744767812
 20
232.7858229021587135
 30
0.0
 11
4401.6245872154768222
 21
232.7858214459587032
 31
0.0
  0
ARC
  5
95BC
  8
0
 10
4401.637203216785565
 20
232.7041543125365024
 30
0.0
 40
0.0826358528148742
 50
98.7816787481326344
 51
176.036030093163788
  0
LINE
  5
95BD
  8
0
 10
4401.5547650521566538
 20
232.7098668586415045
 30
0.0
 11
4401.554755537435085
 21
230.3333015244666058
 31
0.0
  0
ARC
  5
95BE
  8
0
 10
4401.6372335174382897
 20
230.3390238009397137
 30
0.0
 40
0.0826762458821125
 50
183.9687895936694986
 51
261.2012228403814902
  0
LINE
  5
95BF
  8
0
 10
4401.6245869665772261
 20
230.2573205183587106
 30
0.0
 11
4408.7723253225767621
 21
230.2575716305586013
 31
0.0
  0
ARC
  5
95C0
  8
0
 10
4408.7602551690597465
 20
230.3387548087358141
 30
0.0
 40
0.0820755568051146
 50
278.4566736798342959
 51
356.1706186007623955
  0
LINE
  5
95C1
  8
0
 10
4408.8421474800134092
 20
230.3332733461863882
 30
0.0
 11
4408.8421570039199651
 21
232.7098418951239012
 31
0.0
  0
LINE
  5
95C2
  8
0
 10
4401.5547594776990081
 20
226.2230928791381928
 30
0.0
 11
4401.5547555306238792
 21
225.2372015455179053
 31
0.0
  0
ARC
  5
95C3
  8
0
 10
4401.6372335106261744
 20
225.2429238219910133
 30
0.0
 40
0.0826762458821125
 50
183.9687895936694986
 51
261.2012228403814902
  0
LINE
  5
95C4
  8
0
 10
4401.6245869597660203
 20
225.1612205394100101
 30
0.0
 11
4408.7723253157655563
 21
225.1614716516099861
 31
0.0
  0
ARC
  5
95C5
  8
0
 10
4408.7602551622476312
 20
225.2426548297871989
 30
0.0
 40
0.0820755568051146
 50
278.4566736798342959
 51
356.1706186007623955
  0
LINE
  5
95C6
  8
0
 10
4408.8421474732022034
 20
225.2371733672376877
 30
0.0
 11
4408.8421514244009813
 21
226.2231444448038076
 31
0.0
  0
ARC
  5
95C7
  8
0
 10
4408.7596968581183319
 20
222.5119360377850057
 30
0.0
 40
0.0826573140842531
 50
3.9583061792597301
 51
81.2117058123479865
  0
LINE
  5
95C8
  8
0
 10
4408.7723255676655754
 20
222.5936229233099937
 30
0.0
 11
4401.6245872086647068
 21
222.5936214671100117
 31
0.0
  0
ARC
  5
95C9
  8
0
 10
4401.6372032099752687
 20
222.511954333687811
 30
0.0
 40
0.0826358528148742
 50
98.7816787481326344
 51
176.036030093163788
  0
LINE
  5
95CA
  8
0
 10
4401.5547650453463575
 20
222.517666879792813
 30
0.0
 11
4401.5547555306238792
 21
220.1411015456178859
 31
0.0
  0
ARC
  5
95CB
  8
0
 10
4401.6372335106261744
 20
220.1468238220911076
 30
0.0
 40
0.0826762458821125
 50
183.9687895936694986
 51
261.2012228403814902
  0
LINE
  5
95CC
  8
0
 10
4401.6245869597660203
 20
220.0651205395099907
 30
0.0
 11
4408.7723253157655563
 21
220.0653716517099099
 31
0.0
  0
ARC
  5
95CD
  8
0
 10
4408.7602551622476312
 20
220.1465548298870942
 30
0.0
 40
0.0820755568051146
 50
278.4566736798342959
 51
356.1706186007623955
  0
LINE
  5
95CE
  8
0
 10
4408.8421474732022034
 20
220.1410733673376967
 30
0.0
 11
4408.8421569971087592
 21
222.5176419162752097
 31
0.0
  0
ARC
  5
95CF
  8
0
 10
4408.7596968581301553
 20
217.4158360376335111
 30
0.0
 40
0.0826573140842531
 50
3.9583061792597301
 51
81.2117058123479865
  0
LINE
  5
95D0
  8
0
 10
4408.7723255676773988
 20
217.4975229231586979
 30
0.0
 11
4401.6245872086783493
 21
217.4975214669586876
 31
0.0
  0
ARC
  5
95D1
  8
0
 10
4401.6372032099852731
 20
217.4158543335364016
 30
0.0
 40
0.0826358528148742
 50
98.7816787481326344
 51
176.036030093163788
  0
LINE
  5
95D2
  8
0
 10
4401.5547650453572714
 20
217.4215668796414889
 30
0.0
 11
4401.5547555306347931
 21
215.0450015454665902
 31
0.0
  0
ARC
  5
95D3
  8
0
 10
4401.6372335106379978
 20
215.0507238219396129
 30
0.0
 40
0.0826762458821125
 50
183.9687895936694986
 51
261.2012228403814902
  0
LINE
  5
95D4
  8
0
 10
4401.6245869597760247
 20
214.969020539358695
 30
0.0
 11
4408.7723253157773797
 21
214.9692716515586142
 31
0.0
  0
ARC
  5
95D5
  8
0
 10
4408.7602551622603642
 20
215.0504548297357985
 30
0.0
 40
0.0820755568051146
 50
278.4566736798342959
 51
356.1706186007623955
  0
LINE
  5
95D6
  8
0
 10
4408.8421474732131173
 20
215.0449733671862873
 30
0.0
 11
4408.8421569971196732
 21
217.421541916123914
 31
0.0
  0
LINE
  5
95D7
  8
0
 10
4375.2398087539386324
 20
211.5401269743585999
 30
0.0
 11
4375.2156847450987698
 21
212.2305273741322935
 31
0.0
  0
LINE
  5
95D8
  8
0
 10
4434.9792236917755872
 20
211.7232460302587072
 30
0.0
 11
4434.9960880776770864
 21
212.2061788577586867
 31
0.0
  0
LINE
  5
95D9
  8
0
 10
4434.9960880776770864
 20
212.2061788577586867
 30
0.0
 11
4435.1350759115766778
 21
212.2110324198586966
 31
0.0
  0
ARC
  5
95DA
  8
0
 10
4435.1358353334380809
 20
212.2736606526617038
 30
0.0
 40
0.0626328369595742
 50
269.3052728274423089
 51
359.9459597916502958
  0
ARC
  5
95DB
  8
0
 10
4435.0819677320769188
 20
211.5427647212192994
 30
0.0
 40
0.0752033498347111
 50
344.9700107148804022
 51
357.9899464552241284
  0
LINE
  5
95DC
  8
0
 10
4435.0554704887190383
 20
212.2082525372424016
 30
0.0
 11
4435.0395350201188194
 21
211.7521984079508002
 31
0.0
  0
ARC
  5
95DD
  8
0
 10
4435.0095533174899174
 20
211.7532460302946902
 30
0.0
 40
0.0300000000861241
 50
270.0033128757762029
 51
357.9987818373194273
  0
LINE
  5
95DE
  8
0
 10
4435.1571248083773753
 20
211.5401269743585999
 30
0.0
 11
4435.1812488138357367
 21
212.2305272773739091
 31
0.0
  0
LINE
  5
95DF
  8
0
 10
4375.2392391398079781
 20
270.0338293127804832
 30
0.0
 11
4375.1984681425392409
 21
270.0359660302586917
 31
0.0
  0
LINE
  5
95E0
  8
0
 10
4435.154596638766634
 20
193.7232460302587072
 30
0.0
 11
4375.2423369235475548
 21
193.7232460302587072
 31
0.0
  0
LINE
  5
95E1
  8
0
 10
4435.0107433101629795
 20
212.2066906297530977
 30
0.0
 11
4435.0045395452380035
 21
212.0290380467585862
 31
0.0
  0
LINE
  5
95E2
  8
0
 10
4435.0045395452380035
 20
212.0290380467585862
 30
0.0
 11
4434.9893232920139781
 21
212.0124607415513083
 31
0.0
  0
LINE
  5
95E3
  8
0
 10
4375.3861929782387961
 20
212.2066905345587031
 30
0.0
 11
4375.3923967398377499
 21
212.0290380467585862
 31
0.0
  0
LINE
  5
95E4
  8
0
 10
4375.3923967398377499
 20
212.0290380467585862
 30
0.0
 11
4375.4076101626151285
 21
212.0124638252844136
 31
0.0
  0
LINE
  5
95E5
  8
0
 10
4376.3626654197769312
 20
252.2845330104603079
 30
0.0
 11
4376.7196681425393763
 21
252.2845330104603079
 31
0.0
  0
ARC
  5
95E6
  8
0
 10
4376.7196681425393763
 20
252.0965290717032872
 30
0.0
 40
0.1880039387569461
 50
0.3708809318511073
 51
90.0
  0
LINE
  5
95E7
  8
0
 10
4376.9076681425385686
 20
252.0977460302586906
 30
0.0
 11
4376.9076681425385686
 21
249.3487460302586953
 31
0.0
  0
ARC
  5
95E8
  8
0
 10
4376.7186980870274056
 20
249.3490956158784968
 30
0.0
 40
0.1889703788696737
 50
274.6455080933906743
 51
359.8940056524378974
  0
LINE
  5
95E9
  8
0
 10
4376.7340029126380614
 20
249.1607460302587072
 30
0.0
 11
4376.3626654197769312
 21
249.1617159300031972
 31
0.0
  0
ARC
  5
95EA
  8
0
 10
4376.7826681425385686
 20
248.8482460302587072
 30
0.0
 40
1.125000000000006
 50
0.0
 51
83.6206297915456958
  0
ARC
  5
95EB
  8
0
 10
4376.7826681425385686
 20
248.8482460302587072
 30
0.0
 40
2.6249999999999991
 50
0.0
 51
87.2705973632088643
  0
LINE
  5
95EC
  8
0
 10
4379.4076681425403876
 20
248.8482460302587072
 30
0.0
 11
4379.4076681425403876
 21
234.5982460302587072
 31
0.0
  0
ARC
  5
95ED
  8
0
 10
4376.7826681425385686
 20
234.5982460302587072
 30
0.0
 40
2.624999999999996
 50
272.7294026367911215
 51
0.0
  0
ARC
  5
95EE
  8
0
 10
4376.7826681425385686
 20
234.5982460302587072
 30
0.0
 40
1.1250000000000011
 50
276.3793702084543042
 51
0.0
  0
LINE
  5
95EF
  8
0
 10
4377.9076681425385686
 20
234.5982460302587072
 30
0.0
 11
4377.9076681425385686
 21
248.8482460302587072
 31
0.0
  0
LINE
  5
95F0
  8
0
 10
4376.3626654197769312
 20
234.2857460302587072
 30
0.0
 11
4376.7196681425393763
 21
234.2857460302587072
 31
0.0
  0
ARC
  5
95F1
  8
0
 10
4376.7196681425393763
 20
234.0977460302586906
 30
0.0
 40
0.1879999999999882
 50
359.9999999999919282
 51
90.0
  0
LINE
  5
95F2
  8
0
 10
4376.9076681425385686
 20
234.0977460302586053
 30
0.0
 11
4376.9076681425385686
 21
231.3491301841168024
 31
0.0
  0
ARC
  5
95F3
  8
0
 10
4376.7183348572825707
 20
231.3492634302355953
 30
0.0
 40
0.1893333321422008
 50
275.3211709016836153
 51
359.9596772486723921
  0
LINE
  5
95F4
  8
0
 10
4376.7358933471377895
 20
231.1607460302587072
 30
0.0
 11
4376.3626654197769312
 21
231.1607460302587072
 31
0.0
  0
ARC
  5
95F5
  8
0
 10
4423.1984681426392854
 20
226.9732460302587072
 30
0.0
 40
1.5625
 50
208.6854020141142882
 51
151.3145979858842907
  0
LINE
  5
95F6
  8
0
 10
4423.1992162273336362
 20
227.7232445324682999
 30
0.0
 11
4387.1977173349823715
 21
227.7234883720147991
 31
0.0
  0
LINE
  5
95F7
  8
0
 10
4423.1984667802507829
 20
226.2232460302587072
 30
0.0
 11
4387.1984667820661343
 21
226.2229912938630036
 31
0.0
  0
ARC
  5
95F8
  8
0
 10
4387.1984681426392854
 20
226.9732460302587072
 30
0.0
 40
1.5625
 50
28.6951441775990688
 51
331.3043575303178727
  0
ARC
  5
95F9
  8
0
 10
4387.1987170148913719
 20
226.9732401450831958
 30
0.0
 40
0.7502488929507547
 50
90.0763446066447955
 51
269.980889961610103
  0
ARC
  5
95FA
  8
0
 10
4423.1984687046069666
 20
226.973245467625901
 30
0.0
 40
0.7499994373696693
 50
269.9998529899123128
 51
89.9428934179220079
  0
ARC
  5
95FB
  8
0
 10
4423.1984681426392854
 20
218.7862460302586953
 30
0.0
 40
1.5625
 50
208.6854020141157093
 51
151.3145979858842907
  0
LINE
  5
95FC
  8
0
 10
4423.1992162273336362
 20
219.5362445324684018
 30
0.0
 11
4387.1977173349823715
 21
219.5364883720147873
 31
0.0
  0
LINE
  5
95FD
  8
0
 10
4423.1984667802507829
 20
218.0362460302490035
 30
0.0
 11
4387.1984667820661343
 21
218.0359912938533
 31
0.0
  0
ARC
  5
95FE
  8
0
 10
4387.1984681426392854
 20
218.7862460302586953
 30
0.0
 40
1.5625
 50
28.6951441775990688
 51
331.3043575303194075
  0
ARC
  5
95FF
  8
0
 10
4387.1987170148959194
 20
218.7862401450784944
 30
0.0
 40
0.7502488929555794
 50
90.0763446070095881
 51
269.9808899612974074
  0
ARC
  5
9600
  8
0
 10
4423.1984687046024192
 20
218.7862454676210007
 30
0.0
 40
0.7499994373744922
 50
269.9998529902248947
 51
89.9428934176093406
  0
ARC
  5
9601
  8
0
 10
4378.7956736372379964
 20
226.9732460302587072
 30
0.0
 40
0.7499987617999997
 50
270.001403927218405
 51
89.998596072781595
  0
LINE
  5
9602
  8
0
 10
4376.9071575267544176
 20
227.7234277610253912
 30
0.0
 11
4378.6293391854378569
 21
227.7232762530267962
 31
0.0
  0
LINE
  5
9603
  8
0
 10
4378.6293391854378569
 20
227.7232762530267962
 30
0.0
 11
4378.795692014571614
 21
227.7232447918335083
 31
0.0
  0
LINE
  5
9604
  8
0
 10
4378.795692014571614
 20
226.2232472686837923
 30
0.0
 11
4378.6293391854378569
 21
226.2231585154904963
 31
0.0
  0
LINE
  5
9605
  8
0
 10
4378.6293391854378569
 20
226.2231585154904963
 30
0.0
 11
4376.9069612895364116
 21
226.2222395867059106
 31
0.0
  0
LINE
  5
9606
  8
0
 10
4376.9072555429502245
 20
228.4732384101855018
 30
0.0
 11
4376.3626654197769312
 21
228.47324190645611
 31
0.0
  0
LINE
  5
9607
  8
0
 10
4376.3626654197769312
 20
225.4720534678650949
 30
0.0
 11
4376.9068635208050182
 21
225.4743220218047099
 31
0.0
  0
LINE
  5
9608
  8
0
 10
4376.9068635208050182
 20
225.4743220218047099
 30
0.0
 11
4376.9072555429502245
 21
228.4732384101855018
 31
0.0
  0
LINE
  5
9609
  8
0
 10
4377.0252775697563266
 20
227.9693793122544889
 30
0.0
 11
4377.0466237716682372
 21
227.7234154915580859
 31
0.0
  0
LINE
  5
960A
  8
0
 10
4377.0252775697563266
 20
227.9693793122544889
 30
0.0
 11
4376.9071896755367561
 21
227.9693616153118967
 31
0.0
  0
LINE
  5
960B
  8
0
 10
4377.1130640676392431
 20
228.4762620585586888
 30
0.0
 11
4376.9072555429502245
 21
228.4732384101855018
 31
0.0
  0
LINE
  5
960C
  8
0
 10
4377.1130640676392431
 20
228.4762620585586888
 30
0.0
 11
4377.176081649338812
 21
228.4132414159587086
 31
0.0
  0
LINE
  5
960D
  8
0
 10
4377.176081649338812
 20
228.4132414159587086
 30
0.0
 11
4377.176081649338812
 21
228.033250882958697
 31
0.0
  0
LINE
  5
960E
  8
0
 10
4377.176081649338812
 20
228.033250882958697
 30
0.0
 11
4377.1130640676392431
 21
227.9702300020585994
 31
0.0
  0
LINE
  5
960F
  8
0
 10
4377.1130640676392431
 20
227.9702300020585994
 30
0.0
 11
4377.0252775697563266
 21
227.9693793122544889
 31
0.0
  0
LINE
  5
9610
  8
0
 10
4377.0465507864746542
 20
226.2223140609586949
 30
0.0
 11
4377.024179531838854
 21
225.9772801487586946
 31
0.0
  0
LINE
  5
9611
  8
0
 10
4376.9069292681288061
 20
225.9772801487586946
 30
0.0
 11
4377.1120398575703803
 21
225.9772801487586946
 31
0.0
  0
LINE
  5
9612
  8
0
 10
4377.1120398575703803
 20
225.9772801487586946
 30
0.0
 11
4377.176081649338812
 21
225.9132414159587086
 31
0.0
  0
LINE
  5
9613
  8
0
 10
4377.176081649338812
 20
225.9132414159587086
 30
0.0
 11
4377.1760727117862189
 21
225.5332462867689003
 31
0.0
  0
LINE
  5
9614
  8
0
 10
4377.1760727117862189
 20
225.5332462867689003
 30
0.0
 11
4377.1130608115718132
 21
225.4702517986565908
 31
0.0
  0
LINE
  5
9615
  8
0
 10
4377.1130608115718132
 20
225.4702517986565908
 30
0.0
 11
4376.9068635208050182
 21
225.4743220218047099
 31
0.0
  0
CIRCLE
  5
9616
  8
0
 10
4378.6293391854378569
 20
226.9732173842585894
 30
0.0
 40
0.7500588687681708
  0
LINE
  5
9617
  8
0
 10
4377.0241795317715514
 20
225.9772801487586946
 30
0.0
 11
4377.0882213235381641
 21
225.9132414159587086
 31
0.0
  0
LINE
  5
9618
  8
0
 10
4377.0882213235381641
 20
225.9132414159587086
 30
0.0
 11
4377.088212385985571
 21
225.5332462867689003
 31
0.0
  0
LINE
  5
9619
  8
0
 10
4377.088212385985571
 20
225.5332462867689003
 30
0.0
 11
4377.0269016903821466
 21
225.4719525331724981
 31
0.0
  0
LINE
  5
961A
  8
0
 10
4377.0264769493342101
 20
228.4749899586794015
 30
0.0
 11
4377.0881952152385566
 21
228.4132746407586865
 31
0.0
  0
LINE
  5
961B
  8
0
 10
4377.0881952152385566
 20
228.4132746407586865
 30
0.0
 11
4377.0881862776859634
 21
228.0332795115687929
 31
0.0
  0
LINE
  5
961C
  8
0
 10
4377.0881862776859634
 20
228.0332795115687929
 30
0.0
 11
4377.0252775697563266
 21
227.9693793122544889
 31
0.0
  0
LINE
  5
961D
  8
0
 10
4376.9495377735602233
 20
227.9693679617020905
 30
0.0
 11
4376.9699609539738958
 21
227.7234222359278988
 31
0.0
  0
LINE
  5
961E
  8
0
 10
4376.9495507318415548
 20
225.9772801487586946
 30
0.0
 11
4376.969894799699432
 21
226.2222731632016064
 31
0.0
  0
ARC
  5
961F
  8
0
 10
4431.6012599250761923
 20
226.9732460302587072
 30
0.0
 40
0.7499987617999997
 50
90.0014039272184192
 51
269.998596072781595
  0
LINE
  5
9620
  8
0
 10
4433.4897760355615901
 20
227.7234277610253912
 30
0.0
 11
4431.7675943768781508
 21
227.7232762530267962
 31
0.0
  0
LINE
  5
9621
  8
0
 10
4431.7675943768781508
 20
227.7232762530267962
 30
0.0
 11
4431.6012415477443938
 21
227.7232447918335083
 31
0.0
  0
LINE
  5
9622
  8
0
 10
4431.6012415477443938
 20
226.2232472686837923
 30
0.0
 11
4431.7675943768781508
 21
226.2231585154904963
 31
0.0
  0
LINE
  5
9623
  8
0
 10
4431.7675943768781508
 20
226.2231585154904963
 30
0.0
 11
4433.4899722727795961
 21
226.2222395867059106
 31
0.0
  0
LINE
  5
9624
  8
0
 10
4433.4896780193648738
 20
228.4732384101855018
 30
0.0
 11
4434.0342673432123775
 21
228.4732419064509941
 31
0.0
  0
LINE
  5
9625
  8
0
 10
4434.0342674875082594
 20
225.4720534705957107
 30
0.0
 11
4433.49007004151008
 21
225.4743220218047099
 31
0.0
  0
LINE
  5
9626
  8
0
 10
4433.49007004151008
 20
225.4743220218047099
 30
0.0
 11
4433.4896780193648738
 21
228.4732384101855018
 31
0.0
  0
LINE
  5
9627
  8
0
 10
4433.3716559925596812
 20
227.9693793122544889
 30
0.0
 11
4433.3503097906486801
 21
227.7234154915580859
 31
0.0
  0
LINE
  5
9628
  8
0
 10
4433.3716559925596812
 20
227.9693793122544889
 30
0.0
 11
4433.4897438867774326
 21
227.9693616153118967
 31
0.0
  0
LINE
  5
9629
  8
0
 10
4433.2838694946758551
 20
228.4762620585586888
 30
0.0
 11
4433.4896780193648738
 21
228.4732384101855018
 31
0.0
  0
LINE
  5
962A
  8
0
 10
4433.2838694946758551
 20
228.4762620585586888
 30
0.0
 11
4433.2208519129762863
 21
228.4132414159587086
 31
0.0
  0
LINE
  5
962B
  8
0
 10
4433.2208519129762863
 20
228.4132414159587086
 30
0.0
 11
4433.2208519129762863
 21
228.033250882958697
 31
0.0
  0
LINE
  5
962C
  8
0
 10
4433.2208519129762863
 20
228.033250882958697
 30
0.0
 11
4433.2838694946758551
 21
227.9702300020585994
 31
0.0
  0
LINE
  5
962D
  8
0
 10
4433.2838694946758551
 20
227.9702300020585994
 30
0.0
 11
4433.3716559925596812
 21
227.9693793122544889
 31
0.0
  0
LINE
  5
962E
  8
0
 10
4433.3503827758413536
 20
226.2223140609586949
 30
0.0
 11
4433.3727540304771537
 21
225.9772801487586946
 31
0.0
  0
LINE
  5
962F
  8
0
 10
4433.4900042941881111
 20
225.9772801487586946
 30
0.0
 11
4433.284893704744718
 21
225.9772801487586946
 31
0.0
  0
LINE
  5
9630
  8
0
 10
4433.284893704744718
 20
225.9772801487586946
 30
0.0
 11
4433.2208519129762863
 21
225.9132414159587086
 31
0.0
  0
LINE
  5
9631
  8
0
 10
4433.2208519129762863
 20
225.9132414159587086
 30
0.0
 11
4433.2208608505288794
 21
225.5332462867689003
 31
0.0
  0
LINE
  5
9632
  8
0
 10
4433.2208608505288794
 20
225.5332462867689003
 30
0.0
 11
4433.2838727507441945
 21
225.4702517986565908
 31
0.0
  0
LINE
  5
9633
  8
0
 10
4433.2838727507441945
 20
225.4702517986565908
 30
0.0
 11
4433.49007004151008
 21
225.4743220218047099
 31
0.0
  0
CIRCLE
  5
9634
  8
0
 10
4431.7675943768781508
 20
226.9732173842585894
 30
0.0
 40
0.7500588687681708
  0
LINE
  5
9635
  8
0
 10
4433.3727540305435468
 20
225.9772801487586946
 30
0.0
 11
4433.3087122387769341
 21
225.9132414159587086
 31
0.0
  0
LINE
  5
9636
  8
0
 10
4433.3087122387769341
 20
225.9132414159587086
 30
0.0
 11
4433.3087211763304367
 21
225.5332462867689003
 31
0.0
  0
LINE
  5
9637
  8
0
 10
4433.3087211763304367
 20
225.5332462867689003
 30
0.0
 11
4433.3700318719329516
 21
225.4719525331724981
 31
0.0
  0
LINE
  5
9638
  8
0
 10
4433.3704566129817977
 20
228.4749899586794015
 30
0.0
 11
4433.3087383470774512
 21
228.4132746407586865
 31
0.0
  0
LINE
  5
9639
  8
0
 10
4433.3087383470774512
 20
228.4132746407586865
 30
0.0
 11
4433.3087472846291348
 21
228.0332795115687929
 31
0.0
  0
LINE
  5
963A
  8
0
 10
4433.3087472846291348
 20
228.0332795115687929
 30
0.0
 11
4433.3716559925596812
 21
227.9693793122544889
 31
0.0
  0
LINE
  5
963B
  8
0
 10
4433.4473957887557845
 20
227.9693679617020905
 30
0.0
 11
4433.4269726083421119
 21
227.7234222359278988
 31
0.0
  0
LINE
  5
963C
  8
0
 10
4433.4473828304753624
 20
225.9772801487586946
 30
0.0
 11
4433.4270387626183947
 21
226.2222731632016064
 31
0.0
  0
ARC
  5
963D
  8
0
 10
4418.5495376185908754
 20
208.5857692629222129
 30
0.0
 40
2.6734394282369012
 50
24.7696646412516905
 51
61.5275961135079967
  0
ARC
  5
963E
  8
0
 10
4416.6910079637646049
 20
203.8811168458335032
 30
0.0
 40
7.7191481702890226
 50
66.0536744512284031
 51
91.8005608106507367
  0
ARC
  5
963F
  8
0
 10
4409.7061535650345832
 20
203.8799669276546069
 30
0.0
 40
7.720290447839929
 50
88.2013781448357577
 51
113.9443968950206028
  0
ARC
  5
9640
  8
0
 10
4407.8173167908025789
 20
208.6139671495043046
 30
0.0
 40
2.6343431331711451
 50
118.1896706717653984
 51
155.5132499186624955
  0
ARC
  5
9641
  8
0
 10
4413.1984681425392409
 20
61.6316661752793422
 30
0.0
 40
149.999999999979309
 50
88.7584942945895961
 51
91.2415057054104182
  0
LINE
  5
9642
  8
0
 10
4420.5532169309326491
 20
209.7058637339997915
 30
0.0
 11
4420.4389578174377675
 21
209.8307741455587063
 31
0.0
  0
LINE
  5
9643
  8
0
 10
4420.4389578174377675
 20
209.8307741455587063
 30
0.0
 11
4405.9588961929393918
 21
209.8316661752587038
 31
0.0
  0
LINE
  5
9644
  8
0
 10
4405.9588961929393918
 20
209.8316661752587038
 30
0.0
 11
4405.8437136424108758
 21
209.7058572509745886
 31
0.0
  0
ARC
  5
9645
  8
0
 10
4420.4298957402397718
 20
210.1031431387953887
 30
0.0
 40
0.2725197051956487
 50
271.9056035329535916
 51
18.5641753231932398
  0
ARC
  5
9646
  8
0
 10
4405.9658298568920145
 20
210.1030569128662933
 30
0.0
 40
0.2714792959970094
 50
160.0704646098421904
 51
268.536489190934617
  0
LINE
  5
9647
  8
0
 10
4433.4269617696008936
 20
227.9693710239945119
 30
0.0
 11
4433.4270495592363659
 21
225.9772801487586946
 31
0.0
  0
LINE
  5
9648
  8
0
 10
4376.9699717927142046
 20
227.9693710239945119
 30
0.0
 11
4376.9698840030796418
 21
225.9772801487586946
 31
0.0
  0
LINE
  5
9649
  8
0
 10
4416.8540620111489261
 20
193.7032460302586969
 30
0.0
 11
4416.8540620111489261
 21
193.7232460302587072
 31
0.0
  0
LINE
  5
964A
  8
0
 10
4417.4724069013491317
 20
193.7032460302586969
 30
0.0
 11
4417.4724069013491317
 21
193.7232460302587072
 31
0.0
  0
LINE
  5
964B
  8
0
 10
4412.3540620107487484
 20
193.7032460302586969
 30
0.0
 11
4412.3540620107487484
 21
193.7232460302587072
 31
0.0
  0
LINE
  5
964C
  8
0
 10
4407.8540620116482387
 20
193.7032460302586969
 30
0.0
 11
4407.8540620116482387
 21
193.7232460302587072
 31
0.0
  0
LINE
  5
964D
  8
0
 10
4408.4724068999494193
 20
193.7032460302586969
 30
0.0
 11
4408.4724068999494193
 21
193.7232460302587072
 31
0.0
  0
LINE
  5
964E
  8
0
 10
4397.9724068983487086
 20
193.7032460302586969
 30
0.0
 11
4397.9724068983487086
 21
193.7232460302587072
 31
0.0
  0
LINE
  5
964F
  8
0
 10
4397.407487283948285
 20
193.7032460302586969
 30
0.0
 11
4397.407487283948285
 21
193.7232460302587072
 31
0.0
  0
LINE
  5
9650
  8
0
 10
4392.8540620103476613
 20
193.7032460302586969
 30
0.0
 11
4392.8540620103476613
 21
193.7232460302587072
 31
0.0
  0
ARC
  5
9651
  8
0
 10
4388.3547423347226868
 20
193.7386124001010899
 30
0.0
 40
0.035372912699825
 50
205.7477982733186082
 51
268.8979719728270084
  0
LINE
  5
9652
  8
0
 10
4391.2740547377479743
 20
193.7032460302586969
 30
0.0
 11
4391.2740547377479743
 21
193.7232460302587072
 31
0.0
  0
ENDSEC
  0
EOF
