  0
SECTION
  2
HEADER
  9
$ACADVER
  1
AC1009
  9
$INSBASE
 10
4732.0795451885778675
 20
293.0598215793282861
 30
0.0
  9
$EXTMIN
 10
4698.7461451825311087
 20
293.0597669297839047
 30
0.0
  9
$EXTMAX
 10
4732.0864384928318032
 20
371.3815127250330761
 30
0.0
  9
$LIMMIN
 10
0.0
 20
0.0
  9
$LIMMAX
 10
11.6929133858000007
 20
8.2677165353999982
  9
$ORTHOMODE
 70
     1
  9
$REGENMODE
 70
     1
  9
$FILLMODE
 70
     1
  9
$QTEXTMODE
 70
     0
  9
$MIRRTEXT
 70
     0
  9
$DRAGMODE
 70
     2
  9
$LTSCALE
 40
0.6431102362
  9
$OSMODE
 70
  4095
  9
$ATTMODE
 70
     1
  9
$TEXTSIZE
 40
0.2
  9
$TRACEWID
 40
0.05
  9
$TEXTSTYLE
  7
STANDARD
  9
$CLAYER
  8
0
  9
$CELTYPE
  6
BYLAYER
  9
$CECOLOR
 62
   256
  9
$DIMSCALE
 40
1.0
  9
$DIMASZ
 40
0.1875
  9
$DIMEXO
 40
0.0625
  9
$DIMDLI
 40
0.4443307087
  9
$DIMRND
 40
0.0
  9
$DIMDLE
 40
0.0
  9
$DIMEXE
 40
0.125
  9
$DIMTP
 40
0.01
  9
$DIMTM
 40
0.01
  9
$DIMTXT
 40
2.0
  9
$DIMCEN
 40
0.1052362205
  9
$DIMTSZ
 40
0.0
  9
$DIMTOL
 70
     1
  9
$DIMLIM
 70
     0
  9
$DIMTIH
 70
     1
  9
$DIMTOH
 70
     1
  9
$DIMSE1
 70
     0
  9
$DIMSE2
 70
     0
  9
$DIMTAD
 70
     0
  9
$DIMZIN
 70
     0
  9
$DIMBLK
  1

  9
$DIMASO
 70
     1
  9
$DIMSHO
 70
     1
  9
$DIMPOST
  1
\X
  9
$DIMAPOST
  1

  9
$DIMALT
 70
     1
  9
$DIMALTD
 70
     2
  9
$DIMALTF
 40
25.3999999999999986
  9
$DIMLFAC
 40
1.0
  9
$DIMTOFL
 70
     0
  9
$DIMTVP
 40
0.0
  9
$DIMTIX
 70
     0
  9
$DIMSOXD
 70
     0
  9
$DIMSAH
 70
     0
  9
$DIMBLK1
  1

  9
$DIMBLK2
  1

  9
$DIMSTYLE
  2
STANDARD
  9
$DIMCLRD
 70
     0
  9
$DIMCLRE
 70
     0
  9
$DIMCLRT
 70
     0
  9
$DIMTFAC
 40
1.0
  9
$DIMGAP
 40
0.09
  9
$LUNITS
 70
     2
  9
$LUPREC
 70
     4
  9
$SKETCHINC
 40
0.1
  9
$FILLETRAD
 40
0.0
  9
$AUNITS
 70
     0
  9
$AUPREC
 70
     0
  9
$MENU
  1
.
  9
$ELEVATION
 40
0.0
  9
$PELEVATION
 40
0.0
  9
$THICKNESS
 40
0.0
  9
$LIMCHECK
 70
     0
  9
$BLIPMODE
 70
     0
  9
$CHAMFERA
 40
0.0
  9
$CHAMFERB
 40
0.0
  9
$SKPOLY
 70
     0
  9
$TDCREATE
 40
2458060.468368056230247
  9
$TDUPDATE
 40
2459115.9881134261377156
  9
$TDINDWG
 40
0.328409838
  9
$TDUSRTIMER
 40
0.328409838
  9
$USRTIMER
 70
     1
  9
$ANGBASE
 50
0.0
  9
$ANGDIR
 70
     0
  9
$PDMODE
 70
     0
  9
$PDSIZE
 40
0.3125
  9
$PLINEWID
 40
0.0
  9
$COORDS
 70
     1
  9
$SPLFRAME
 70
     0
  9
$SPLINETYPE
 70
     6
  9
$SPLINESEGS
 70
     8
  9
$ATTDIA
 70
     1
  9
$ATTREQ
 70
     1
  9
$HANDLING
 70
     1
  9
$HANDSEED
  5
BFFB
  9
$SURFTAB1
 70
     6
  9
$SURFTAB2
 70
     6
  9
$SURFTYPE
 70
     6
  9
$SURFU
 70
     6
  9
$SURFV
 70
     6
  9
$UCSNAME
  2

  9
$UCSORG
 10
0.0
 20
0.0
 30
0.0
  9
$UCSXDIR
 10
1.0
 20
0.0
 30
0.0
  9
$UCSYDIR
 10
0.0
 20
1.0
 30
0.0
  9
$PUCSNAME
  2

  9
$PUCSORG
 10
0.0
 20
0.0
 30
0.0
  9
$PUCSXDIR
 10
1.0
 20
0.0
 30
0.0
  9
$PUCSYDIR
 10
0.0
 20
1.0
 30
0.0
  9
$USERI1
 70
     0
  9
$USERI2
 70
     0
  9
$USERI3
 70
     0
  9
$USERI4
 70
     0
  9
$USERI5
 70
     0
  9
$USERR1
 40
0.0
  9
$USERR2
 40
0.0
  9
$USERR3
 40
0.0
  9
$USERR4
 40
0.0
  9
$USERR5
 40
0.0
  9
$WORLDVIEW
 70
     1
  9
$SHADEDGE
 70
     3
  9
$SHADEDIF
 70
    70
  9
$TILEMODE
 70
     1
  9
$MAXACTVP
 70
    64
  9
$PLIMCHECK
 70
     0
  9
$PEXTMIN
 10
1.0000000000000000E+20
 20
1.0000000000000000E+20
 30
1.0000000000000000E+20
  9
$PEXTMAX
 10
-1.0000000000000000E+20
 20
-1.0000000000000000E+20
 30
-1.0000000000000000E+20
  9
$PLIMMIN
 10
0.0
 20
0.0
  9
$PLIMMAX
 10
12.0
 20
9.0
  9
$UNITMODE
 70
     0
  9
$VISRETAIN
 70
     1
  9
$PLINEGEN
 70
     0
  9
$PSLTSCALE
 70
     1
  0
ENDSEC
  0
SECTION
  2
TABLES
  0
TABLE
  2
VPORT
 70
     1
  0
VPORT
  2
*ACTIVE
 70
     0
 10
0.0
 20
0.0
 11
1.0
 21
1.0
 12
0.0
 22
0.0
 13
0.0
 23
0.0
 14
1.0
 24
1.0
 15
0.0
 25
0.0
 16
0.0
 26
0.0
 36
241.1930332815836948
 17
4715.4162661215741537
 27
332.2206573486328125
 37
0.0
 40
85.1528578356915062
 41
2.1186252771618621
 42
50.0
 43
0.0
 44
0.0
 50
0.0
 51
0.0
 71
     0
 72
   100
 73
     1
 74
     1
 75
     0
 76
     0
 77
     0
 78
     0
  0
ENDTAB
  0
TABLE
  2
LTYPE
 70
     2
  0
LTYPE
  2
CONTINUOUS
 70
     0
  3
Solid line
 72
    65
 73
     0
 40
0.0
  0
LTYPE
  2
PHANTOM2
 70
     0
  3
___ _ _ ___ _ _ ___ _ _ ___ _ _
 72
    65
 73
     6
 40
1.25
 49
0.625
 49
-0.125
 49
0.125
 49
-0.125
 49
0.125
 49
-0.125
  0
ENDTAB
  0
TABLE
  2
LAYER
 70
     2
  0
LAYER
  2
0
 70
     0
 62
   255
  6
CONTINUOUS
  0
LAYER
  2
DEFPOINTS
 70
     0
 62
     7
  6
CONTINUOUS
  0
ENDTAB
  0
TABLE
  2
STYLE
 70
     1
  0
STYLE
  2
STANDARD
 70
     0
 40
0.0
 41
0.8
 50
0.0
 71
     0
 42
0.2
  3
txt
  4

  0
ENDTAB
  0
TABLE
  2
VIEW
 70
     0
  0
ENDTAB
  0
TABLE
  2
UCS
 70
     0
  0
ENDTAB
  0
TABLE
  2
APPID
 70
     9
  0
APPID
  2
ACAD
 70
     0
  0
APPID
  2
ACAD_MLEADERVER
 70
     0
  0
APPID
  2
ACAD_EXEMPT_FROM_CAD_STANDARDS
 70
     0
  0
APPID
  2
ACAD_NAV_VCDISPLAY
 70
     0
  0
APPID
  2
ACAECLAYERSTANDARD
 70
     0
  0
APPID
  2
ACCMTRANSPARENCY
 70
     0
  0
APPID
  2
ACAD_DSTYLE_DIMJAG
 70
     0
  0
APPID
  2
ACAD_DSTYLE_DIMTALN
 70
     0
  0
APPID
  2
ACDBATTR
 70
     0
  0
ENDTAB
  0
TABLE
  2
DIMSTYLE
 70
     1
  0
DIMSTYLE
  2
STANDARD
 70
     0
  3

  4

  5

  6

  7

 40
1.0
 41
0.1875
 42
0.0625
 43
0.38
 44
0.125
 45
0.0
 46
0.0
 47
0.01
 48
0.01
140
0.15625
141
0.09
142
0.0
143
25.3999999999999986
144
1.0
145
0.0
146
1.0
147
0.09
 71
     1
 72
     0
 73
     1
 74
     1
 75
     0
 76
     0
 77
     0
 78
     4
170
     0
171
     2
172
     0
173
     0
174
     0
175
     0
176
     0
177
     0
178
     0
  0
ENDTAB
  0
ENDSEC
  0
SECTION
  2
BLOCKS
  0
BLOCK
  8
0
  2
$MODEL_SPACE
 70
     0
 10
0.0
 20
0.0
 30
0.0
  3
$MODEL_SPACE
  1

  0
ENDBLK
  5
21
  8
0
  0
BLOCK
 67
     1
  8
0
  2
$PAPER_SPACE
 70
     0
 10
0.0
 20
0.0
 30
0.0
  3
$PAPER_SPACE
  1

  0
ENDBLK
  5
1D
 67
     1
  8
0
  0
ENDSEC
  0
SECTION
  2
ENTITIES
  0
ATTDEF
  5
3930
  8
DEFPOINTS
 10
4732.0757718261629634
 20
293.070363719100726
 30
0.0
 40
0.001
  1
71520125
  3

  2
MODELNUMBER
 70
     0
1001
ACDBATTR
1070
     0
1070
     1
  0
ATTDEF
  5
3931
  8
DEFPOINTS
 10
4732.0757718261629634
 20
293.0686970524341177
 30
0.0
 40
0.001
  1
TRAVERSE
  3

  2
TRADENAME
 70
     0
1001
ACDBATTR
1070
     0
1070
     1
  0
ATTDEF
  5
3932
  8
DEFPOINTS
 10
4732.0757718261629634
 20
293.0670303857673957
 30
0.0
 40
0.001
  1
BATH AND WALL SURROUND
  3

  2
PRODUCT
 70
     0
1001
ACDBATTR
1070
     0
1070
     1
  0
LINE
  5
B98F
  8
0
 10
4700.0295451878437234
 20
313.5298193763491099
 30
0.0
 11
4700.0295451877636879
 21
310.9586889617862084
 31
0.0
  0
LINE
  5
B990
  8
0
 10
4700.0295451877636879
 20
310.9586889617862084
 30
0.0
 11
4700.0138577888710643
 21
309.1610910986859722
 31
0.0
  0
LINE
  5
B991
  8
0
 10
4700.0138577888710643
 20
309.1610910986859722
 30
0.0
 11
4699.7328090839637298
 21
293.0598215793282861
 31
0.0
  0
LINE
  5
B992
  8
0
 10
4732.0295451877636879
 20
314.059821579286222
 30
0.0
 11
4732.0295451877636879
 21
312.7148215792863084
 31
0.0
  0
ARC
  5
B993
  8
0
 10
4731.874545187763033
 20
312.7148215792863084
 30
0.0
 40
0.1550000000000011
 50
270.0
 51
0.0
  0
LINE
  5
B994
  8
0
 10
4731.874545187763033
 20
312.559821579286222
 30
0.0
 11
4731.7037573091638478
 21
312.5598215792861083
 31
0.0
  0
ARC
  5
B995
  8
0
 10
4731.7051983421351906
 20
312.7164220085580268
 30
0.0
 40
0.156607059304955
 50
186.5272193712328033
 51
269.472780646454396
  0
LINE
  5
B996
  8
0
 10
4731.5496064153667248
 20
312.6986196674490088
 30
0.0
 11
4731.5379188883716779
 21
312.809819058655421
 31
0.0
  0
LINE
  5
B997
  8
0
 10
4731.9545441381069395
 20
312.8098215791898724
 30
0.0
 11
4717.9828960041641039
 21
312.8097370523362883
 31
0.0
  0
LINE
  5
B998
  8
0
 10
4716.7363482958644454
 20
312.8096999513361993
 30
0.0
 11
4707.1519575662641728
 21
312.8096524638860956
 31
0.0
  0
LINE
  5
B999
  8
0
 10
4705.9075246905640597
 20
312.8095783487862036
 30
0.0
 11
4700.2141315453627612
 21
312.8202004345861837
 31
0.0
  0
ARC
  5
B99A
  8
0
 10
4706.2785725556541365
 20
312.9601870902035898
 30
0.0
 40
0.4004491368193213
 50
202.0922882461040047
 51
268.8290403909412021
  0
LINE
  5
B99B
  8
0
 10
4706.2703891060627939
 20
312.5598215792861083
 30
0.0
 11
4706.7887012695628073
 21
312.559821579286222
 31
0.0
  0
ARC
  5
B99C
  8
0
 10
4706.7801754849733697
 20
312.9612225073316267
 30
0.0
 40
0.4014914619747889
 50
271.2167835207898747
 51
337.8200060507131752
  0
ARC
  5
B99D
  8
0
 10
4717.1094806272649294
 20
312.963186384619803
 30
0.0
 40
0.4034672501449623
 50
202.3596120901179063
 51
268.7088174159144955
  0
LINE
  5
B99E
  8
0
 10
4717.1003891060636306
 20
312.559821579286222
 30
0.0
 11
4717.618701269563644
 21
312.5598215792861083
 31
0.0
  0
ARC
  5
B99F
  8
0
 10
4717.6093970279944187
 20
312.9637034548148904
 30
0.0
 40
0.4039890323904669
 50
271.3196915499494821
 51
337.5972157883161913
  0
ARC
  5
B9A0
  8
0
 10
4731.9545451873573256
 20
312.8848215798914794
 30
0.0
 40
0.0750000007088541
 50
269.9991984323402221
 51
359.9948589916057244
  0
ARC
  5
B9A1
  8
0
 10
4700.2209006022421818
 20
312.789285996759304
 30
0.0
 40
0.0316468418197908
 50
102.3506252618335992
 51
179.9723733456299897
  0
LINE
  5
B9A2
  8
0
 10
4730.999545187761214
 20
312.8098158015569084
 30
0.0
 11
4730.9995446261636971
 21
311.6073360162287145
 31
0.0
  0
ARC
  5
B9A3
  8
0
 10
4730.2295446243579136
 20
311.6073359984218882
 30
0.0
 40
0.7700000018060964
 50
272.000041946864485
 51
0.0000013250062563
  0
LINE
  5
B9A4
  8
0
 10
4730.2564178002639892
 20
310.837805079486202
 30
0.0
 11
4700.5473950780633459
 21
310.8816403355862121
 31
0.0
  0
ARC
  5
B9A5
  8
0
 10
4700.5353965591393717
 20
310.5303187260826121
 30
0.0
 40
0.3515264396321815
 50
88.0439649082323115
 51
174.7650986293890867
  0
LINE
  5
B9A6
  8
0
 10
4700.1892537640997034
 20
312.7893012561087858
 30
0.0
 11
4700.1853363343261663
 21
310.5623917172762845
 31
0.0
  0
LINE
  5
B9A7
  8
0
 10
4700.1853363343261663
 20
310.5623917172762845
 30
0.0
 11
4699.8728304099640809
 21
293.0598215793282861
 31
0.0
  0
LINE
  5
B9A8
  8
0
 10
4699.8728304099640809
 20
293.0598215793282861
 30
0.0
 11
4699.7328090839637298
 21
293.0598215793282861
 31
0.0
  0
ARC
  5
B9A9
  8
0
 10
4693.8207456456539148
 20
298.4010455268251008
 30
0.0
 40
6.5219029323465278
 50
343.072965622771676
 51
1.5276350266207259
  0
LINE
  5
B9AA
  8
0
 10
4700.1839756700519501
 20
308.2810823930707897
 30
0.0
 11
4700.3403305826641372
 21
298.5749136034286266
 31
0.0
  0
ARC
  5
B9AB
  8
0
 10
4701.7535740859875659
 20
308.1569327031866123
 30
0.0
 40
1.499999998381341
 50
134.4720934735661046
 51
157.7081402444821947
  0
ARC
  5
B9AC
  8
0
 10
4701.7450229823316477
 20
308.8224002784161826
 30
0.0
 40
1.019244137880565
 50
89.9619558531678791
 51
132.794978696501687
  0
ARC
  5
B9AD
  8
0
 10
4703.8459268392243757
 20
307.9275196108059163
 30
0.0
 40
1.854088919852406
 50
31.82372043242475
 51
87.4305298758924891
  0
ARC
  5
B9AE
  8
0
 10
4699.2640044918070998
 20
304.4624111875961034
 30
0.0
 40
7.5927992164478466
 50
17.4565108699250615
 51
35.8122582553602982
  0
ARC
  5
B9AF
  8
0
 10
6410.2168144757206392
 20
526.3153677326256457
 30
0.0
 40
1717.7443750118779917
 50
187.2247319759937056
 51
187.3426842443132045
  0
LINE
  5
B9B0
  8
0
 10
4700.7027314098277202
 20
309.227320326948302
 30
0.0
 11
4701.0525719588640641
 21
309.5703108296862069
 31
0.0
  0
LINE
  5
B9B1
  8
0
 10
4700.36567865759298
 20
308.7259197636594195
 30
0.0
 11
4700.1839756700519501
 21
308.2810823930707897
 31
0.0
  0
LINE
  5
B9B2
  8
0
 10
4701.4050779101644366
 20
309.851301112828196
 30
0.0
 11
4703.9290469125644449
 21
309.7797444287284065
 31
0.0
  0
ARC
  5
B9B3
  8
0
 10
4701.3832616336967476
 20
308.9517364674670148
 30
0.0
 40
0.8998291510629901
 50
88.610732874345473
 51
140.1710519221855975
  0
ARC
  5
B9B4
  8
0
 10
4702.9550941951629284
 20
307.9096726340105192
 30
0.0
 40
2.7820470979478769
 50
144.4276316443005044
 51
158.9191565455012096
  0
ARC
  5
B9B5
  8
0
 10
4707.1793633155648422
 20
306.5254449601229112
 30
0.0
 40
7.2250805205809518
 50
160.726088848300293
 51
166.8929025015949037
  0
ARC
  5
B9B6
  8
0
 10
4729.6409237729321831
 20
310.320062335558589
 30
0.0
 40
0.5195089380569943
 50
93.2100240342544737
 51
175.1074658486961937
  0
LINE
  5
B9B7
  8
0
 10
4729.1233077083588796
 20
310.3643697437083233
 30
0.0
 11
4728.7682443810426776
 21
303.589953229523303
 31
0.0
  0
ARC
  5
B9B8
  8
0
 10
4728.3887637152292882
 20
303.609822033378407
 30
0.0
 40
0.3800004540702994
 50
270.0000679505646985
 51
357.0028510905362964
  0
ARC
  5
B9B9
  8
0
 10
4728.2459879793614164
 20
303.1089793788478914
 30
0.0
 40
0.1208774988920913
 50
91.3846919639724433
 51
176.3388491331731132
  0
LINE
  5
B9BA
  8
0
 10
4728.1253571739525796
 20
303.116698091498904
 30
0.0
 11
4727.698578503564022
 21
295.5898618882861228
 31
0.0
  0
ARC
  5
B9BB
  8
0
 10
4726.1432267854515885
 20
295.6816641059285757
 30
0.0
 40
1.558058604224037
 50
281.1494731223240251
 51
356.6221246100333246
  0
LINE
  5
B9BC
  8
0
 10
4728.3887641658911889
 20
303.2298215793085205
 30
0.0
 11
4705.3686771897928338
 21
303.2298215792832821
 31
0.0
  0
ARC
  5
B9BD
  8
0
 10
4705.3686636934507987
 20
303.6097902735713205
 30
0.0
 40
0.3799686945276815
 50
191.9957301943161951
 51
270.0020351239929823
  0
ARC
  5
B9BE
  8
0
 10
4705.4979312633440713
 20
303.1078504784853749
 30
0.0
 40
0.1220150817806065
 50
12.7751374261200006
 51
88.461574857958766
  0
LINE
  5
B9BF
  8
0
 10
4705.6169259105636229
 20
303.1348311032862171
 30
0.0
 11
4707.2943862740348777
 21
295.2672588151754098
 31
0.0
  0
ARC
  5
B9C0
  8
0
 10
4708.7920363420480498
 20
295.5901757632395856
 30
0.0
 40
1.5320675838762561
 50
192.1675972157333092
 51
264.7604155308711142
  0
LINE
  5
B9C1
  8
0
 10
4704.9969923405042209
 20
303.5308180365519206
 30
0.0
 11
4703.6671514805966581
 21
309.7871693886523872
 31
0.0
  0
LINE
  5
B9C2
  8
0
 10
4703.4548658574058209
 20
309.1397325894815253
 30
0.0
 11
4703.9963088326194338
 21
308.2386201550850728
 31
0.0
  0
ARC
  5
B9C3
  8
0
 10
4702.1691149064636193
 20
308.3671754770862776
 30
0.0
 40
1.4999999999998339
 50
32.8919941855919831
 51
49.9999999999937188
  0
LINE
  5
B9C4
  8
0
 10
4703.4548658574640285
 20
309.1397325893861989
 30
0.0
 11
4703.4286585358440789
 21
309.1817611666785979
 31
0.0
  0
LINE
  5
B9C5
  8
0
 10
4703.1332963209943046
 20
309.5162421417646783
 30
0.0
 11
4703.0361754841642323
 21
309.5973192991862106
 31
0.0
  0
ARC
  5
B9C6
  8
0
 10
4702.3747020626606172
 20
308.747958235964802
 30
0.0
 40
1.0765506504908571
 50
52.0889182576350791
 51
85.7511505273546248
  0
ARC
  5
B9C7
  8
0
 10
4706.5421590453634053
 20
306.6758905997241982
 30
0.0
 40
0.0363252252337978
 50
338.5995451498810098
 51
9.1809285271779384
  0
ARC
  5
B9C8
  8
0
 10
4705.828228519336335
 20
306.5891939054801014
 30
0.0
 40
0.7554736984424191
 50
7.0323528976000782
 51
14.7546334713636291
  0
ARC
  5
B9C9
  8
0
 10
4705.5718174332887429
 20
310.1699752575655111
 30
0.0
 40
0.5516992596134076
 50
12.4915766582011596
 51
92.7490396809689344
  0
ARC
  5
B9CA
  8
0
 10
4723.8935151957930429
 20
959.5730975317923139
 30
0.0
 40
649.1114295434095993
 50
267.9388397033931142
 51
268.380228704338208
  0
LINE
  5
B9CB
  8
0
 10
4698.7826984181228909
 20
370.1574093248462987
 30
0.0
 11
4699.9603520329528692
 21
371.3359604899021065
 31
0.0
  0
LINE
  5
B9CC
  8
0
 10
4700.0486465325648169
 20
371.3725415793281854
 30
0.0
 11
4726.0868653762909162
 21
371.3725415793260822
 31
0.0
  0
ARC
  5
B9CD
  8
0
 10
4726.0868857645209573
 20
371.2477435829458159
 30
0.0
 40
0.1247979980458078
 50
44.9814232773060709
 51
90.0093604029617893
  0
LINE
  5
B9CE
  8
0
 10
4726.1751598819782885
 20
371.3359604776060792
 30
0.0
 11
4727.3428071756115969
 21
370.1674230431707997
 31
0.0
  0
ARC
  5
B9CF
  8
0
 10
4727.254370684904643
 20
370.0790973947740099
 30
0.0
 40
0.1249897317923691
 50
359.9834206826391778
 51
44.9640715153119501
  0
LINE
  5
B9D0
  8
0
 10
4727.379360411464404
 20
370.0790612272862745
 30
0.0
 11
4727.3775563894641891
 21
369.8671089132863017
 31
0.0
  0
LINE
  5
B9D1
  8
0
 10
4698.7461451877643412
 20
370.069047531386218
 30
0.0
 11
4698.7461451877643412
 21
314.8462127775862882
 31
0.0
  0
LINE
  5
B9D2
  8
0
 10
4698.7781625865000024
 20
314.7626028271122891
 30
0.0
 11
4699.9449934960630344
 21
313.595512042286316
 31
0.0
  0
LINE
  5
B9D3
  8
0
 10
4732.0295451877636879
 20
371.3815127250330761
 30
0.0
 11
4728.445252696764328
 21
371.1741141315862933
 31
0.0
  0
ARC
  5
B9D4
  8
0
 10
4728.453901252381911
 20
371.0494707625379078
 30
0.0
 40
0.1249430548769929
 50
93.9691866240704172
 51
136.6912678067729985
  0
LINE
  5
B9D5
  8
0
 10
4728.3629841612009841
 20
371.135172859905424
 30
0.0
 11
4727.426209959064181
 21
370.1413884756863126
 31
0.0
  0
ARC
  5
B9D6
  8
0
 10
4727.4713434720533769
 20
370.0988499871505155
 30
0.0
 40
0.0620206175520695
 50
136.6954164118762094
 51
180.0026106773966035
  0
LINE
  5
B9D7
  8
0
 10
4727.4093228545652892
 20
370.0988471611861996
 30
0.0
 11
4727.4087586234636547
 21
369.8615982594864136
 31
0.0
  0
ARC
  5
B9D8
  8
0
 10
4727.2834113810331473
 20
369.8617642374978232
 30
0.0
 40
0.1253473523204327
 50
315.0514666536141135
 51
359.9241320844935785
  0
LINE
  5
B9D9
  8
0
 10
4727.3721249246646039
 20
369.7732099269862829
 30
0.0
 11
4726.9006358198630551
 21
369.3014332316863033
 31
0.0
  0
ARC
  5
B9DA
  8
0
 10
4726.989101381736873
 20
369.2130454448038108
 30
0.0
 40
0.1250542142728963
 50
135.0251970258593133
 51
179.9998839083773134
  0
LINE
  5
B9DB
  8
0
 10
4726.8640471674643777
 20
369.2130456981863063
 30
0.0
 11
4726.8640464855643586
 21
343.6925048192862278
 31
0.0
  0
LINE
  5
B9DC
  8
0
 10
4732.0295451877636879
 20
371.3815127250330761
 30
0.0
 11
4732.0295451877636879
 21
370.1653512097180965
 31
0.0
  0
ARC
  5
B9DD
  8
0
 10
4731.8663099645746115
 20
370.1752391444031218
 30
0.0
 40
0.1635344286132404
 50
273.5711171042196952
 51
356.5335574980808815
  0
ARC
  5
B9DE
  8
0
 10
4731.8728039979760069
 20
369.6854023047657165
 30
0.0
 40
0.3266408203123929
 50
89.3523578854889564
 51
179.9857521271991061
  0
LINE
  5
B9DF
  8
0
 10
4731.5461631877642503
 20
369.6854835312739738
 30
0.0
 11
4731.5466438883458977
 21
344.5031944271387943
 31
0.0
  0
ARC
  5
B9E0
  8
0
 10
4728.0039814243200453
 20
363.5301886284433976
 30
0.0
 40
6.486184761162658
 50
90.1440507548398244
 51
94.1599351705062162
  0
ARC
  5
B9E1
  8
0
 10
4727.5352289400925656
 20
369.9694050863768098
 30
0.0
 40
0.029931919145401
 50
93.3719167967932577
 51
127.5315383708940971
  0
LINE
  5
B9E2
  8
0
 10
4727.5169944737099286
 20
369.9931416408754785
 30
0.0
 11
4727.5164664992644248
 21
343.7325908172862228
 31
0.0
  0
LINE
  5
B9E3
  8
0
 10
4727.5164456855645767
 20
341.7611369143863271
 30
0.0
 11
4727.5164456870643335
 21
318.9551379055862981
 31
0.0
  0
LINE
  5
B9E4
  8
0
 10
4727.5164456870643335
 20
317.0838276118863064
 30
0.0
 11
4727.5100058319349046
 21
314.059821579286222
 31
0.0
  0
LINE
  5
B9E5
  8
0
 10
4727.959534366373191
 20
368.9090633652407973
 30
0.0
 11
4727.9595343381643033
 21
343.689814589021978
 31
0.0
  0
LINE
  5
B9E6
  8
0
 10
4727.9595518354635715
 20
340.849560819486328
 30
0.0
 11
4727.9630443546693641
 21
314.059821579286222
 31
0.0
  0
ARC
  5
B9E7
  8
0
 10
4728.3482981670067602
 20
368.8534801887420258
 30
0.0
 40
0.3927171783783896
 50
143.04539603093761
 51
171.8633274497327932
  0
LINE
  5
B9E8
  8
0
 10
4728.0344731243631031
 20
369.089574713886293
 30
0.0
 11
4728.6746184858820925
 21
369.9238283912978886
 31
0.0
  0
ARC
  5
B9E9
  8
0
 10
4728.9761066815526647
 20
369.689413843412126
 30
0.0
 40
0.3818969918569545
 50
99.8452781954451183
 51
142.1340488182225954
  0
LINE
  5
B9EA
  8
0
 10
4728.9108068145260404
 20
370.0656866696375005
 30
0.0
 11
4731.8764824613635938
 21
370.2446956635251922
 31
0.0
  0
ARC
  5
B9EB
  8
0
 10
4731.8666433876887822
 20
370.4073016953524871
 30
0.0
 40
0.1629034344556114
 50
273.4626692096128977
 51
359.7433451640387148
  0
LINE
  5
B9EC
  8
0
 10
4726.8640464855643586
 20
343.6925048192862278
 30
0.0
 11
4727.5164664992644248
 21
343.7325908172862228
 31
0.0
  0
ARC
  5
B9ED
  8
0
 10
4732.5466425656177307
 20
344.5044195754970815
 30
0.0
 40
0.9999994277670353
 50
180.0701958879284916
 51
189.5388152829366959
  0
ARC
  5
B9EE
  8
0
 10
4730.4007754873728118
 20
344.1438299734093107
 30
0.0
 40
1.1759533241639799
 50
0.6916129163445277
 51
9.538815282943176
  0
LINE
  5
B9EF
  8
0
 10
4731.5766431401607406
 20
344.1580244701829088
 30
0.0
 11
4731.5766431401607406
 21
343.8793792287409019
 31
0.0
  0
LINE
  5
B9F0
  8
0
 10
4732.0295451877636879
 20
343.9031148192863157
 30
0.0
 11
4726.9824360571801662
 21
343.6386070379792841
 31
0.0
  0
ARC
  5
B9F1
  8
0
 10
4726.9890132016271309
 20
343.5138133095406943
 30
0.0
 40
0.124966929572255
 50
93.0169326740334554
 51
180.0162218643590961
  0
LINE
  5
B9F2
  8
0
 10
4726.8640462770636077
 20
343.5137779282861743
 30
0.0
 11
4726.8636953750619796
 21
314.059821579286222
 31
0.0
  0
LINE
  5
B9F3
  8
0
 10
4732.0295451877636879
 20
343.9031148192863157
 30
0.0
 11
4732.0295452770451448
 21
343.6198648052007911
 31
0.0
  0
LINE
  5
B9F4
  8
0
 10
4732.0295451877636879
 20
343.4948648252178032
 30
0.0
 11
4732.0295451877636879
 21
343.3073662557766283
 31
0.0
  0
LINE
  5
B9F5
  8
0
 10
4732.0295451877636879
 20
343.1823644800905981
 30
0.0
 11
4732.0295451877636879
 21
342.9551338634864237
 31
0.0
  0
ARC
  5
B9F6
  8
0
 10
4732.0295557469380583
 20
343.569250581450774
 30
0.0
 40
0.0499894416392977
 50
359.9999999999902229
 51
81.0103364369900447
  0
LINE
  5
B9F7
  8
0
 10
4732.0795451885778675
 20
343.569250581450774
 30
0.0
 11
4732.0795451885778675
 21
343.5458017511862749
 31
0.0
  0
ARC
  5
B9F8
  8
0
 10
4732.029558976681983
 20
343.5457892884405737
 30
0.0
 40
0.0499862134491261
 50
280.9869709178008179
 51
0.014285193595514
  0
LINE
  5
B9F9
  8
0
 10
4732.0195851174639756
 20
343.6214423394862933
 30
0.0
 11
4732.0373669110640549
 21
343.6186259800862217
 31
0.0
  0
ARC
  5
B9FA
  8
0
 10
4731.8580656967360483
 20
342.9549018141540841
 30
0.0
 40
0.1714796480340971
 50
324.047856189319873
 51
0.0775336990868022
  0
LINE
  5
B9FB
  8
0
 10
4732.0390856375643125
 20
343.4967192948861907
 30
0.0
 11
4732.018695092064263
 21
343.4927557869863222
 31
0.0
  0
ARC
  5
B9FC
  8
0
 10
4731.8576226040977417
 20
342.9550359344148092
 30
0.0
 40
0.1719171449906369
 50
273.1483424402720743
 51
324.0983715821897135
  0
ARC
  5
B9FD
  8
0
 10
4731.8671487957162753
 20
342.462392387268892
 30
0.0
 40
0.3209858900472875
 50
90.0150438559138308
 51
179.9240386569188104
  0
LINE
  5
B9FE
  8
0
 10
4731.5461631877642503
 20
342.462817942386323
 30
0.0
 11
4731.5461631877642503
 21
314.059821579286222
 31
0.0
  0
ARC
  5
B9FF
  8
0
 10
4732.4871958930034452
 20
342.5126567367885855
 30
0.0
 40
0.597560400955746
 50
145.1378625713932138
 51
157.5532382469972958
  0
LINE
  5
BA00
  8
0
 10
4731.9349098252605472
 20
342.740820125982907
 30
0.0
 11
4731.5461631877642503
 21
341.6717907504867071
 31
0.0
  0
ARC
  5
BA01
  8
0
 10
4729.9630108708070111
 20
340.8052798510651087
 30
0.0
 40
2.0039483302873569
 50
162.9500114451032005
 51
178.7338400512360863
  0
ARC
  5
BA02
  8
0
 10
4728.0670593532831845
 20
342.5790994447924049
 30
0.0
 40
0.1398524052215226
 50
359.9366292383464838
 51
59.8994839984174874
  0
ARC
  5
BA03
  8
0
 10
4728.1524527750261768
 20
342.7267141936675898
 30
0.0
 40
0.0306828058296222
 50
180.1889623605320878
 51
240.1864555658177096
  0
LINE
  5
BA04
  8
0
 10
4728.1217701360637875
 20
342.7266130014863279
 30
0.0
 11
4728.1217701444638806
 21
342.8463663826863126
 31
0.0
  0
ARC
  5
BA05
  8
0
 10
4728.1516063476719864
 20
342.8458830185120974
 30
0.0
 40
0.029840118344294
 50
94.0413487603352678
 51
179.0718556104959021
  0
ARC
  5
BA06
  8
0
 10
4729.0702664673299296
 20
332.9496470024943733
 30
0.0
 40
9.9592253022588384
 50
87.2871874591017303
 51
93.6724483537222454
  0
ARC
  5
BA07
  8
0
 10
4729.4863639212499038
 20
341.2715858504951143
 30
0.0
 40
1.6270643492166741
 50
69.5712814699181195
 51
88.0533042614068364
  0
LINE
  5
BA08
  8
0
 10
4728.1374755834640382
 20
341.7140207636907121
 30
0.0
 11
4730.4705887259642623
 21
341.7355126848862028
 31
0.0
  0
ARC
  5
BA09
  8
0
 10
4727.2182157125980666
 20
369.9766086943736809
 30
0.0
 40
0.0275678112598619
 50
1.9282278232794881
 51
79.6815483133790536
  0
LINE
  5
BA0A
  8
0
 10
4727.9595343645323737
 20
367.2634095247880737
 30
0.0
 11
4730.9661568709561834
 21
367.2632752888566188
 31
0.0
  0
LINE
  5
BA0B
  8
0
 10
4727.9595343645178218
 20
367.2501781420367024
 30
0.0
 11
4730.9661568750116203
 21
367.2501764430897992
 31
0.0
  0
LINE
  5
BA0C
  8
0
 10
4727.9595343616820173
 20
364.7153586879680915
 30
0.0
 11
4730.9661576600137778
 21
364.7153435383141868
 31
0.0
  0
LINE
  5
BA0D
  8
0
 10
4727.9595343616683749
 20
364.7021286384846803
 30
0.0
 11
4730.9661631877652326
 21
364.7021116643371101
 31
0.0
  0
LINE
  5
BA0E
  8
0
 10
4727.9595343588316609
 20
362.1673095352142013
 30
0.0
 11
4730.9661631877652326
 21
362.1671752885700926
 31
0.0
  0
LINE
  5
BA0F
  8
0
 10
4727.9595343588161995
 20
362.1540781420367239
 30
0.0
 11
4730.9661584532013876
 21
362.1540764430889112
 31
0.0
  0
LINE
  5
BA10
  8
0
 10
4727.959534355982214
 20
359.619258687968113
 30
0.0
 11
4730.9661592382017261
 21
359.6192435383063071
 31
0.0
  0
LINE
  5
BA11
  8
0
 10
4727.9595343559667526
 20
359.60602863879501
 30
0.0
 11
4730.9661592422989997
 21
359.6060105924998993
 31
0.0
  0
LINE
  5
BA12
  8
0
 10
4727.9595343531309481
 20
357.0712095539161055
 30
0.0
 11
4730.9661600273320801
 21
357.0710752887624722
 31
0.0
  0
LINE
  5
BA13
  8
0
 10
4727.9595343531163962
 20
357.0574113524609174
 30
0.0
 11
4730.9661600315639589
 21
357.0574100318876845
 31
0.0
  0
LINE
  5
BA14
  8
0
 10
4727.9595343502824107
 20
354.5237280443208192
 30
0.0
 11
4730.9661608162150515
 21
354.5237099683005226
 31
0.0
  0
LINE
  5
BA15
  8
0
 10
4727.9595343502669493
 20
354.5099286378547845
 30
0.0
 11
4730.9661608204860386
 21
354.5099137066422941
 31
0.0
  0
LINE
  5
BA16
  8
0
 10
4727.9595343474320543
 20
351.9751095684846973
 30
0.0
 11
4730.9661631877652326
 21
351.9749752885558109
 31
0.0
  0
LINE
  5
BA17
  8
0
 10
4727.9595343474156834
 20
351.9613113524608252
 30
0.0
 11
4730.9661616097519072
 21
351.9613100318869101
 31
0.0
  0
LINE
  5
BA18
  8
0
 10
4727.9595343445826074
 20
349.4276280443207838
 30
0.0
 11
4730.9661623944020903
 21
349.4276099682909944
 31
0.0
  0
LINE
  5
BA19
  8
0
 10
4727.959534344567146
 20
349.4138286371849063
 30
0.0
 11
4730.9661623986739869
 21
349.4138150227047959
 31
0.0
  0
LINE
  5
BA1A
  8
0
 10
4727.9595343417313416
 20
346.8790095835414036
 30
0.0
 11
4730.9661631877652326
 21
346.878874255207279
 31
0.0
  0
LINE
  5
BA1B
  8
0
 10
4727.9595343417158801
 20
346.8657781420366746
 30
0.0
 11
4730.9661631877652326
 21
346.8657764430861903
 31
0.0
  0
LINE
  5
BA1C
  8
0
 10
4727.9595343388918991
 20
344.3309586851481754
 30
0.0
 11
4730.7350492400901203
 21
344.3309615496511924
 31
0.0
  0
LINE
  5
BA1D
  8
0
 10
4730.8717124713502926
 20
344.3309616906961992
 30
0.0
 11
4730.9661631868548284
 21
344.330961788175216
 31
0.0
  0
LINE
  5
BA1E
  8
0
 10
4727.9595343388637048
 20
344.3158187857143844
 30
0.0
 11
4730.7333760498449919
 21
344.3231731545698153
 31
0.0
  0
LINE
  5
BA1F
  8
0
 10
4730.8596155628019915
 20
344.3234456529427234
 30
0.0
 11
4730.9661631867256801
 21
344.3235413956784896
 31
0.0
  0
LINE
  5
BA20
  8
0
 10
4730.9661561409639035
 20
369.6204806315861902
 30
0.0
 11
4730.9661600315639589
 21
357.0574100318876845
 31
0.0
  0
LINE
  5
BA21
  8
0
 10
4730.9661605114488339
 20
355.507819112276195
 30
0.0
 11
4730.9661631877652326
 21
346.8657764430861903
 31
0.0
  0
LINE
  5
BA22
  8
0
 10
4730.9649179219786674
 20
340.7906639695274862
 30
0.0
 11
4730.9655246613056079
 21
332.5771559573017271
 31
0.0
  0
LINE
  5
BA23
  8
0
 10
4730.9655375084275875
 20
332.4032428264027885
 30
0.0
 11
4730.9661631888629927
 21
323.9333265917862832
 31
0.0
  0
LINE
  5
BA24
  8
0
 10
4730.9661631888629927
 20
323.9333265917862832
 30
0.0
 11
4730.9661631874432715
 21
314.059821579286222
 31
0.0
  0
LINE
  5
BA25
  8
0
 10
4728.5782512139639948
 20
369.7982401174862161
 30
0.0
 11
4730.9626707749030174
 21
369.7981925023298118
 31
0.0
  0
LINE
  5
BA26
  8
0
 10
4727.9597623406189086
 20
339.2348586867207132
 30
0.0
 11
4730.9650328518528113
 21
339.2348435445815085
 31
0.0
  0
LINE
  5
BA27
  8
0
 10
4727.9597640653910275
 20
339.2216286372857894
 30
0.0
 11
4730.9650338290557556
 21
339.2216150281129785
 31
0.0
  0
LINE
  5
BA28
  8
0
 10
4727.9600945241672889
 20
336.6868095200862854
 30
0.0
 11
4730.9652210873618969
 21
336.6866753306932196
 31
0.0
  0
LINE
  5
BA29
  8
0
 10
4727.960096396967856
 20
336.6724440106249858
 30
0.0
 11
4730.9652221387159443
 21
336.6724430287795258
 31
0.0
  0
LINE
  5
BA2A
  8
0
 10
4727.9604265597872654
 20
334.1398950585630132
 30
0.0
 11
4730.9654092216787831
 21
334.1398769952185148
 31
0.0
  0
LINE
  5
BA2B
  8
0
 10
4727.9604284327060668
 20
334.1255286335282904
 30
0.0
 11
4730.9654102826089002
 21
334.1255150264079248
 31
0.0
  0
LINE
  5
BA2C
  8
0
 10
4727.9607588914823282
 20
331.5907095200863068
 30
0.0
 11
4730.9655975409177699
 21
331.5905753138168279
 31
0.0
  0
LINE
  5
BA2D
  8
0
 10
4727.9607606164281606
 20
331.5774781413438177
 30
0.0
 11
4730.9655985085428256
 21
331.5774764434053168
 31
0.0
  0
LINE
  5
BA2E
  8
0
 10
4727.9610910752489872
 20
329.0426586799262054
 30
0.0
 11
4730.9657857589618288
 21
329.0426435407879922
 31
0.0
  0
LINE
  5
BA2F
  8
0
 10
4727.9610928000211061
 20
329.029428629770905
 30
0.0
 11
4730.9657867361647732
 21
329.0294150247029847
 31
0.0
  0
LINE
  5
BA30
  8
0
 10
4727.9617554425567505
 20
323.9465587242954143
 30
0.0
 11
4730.9661622111752877
 21
323.9465616872083729
 31
0.0
  0
LINE
  5
BA31
  8
0
 10
4727.9617571673361454
 20
323.9333286260134059
 30
0.0
 11
4730.9661631888629927
 21
323.9333265917862832
 31
0.0
  0
LINE
  5
BA32
  8
0
 10
4727.9620876261105877
 20
321.3985095200861792
 30
0.0
 11
4730.9661631877652326
 21
321.3983752885869194
 31
0.0
  0
LINE
  5
BA33
  8
0
 10
4727.9620894989120643
 20
321.3841440099740225
 30
0.0
 11
4730.9661631877652326
 21
321.3841440099740225
 31
0.0
  0
LINE
  5
BA34
  8
0
 10
4727.9624215346511846
 20
318.8372286222557932
 30
0.0
 11
4730.9661631877652326
 21
318.8372156705410134
 31
0.0
  0
LINE
  5
BA35
  8
0
 10
4727.9624196617323832
 20
318.8515950465820765
 30
0.0
 11
4730.9661631877652326
 21
318.8515769906862829
 31
0.0
  0
LINE
  5
BA36
  8
0
 10
4727.962751993425627
 20
316.3024095200863144
 30
0.0
 11
4730.9661631877652326
 21
316.3022743726609747
 31
0.0
  0
LINE
  5
BA37
  8
0
 10
4727.9627537183750974
 20
316.2891781117211281
 30
0.0
 11
4730.9661631877652326
 21
316.2891764430863191
 31
0.0
  0
ARC
  5
BA38
  8
0
 10
4731.1433774106590135
 20
357.9322703866320126
 30
0.0
 40
0.2708809545637405
 50
229.1389503750818051
 51
253.4273208553667871
  0
ARC
  5
BA39
  8
0
 10
4731.0034000380810539
 20
357.3856582648779749
 30
0.0
 40
0.293756305671194
 50
4.8112325871257129
 51
77.6731272161688224
  0
LINE
  5
BA3A
  8
0
 10
4731.2961212744403383
 20
357.4102965461938197
 30
0.0
 11
4731.2961631698635756
 21
355.8221446357861737
 31
0.0
  0
ARC
  5
BA3B
  8
0
 10
4730.999144435881135
 20
355.8537359091448025
 30
0.0
 40
0.2986940523166927
 50
283.0359709084366955
 51
353.9287766231893784
  0
ARC
  5
BA3C
  8
0
 10
4731.097305453554327
 20
355.3873275739206861
 30
0.0
 40
0.1780932526925861
 50
99.9546608361701061
 51
171.4038404749400968
  0
ARC
  5
BA3D
  8
0
 10
4730.6229350973517285
 20
344.8081233128710892
 30
0.0
 40
0.356307273561579
 50
95.5050089794695367
 51
121.2225577281079012
  0
LINE
  5
BA3E
  8
0
 10
4730.5887535526089778
 20
345.1627872315207242
 30
0.0
 11
4731.4961631877640684
 21
345.1639165719863058
 31
0.0
  0
ARC
  5
BA3F
  8
0
 10
4731.4953355026573263
 20
345.1130882008292815
 30
0.0
 40
0.0508351096892452
 50
270.9388555065812056
 51
89.0670825890512958
  0
ARC
  5
BA40
  8
0
 10
4730.6680420007833163
 20
345.5035815075739833
 30
0.0
 40
0.4533231065456237
 50
239.5403595580341118
 51
258.4840858314573779
  0
ARC
  5
BA41
  8
0
 10
4733.8929394445549406
 20
339.379312924396686
 30
0.0
 40
5.7971294121605217
 50
117.3588333972419946
 51
120.3224886815186068
  0
ARC
  5
BA42
  8
0
 10
4730.9575202095029454
 20
345.0553990121052834
 30
0.0
 40
0.5930708509724213
 50
297.2204967490043259
 51
353.378192022349424
  0
ARC
  5
BA43
  8
0
 10
4731.145567059206769
 20
344.0817710314423721
 30
0.0
 40
0.2455025143308777
 50
123.2871966988139008
 51
140.4367758691014103
  0
ARC
  5
BA44
  8
0
 10
-10398.7221782554297533
 20
23108.3653099131988711
 30
0.0
 40
27333.3511002265295247
 50
303.6092806934490795
 51
303.609925767660684
  0
ARC
  5
BA45
  8
0
 10
4730.9124172675774389
 20
344.9861598783174941
 30
0.0
 40
0.6367634897037642
 50
303.8511979166833044
 51
354.8756661506971
  0
ARC
  5
BA46
  8
0
 10
4731.1695717467600844
 20
333.2399349196140861
 30
0.0
 40
0.2468952354800694
 50
214.2480575788962085
 51
246.5122248246343872
  0
ARC
  5
BA47
  8
0
 10
4730.921009533484721
 20
332.6697057144805854
 30
0.0
 40
0.3751536721685303
 50
0.0176947470543373
 51
66.4051882304991778
  0
LINE
  5
BA48
  8
0
 10
4731.2961631877642503
 20
332.6698215737862938
 30
0.0
 11
4731.2961631877642503
 21
332.5798321627863174
 31
0.0
  0
LINE
  5
BA49
  8
0
 10
4731.2961631877642503
 20
332.4121160743862902
 30
0.0
 11
4731.2961631877642503
 21
331.3198215792863266
 31
0.0
  0
ARC
  5
BA4A
  8
0
 10
4730.9210333963928861
 20
331.3199065514468771
 30
0.0
 40
0.3751298009947541
 50
293.5874504767465965
 51
359.987021702332413
  0
ARC
  5
BA4B
  8
0
 10
4731.1711710243525886
 20
330.7469938951729205
 30
0.0
 40
0.2500083795961958
 50
113.5848599171577007
 51
145.2914598632868888
  0
ARC
  5
BA4C
  8
0
 10
4731.1422581829247065
 20
329.7926997337626176
 30
0.0
 40
0.2656501374875244
 50
228.3592976858392092
 51
253.3981774255346977
  0
ARC
  5
BA4D
  8
0
 10
4731.0001276357579627
 20
329.2472835378247282
 30
0.0
 40
0.2982855602699285
 50
6.2968317537620102
 51
77.1715197496560137
  0
LINE
  5
BA4E
  8
0
 10
4731.2966136457589528
 20
329.279999303751481
 30
0.0
 11
4731.2966430661163031
 21
327.6946168899182794
 31
0.0
  0
ARC
  5
BA4F
  8
0
 10
4731.0054314204517141
 20
327.7133744975216132
 30
0.0
 40
0.2918151305420178
 50
282.13362736247052
 51
356.3145391981905163
  0
ARC
  5
BA50
  8
0
 10
4731.1255279747201712
 20
327.201644043604972
 30
0.0
 40
0.2339342059220689
 50
104.5472581465654969
 51
133.0254930119945982
  0
LINE
  5
BA51
  8
0
 10
4727.959534366373191
 20
368.9090633652407973
 30
0.0
 11
4727.9595249612639236
 21
369.9864494143861862
 31
0.0
  0
ARC
  5
BA52
  8
0
 10
4727.9895645866417908
 20
369.9863727103971769
 30
0.0
 40
0.0300397233077207
 50
93.6081056875037234
 51
179.853699730160514
  0
ARC
  5
BA53
  8
0
 10
4730.0030304835918287
 20
340.9665327911998247
 30
0.0
 40
29.1196447262713498
 50
92.1495622600333348
 51
93.9685853709746084
  0
LINE
  5
BA54
  8
0
 10
4731.0950723754640421
 20
369.9650498111863044
 30
0.0
 11
4731.7306653615687537
 21
370.0039741336393035
 31
0.0
  0
ARC
  5
BA55
  8
0
 10
4731.1030262159847553
 20
369.8237727228390099
 30
0.0
 40
0.1415008101423805
 50
93.2223265664515566
 51
183.6268726227519039
  0
ARC
  5
BA56
  8
0
 10
4734.5547663058996477
 20
323.7827126315082182
 30
0.0
 40
46.3074568616347833
 50
93.3563820411839771
 51
93.4964030931797367
  0
LINE
  5
BA57
  8
0
 10
4730.9618088080633242
 20
369.8148215792862743
 30
0.0
 11
4730.9626707749030174
 21
369.7981925023298118
 31
0.0
  0
ARC
  5
BA58
  8
0
 10
4731.7005932651145486
 20
369.7237748602717033
 30
0.0
 40
0.741665414462972
 50
174.2413332221007067
 51
188.0058004793166049
  0
LINE
  5
BA59
  8
0
 10
4727.2231536330036761
 20
370.0037306625861788
 30
0.0
 11
4700.2514145107652439
 21
370.0037306623863174
 31
0.0
  0
LINE
  5
BA5A
  8
0
 10
4727.3775563894641891
 20
369.8671089132863017
 30
0.0
 11
4727.3578671670693439
 21
369.8379575997267921
 31
0.0
  0
ARC
  5
BA5B
  8
0
 10
4727.3095879786751539
 20
369.9019481395641264
 30
0.0
 40
0.0639834495963385
 50
184.0954541727199114
 51
271.2002304771796162
  0
LINE
  5
BA5C
  8
0
 10
4727.3926780420642899
 20
369.8379419305862257
 30
0.0
 11
4727.3109282042632913
 21
369.8379787279862967
 31
0.0
  0
LINE
  5
BA5D
  8
0
 10
4727.2457679138642561
 20
369.9775362842864865
 30
0.0
 11
4727.2457679138642561
 21
369.6467758431944048
 31
0.0
  0
LINE
  5
BA5E
  8
0
 10
4727.3926780420752038
 20
370.03877832883569
 30
0.0
 11
4727.3926780420642899
 21
369.8003279198273958
 31
0.0
  0
ARC
  5
BA5F
  8
0
 10
4727.4545175063112765
 20
370.0388670962485094
 30
0.0
 40
0.0618395279455783
 50
137.0142074590422112
 51
180.0822451273498928
  0
ARC
  5
BA60
  8
0
 10
4700.0486261380501674
 20
371.2477435831290791
 30
0.0
 40
0.1247979978655223
 50
89.9906367044526263
 51
135.0185687901401081
  0
ARC
  5
BA61
  8
0
 10
4698.8711348670640291
 20
370.06908370150461
 30
0.0
 40
0.1249896845339332
 50
135.0359230809486064
 51
180.0165805184360011
  0
ARC
  5
BA62
  8
0
 10
4698.8713672558387771
 20
314.8462297141359727
 30
0.0
 40
0.1252220692203022
 50
180.0077493604277095
 51
221.8997003394896126
  0
ARC
  5
BA63
  8
0
 10
4727.438700099864036
 20
370.0142108260862983
 30
0.0
 40
0.0610248623998456
 50
135.0784719334000954
 51
168.4428160146999005
  0
ARC
  5
BA64
  8
0
 10
4700.2511627759076873
 20
369.8642360671365736
 30
0.0
 40
0.1394948218918591
 50
89.8966030766038386
 51
180.2338448853489012
  0
LINE
  5
BA65
  8
0
 10
4700.1116691158340473
 20
369.8636667396862094
 30
0.0
 11
4700.1116702854651521
 21
313.622085034286215
 31
0.0
  0
LINE
  5
BA66
  8
0
 10
4702.2980254286640047
 20
367.3400248887284079
 30
0.0
 11
4702.2979990145640841
 21
369.721581701786306
 31
0.0
  0
ARC
  5
BA67
  8
0
 10
4702.3729769177543858
 20
369.7226270132239279
 30
0.0
 40
0.0749851894896967
 50
89.8423838846955221
 51
180.7987427121757946
  0
LINE
  5
BA68
  8
0
 10
4702.373183195763886
 20
369.7976119189863198
 30
0.0
 11
4706.8643160662568334
 21
369.7975468018536276
 31
0.0
  0
LINE
  5
BA69
  8
0
 10
4706.9675416721893271
 20
369.7975453051810746
 30
0.0
 11
4709.3496382294151772
 21
369.7975107670586112
 31
0.0
  0
ARC
  5
BA6A
  8
0
 10
4709.3500135171379952
 20
369.7276905973856742
 30
0.0
 40
0.0698211782628243
 50
359.1012283022021165
 51
90.3079653869218362
  0
LINE
  5
BA6B
  8
0
 10
4709.4198261052297312
 20
369.7265953906199911
 30
0.0
 11
4709.4197946803060404
 21
367.3350029539255956
 31
0.0
  0
ARC
  5
BA6C
  8
0
 10
4709.349870153795564
 20
367.3339943245018731
 30
0.0
 40
0.0699318006415093
 50
269.8212492376430873
 51
0.8264081913678596
  0
LINE
  5
BA6D
  8
0
 10
4709.3496519816635555
 20
367.2640628641862008
 30
0.0
 11
4702.3731727635640709
 21
367.2640397580863123
 31
0.0
  0
ARC
  5
BA6E
  8
0
 10
4702.3729666277122305
 20
367.3389878486216844
 30
0.0
 40
0.0749483740110528
 50
179.2071887051679937
 51
270.1575848626621905
  0
LINE
  5
BA6F
  8
0
 10
4700.2958273452632056
 20
364.7869986152862793
 30
0.0
 11
4700.2958025354673737
 21
367.1784979930050099
 31
0.0
  0
ARC
  5
BA70
  8
0
 10
4700.3657889936121137
 20
367.1795582140167085
 30
0.0
 40
0.0699944882993229
 50
89.8322680948244283
 51
180.8679042300443029
  0
LINE
  5
BA71
  8
0
 10
4700.3659939003637191
 20
367.249552402386314
 30
0.0
 11
4705.7822793355153408
 21
367.249460767058622
 31
0.0
  0
ARC
  5
BA72
  8
0
 10
4705.7826546232381588
 20
367.1796405973859123
 30
0.0
 40
0.0698211782628243
 50
359.1012283022021165
 51
90.3079653869218362
  0
LINE
  5
BA73
  8
0
 10
4705.8524672113298948
 20
367.1785453906201155
 30
0.0
 11
4705.8524357864071135
 21
364.7869529539257201
 31
0.0
  0
ARC
  5
BA74
  8
0
 10
4705.7825112598957276
 20
364.7859443245018838
 30
0.0
 40
0.0699318006415093
 50
269.8212492376430873
 51
0.8264081913678596
  0
LINE
  5
BA75
  8
0
 10
4705.7822930877628096
 20
364.7160128641863821
 30
0.0
 11
4700.3659871963645855
 21
364.7159990413862261
 31
0.0
  0
ARC
  5
BA76
  8
0
 10
4700.3657735606793722
 20
364.7859527492685174
 30
0.0
 40
0.0699540340986673
 50
179.1433526005693011
 51
270.1749783590756806
  0
LINE
  5
BA77
  8
0
 10
4705.8662065483631523
 20
364.7869864393862827
 30
0.0
 11
4705.8661757621639481
 21
367.1785142897862215
 31
0.0
  0
ARC
  5
BA78
  8
0
 10
4705.9361453316250845
 20
367.1795730064042118
 30
0.0
 40
0.0699775787764331
 50
89.8713110402284769
 51
180.8668820694859107
  0
LINE
  5
BA79
  8
0
 10
4705.9363025043567177
 20
367.2495504086720075
 30
0.0
 11
4712.9169910365635587
 21
367.2495497136862923
 31
0.0
  0
ARC
  5
BA7A
  8
0
 10
4712.9172224287249264
 20
367.1795795081083043
 30
0.0
 40
0.0699705881849908
 50
359.13413443658402
 51
90.1894770176523792
  0
LINE
  5
BA7B
  8
0
 10
4712.9871850271638323
 20
367.1785221384863007
 30
0.0
 11
4712.9871536038635895
 21
364.7869883483862168
 31
0.0
  0
ARC
  5
BA7C
  8
0
 10
4712.9172322232270744
 20
364.785943853314393
 30
0.0
 40
0.0699291816069565
 50
269.8186353982289916
 51
0.8558284741055247
  0
LINE
  5
BA7D
  8
0
 10
4712.9170108691041605
 20
364.7160150220460082
 30
0.0
 11
4705.9363626965641743
 21
364.716002724886323
 31
0.0
  0
ARC
  5
BA7E
  8
0
 10
4705.9361376471852054
 20
364.7859412715598069
 30
0.0
 40
0.0699389087564662
 50
179.143739364404496
 51
270.1843666436164995
  0
LINE
  5
BA7F
  8
0
 10
4713.0009243360636901
 20
364.7869864393862827
 30
0.0
 11
4713.0008935498635765
 21
367.1785142897862215
 31
0.0
  0
ARC
  5
BA80
  8
0
 10
4713.0708631193247129
 20
367.1795730064042118
 30
0.0
 40
0.0699775787764331
 50
89.8713110402284769
 51
180.8668820694859107
  0
LINE
  5
BA81
  8
0
 10
4713.0710202920581651
 20
367.2495504086720075
 30
0.0
 11
4720.0517088242631871
 21
367.2495497136862923
 31
0.0
  0
ARC
  5
BA82
  8
0
 10
4720.0519402164236453
 20
367.1795795081083043
 30
0.0
 40
0.0699705881849908
 50
359.13413443658402
 51
90.1894770176523792
  0
LINE
  5
BA83
  8
0
 10
4720.1219028148643702
 20
367.1785221384863007
 30
0.0
 11
4720.1218713915641274
 21
364.7869883483862168
 31
0.0
  0
ARC
  5
BA84
  8
0
 10
4720.0519500109257933
 20
364.785943853314393
 30
0.0
 40
0.0699291816069565
 50
269.8186353982289916
 51
0.8558284741055247
  0
LINE
  5
BA85
  8
0
 10
4720.0517286568037889
 20
364.7160150220460082
 30
0.0
 11
4713.2816486591600551
 21
364.7160030958247035
 31
0.0
  0
LINE
  5
BA86
  8
0
 10
4713.1791540127260305
 20
364.7160029152693141
 30
0.0
 11
4713.0710804842638026
 21
364.716002724886323
 31
0.0
  0
ARC
  5
BA87
  8
0
 10
4713.0708554348839243
 20
364.7859412715598069
 30
0.0
 40
0.0699389087564662
 50
179.143739364404496
 51
270.1843666436164995
  0
LINE
  5
BA88
  8
0
 10
4720.1356421238642724
 20
364.7869864392862951
 30
0.0
 11
4720.1356113376641588
 21
367.1785142896861771
 31
0.0
  0
ARC
  5
BA89
  8
0
 10
4720.2055809071252952
 20
367.1795730063042811
 30
0.0
 40
0.0699775787764331
 50
89.8713110402284769
 51
180.8668820694859107
  0
LINE
  5
BA8A
  8
0
 10
4720.2057380798569284
 20
367.2495504085720199
 30
0.0
 11
4726.8640471149992663
 21
367.2495497456818043
 31
0.0
  0
LINE
  5
BA8B
  8
0
 10
4726.8640470473037567
 20
364.7160144540050055
 30
0.0
 11
4720.2057982720643849
 21
364.7160027247862217
 31
0.0
  0
ARC
  5
BA8C
  8
0
 10
4720.2055732226835971
 20
364.7859412714598761
 30
0.0
 40
0.0699389087564662
 50
179.143739364404496
 51
270.1843666436164995
  0
LINE
  5
BA8D
  8
0
 10
4709.4335654422638981
 20
367.3350364393862719
 30
0.0
 11
4709.4335346560637845
 21
369.7265642897862108
 31
0.0
  0
ARC
  5
BA8E
  8
0
 10
4709.5035042255249209
 20
369.7276230064043148
 30
0.0
 40
0.0699775787764331
 50
89.8713110402284769
 51
180.8668820694859107
  0
LINE
  5
BA8F
  8
0
 10
4709.5036613982583731
 20
369.7976004086719968
 30
0.0
 11
4713.6370154824599012
 21
369.7975999971620809
 31
0.0
  0
LINE
  5
BA90
  8
0
 10
4713.7402341055876605
 20
369.7975999868859276
 30
0.0
 11
4716.4843499304643046
 21
369.7975997136862816
 31
0.0
  0
ARC
  5
BA91
  8
0
 10
4716.4845813226247628
 20
369.7276295081082935
 30
0.0
 40
0.0699705881849908
 50
359.13413443658402
 51
90.1894770176523792
  0
LINE
  5
BA92
  8
0
 10
4716.5545439210636687
 20
369.72657213848629
 30
0.0
 11
4716.5545124977643354
 21
367.3350383483863197
 31
0.0
  0
ARC
  5
BA93
  8
0
 10
4716.4845911171269108
 20
367.3339938533143822
 30
0.0
 40
0.0699291816069565
 50
269.8186353982289916
 51
0.8558284741055247
  0
LINE
  5
BA94
  8
0
 10
4716.4843697630039969
 20
367.2640650220459975
 30
0.0
 11
4709.5037215904640107
 21
367.2640527248863123
 31
0.0
  0
ARC
  5
BA95
  8
0
 10
4709.5034965410850418
 20
367.3339912715600235
 30
0.0
 40
0.0699389087564662
 50
179.143739364404496
 51
270.1843666436164995
  0
LINE
  5
BA96
  8
0
 10
4716.568283229964436
 20
367.3350364393862719
 30
0.0
 11
4716.5682524437643224
 21
369.7265642897862108
 31
0.0
  0
ARC
  5
BA97
  8
0
 10
4716.6382220132263683
 20
369.7276230064043148
 30
0.0
 40
0.0699775787764331
 50
89.8713110402284769
 51
180.8668820694859107
  0
LINE
  5
BA98
  8
0
 10
4716.638379185957092
 20
369.7976004086719968
 30
0.0
 11
4720.4097147684797164
 21
369.7976000332041053
 31
0.0
  0
LINE
  5
BA99
  8
0
 10
4720.5129354414193585
 20
369.7976000229277247
 30
0.0
 11
4723.6190677181630235
 21
369.7975997136862816
 31
0.0
  0
ARC
  5
BA9A
  8
0
 10
4723.6192991103243912
 20
369.7276295081082935
 30
0.0
 40
0.0699705881849908
 50
359.13413443658402
 51
90.1894770176523792
  0
LINE
  5
BA9B
  8
0
 10
4723.6892617087642066
 20
369.72657213848629
 30
0.0
 11
4723.6892302854639638
 21
367.3350383483863197
 31
0.0
  0
ARC
  5
BA9C
  8
0
 10
4723.6193089048256297
 20
367.3339938533143822
 30
0.0
 40
0.0699291816069565
 50
269.8186353982289916
 51
0.8558284741055247
  0
LINE
  5
BA9D
  8
0
 10
4723.6190875507036253
 20
367.2640650220459975
 30
0.0
 11
4716.638439378163639
 21
367.2640527248863123
 31
0.0
  0
ARC
  5
BA9E
  8
0
 10
4716.6382143287837607
 20
367.3339912715600235
 30
0.0
 40
0.0699389087564662
 50
179.143739364404496
 51
270.1843666436164995
  0
LINE
  5
BA9F
  8
0
 10
4723.7030010177641088
 20
367.3350364393862719
 30
0.0
 11
4723.7029702315630857
 21
369.7265642897862108
 31
0.0
  0
ARC
  5
BAA0
  8
0
 10
4723.7729398010251316
 20
369.7276230064043148
 30
0.0
 40
0.0699775787764331
 50
89.8713110402284769
 51
180.8668820694859107
  0
LINE
  5
BAA1
  8
0
 10
4723.7730969737567648
 20
369.7976004086719968
 30
0.0
 11
4727.2457679138642561
 21
369.7976000629386135
 31
0.0
  0
LINE
  5
BAA2
  8
0
 10
4726.8640471153867111
 20
367.2640581698199753
 30
0.0
 11
4723.7731571659642213
 21
367.2640527248863123
 31
0.0
  0
ARC
  5
BAA3
  8
0
 10
4723.7729321165852525
 20
367.3339912715600235
 30
0.0
 40
0.0699389087564662
 50
179.143739364404496
 51
270.1843666436164995
  0
LINE
  5
BAA4
  8
0
 10
4723.7030010177641088
 20
362.2389364393862934
 30
0.0
 11
4723.7029702315630857
 21
364.6304642897861754
 31
0.0
  0
ARC
  5
BAA5
  8
0
 10
4723.7729398010251316
 20
364.6315230064042794
 30
0.0
 40
0.0699775787764331
 50
89.8713110402284769
 51
180.8668820694859107
  0
LINE
  5
BAA6
  8
0
 10
4723.7730969737567648
 20
364.7015004086720182
 30
0.0
 11
4726.8640464855643586
 21
364.7015001009422122
 31
0.0
  0
LINE
  5
BAA7
  8
0
 10
4726.8640464855643586
 20
362.1679581698189168
 30
0.0
 11
4723.7731571659642213
 21
362.1679527248862769
 31
0.0
  0
ARC
  5
BAA8
  8
0
 10
4723.7729321165852525
 20
362.2378912715599881
 30
0.0
 40
0.0699389087564662
 50
179.143739364404496
 51
270.1843666436164995
  0
LINE
  5
BAA9
  8
0
 10
4716.568283229964436
 20
362.2389364393862934
 30
0.0
 11
4716.5682524437643224
 21
364.6304642897861754
 31
0.0
  0
ARC
  5
BAAA
  8
0
 10
4716.6382220132263683
 20
364.6315230064042794
 30
0.0
 40
0.0699775787764331
 50
89.8713110402284769
 51
180.8668820694859107
  0
LINE
  5
BAAB
  8
0
 10
4716.638379185957092
 20
364.7015004086720182
 30
0.0
 11
4723.6190677181630235
 21
364.701499713686303
 31
0.0
  0
ARC
  5
BAAC
  8
0
 10
4723.6192991103243912
 20
364.6315295081082013
 30
0.0
 40
0.0699705881849908
 50
359.13413443658402
 51
90.1894770176523792
  0
LINE
  5
BAAD
  8
0
 10
4723.6892617087642066
 20
364.6304721384861978
 30
0.0
 11
4723.6892302854639638
 21
362.2389383483862275
 31
0.0
  0
ARC
  5
BAAE
  8
0
 10
4723.6193089048256297
 20
362.2378938533144037
 30
0.0
 40
0.0699291816069565
 50
269.8186353982289916
 51
0.8558284741055247
  0
LINE
  5
BAAF
  8
0
 10
4723.6190875507036253
 20
362.1679650220460189
 30
0.0
 11
4716.638439378163639
 21
362.1679527248862769
 31
0.0
  0
ARC
  5
BAB0
  8
0
 10
4716.6382143287837607
 20
362.2378912715599881
 30
0.0
 40
0.0699389087564662
 50
179.143739364404496
 51
270.1843666436164995
  0
LINE
  5
BAB1
  8
0
 10
4709.4335654422638981
 20
362.2389364393862934
 30
0.0
 11
4709.4335346560637845
 21
364.6304642897861754
 31
0.0
  0
ARC
  5
BAB2
  8
0
 10
4709.5035042255249209
 20
364.6315230064042794
 30
0.0
 40
0.0699775787764331
 50
89.8713110402284769
 51
180.8668820694859107
  0
LINE
  5
BAB3
  8
0
 10
4709.5036613982583731
 20
364.7015004086720182
 30
0.0
 11
4713.1791538609077179
 21
364.7015000427459768
 31
0.0
  0
LINE
  5
BAB4
  8
0
 10
4713.2816493002528659
 20
364.7015000325417873
 30
0.0
 11
4716.4843499304643046
 21
364.701499713686303
 31
0.0
  0
ARC
  5
BAB5
  8
0
 10
4716.4845813226247628
 20
364.6315295081082013
 30
0.0
 40
0.0699705881849908
 50
359.13413443658402
 51
90.1894770176523792
  0
LINE
  5
BAB6
  8
0
 10
4716.5545439210636687
 20
364.6304721384861978
 30
0.0
 11
4716.5545124977643354
 21
362.2389383483862275
 31
0.0
  0
ARC
  5
BAB7
  8
0
 10
4716.4845911171269108
 20
362.2378938533144037
 30
0.0
 40
0.0699291816069565
 50
269.8186353982289916
 51
0.8558284741055247
  0
LINE
  5
BAB8
  8
0
 10
4716.4843697630039969
 20
362.1679650220460189
 30
0.0
 11
4709.5037215904640107
 21
362.1679527248862769
 31
0.0
  0
ARC
  5
BAB9
  8
0
 10
4709.5034965410850418
 20
362.2378912715599881
 30
0.0
 40
0.0699389087564662
 50
179.143739364404496
 51
270.1843666436164995
  0
LINE
  5
BABA
  8
0
 10
4705.8661817277643422
 20
359.6908863819862745
 30
0.0
 11
4705.8661509415642286
 21
362.0824142323862134
 31
0.0
  0
ARC
  5
BABB
  8
0
 10
4705.936120511025365
 20
362.0834729490043173
 30
0.0
 40
0.0699775787764331
 50
89.8713110402284769
 51
180.8668820694859107
  0
LINE
  5
BABC
  8
0
 10
4705.9362776837579077
 20
362.1534503512719994
 30
0.0
 11
4712.9169662159638392
 21
362.1534496562862842
 31
0.0
  0
ARC
  5
BABD
  8
0
 10
4712.9171976081242974
 20
362.0834794507082961
 30
0.0
 40
0.0699705881849908
 50
359.13413443658402
 51
90.1894770176523792
  0
LINE
  5
BABE
  8
0
 10
4712.9871602065641127
 20
362.0824220810862926
 30
0.0
 11
4712.98712878326387
 21
359.6908882909862086
 31
0.0
  0
ARC
  5
BABF
  8
0
 10
4712.9172074026264454
 20
359.6898437959143848
 30
0.0
 40
0.0699291816069565
 50
269.8186353982289916
 51
0.8558284741055247
  0
LINE
  5
BAC0
  8
0
 10
4712.916986048504441
 20
359.619914964646
 30
0.0
 11
4705.9363378759644547
 21
359.6199026674863148
 31
0.0
  0
ARC
  5
BAC1
  8
0
 10
4705.9361128265836669
 20
359.6898412141597987
 30
0.0
 40
0.0699389087564662
 50
179.143739364404496
 51
270.1843666436164995
  0
LINE
  5
BAC2
  8
0
 10
4713.0009243360636901
 20
359.6908864393863041
 30
0.0
 11
4713.0008935498635765
 21
362.0824142897862998
 31
0.0
  0
ARC
  5
BAC3
  8
0
 10
4713.0708631193247129
 20
362.0834730064041764
 30
0.0
 40
0.0699775787764331
 50
89.8713110402284769
 51
180.8668820694859107
  0
LINE
  5
BAC4
  8
0
 10
4713.0710202920581651
 20
362.1534504086719721
 30
0.0
 11
4720.0517088242631871
 21
362.1534497136862001
 31
0.0
  0
ARC
  5
BAC5
  8
0
 10
4720.0519402164236453
 20
362.0834795081083257
 30
0.0
 40
0.0699705881849908
 50
359.13413443658402
 51
90.1894770176523792
  0
LINE
  5
BAC6
  8
0
 10
4720.1219028148643702
 20
362.0824221384863222
 30
0.0
 11
4720.1218713915641274
 21
359.6908883483861814
 31
0.0
  0
ARC
  5
BAC7
  8
0
 10
4720.0519500109257933
 20
359.6898438533143008
 30
0.0
 40
0.0699291816069565
 50
269.8186353982289916
 51
0.8558284741055247
  0
LINE
  5
BAC8
  8
0
 10
4720.0517286568037889
 20
359.6199150220459728
 30
0.0
 11
4713.0710804842638026
 21
359.6199027248861739
 31
0.0
  0
ARC
  5
BAC9
  8
0
 10
4713.0708554348839243
 20
359.6898412715598852
 30
0.0
 40
0.0699389087564662
 50
179.143739364404496
 51
270.1843666436164995
  0
LINE
  5
BACA
  8
0
 10
4720.1356172996602254
 20
359.6908877419103874
 30
0.0
 11
4720.1355865134592023
 21
362.0824155923103262
 31
0.0
  0
ARC
  5
BACB
  8
0
 10
4720.2055560829212482
 20
362.0834743089283165
 30
0.0
 40
0.0699775787764331
 50
89.8713110402284769
 51
180.8668820694859107
  0
LINE
  5
BACC
  8
0
 10
4720.2057132556537908
 20
362.1534517111959985
 30
0.0
 11
4726.8640464855643586
 21
362.1534510483035092
 31
0.0
  0
LINE
  5
BACD
  8
0
 10
4726.8640464855643586
 20
359.6199157566716735
 30
0.0
 11
4726.1334555049461414
 21
359.619914469657374
 31
0.0
  0
LINE
  5
BACE
  8
0
 10
4726.0316237484003068
 20
359.6199142902698895
 30
0.0
 11
4723.1334551604331864
 21
359.6199091848354215
 31
0.0
  0
LINE
  5
BACF
  8
0
 10
4723.03162369292113
 20
359.6199090054482781
 30
0.0
 11
4720.2057734478612474
 21
359.6199040274104277
 31
0.0
  0
ARC
  5
BAD0
  8
0
 10
4720.2055483984813691
 20
359.6898425740840253
 30
0.0
 40
0.0699389087564662
 50
179.143739364404496
 51
270.1843666436164995
  0
LINE
  5
BAD1
  8
0
 10
4723.7030010177641088
 20
357.1428364393863149
 30
0.0
 11
4723.7029702315630857
 21
359.5343642897863106
 31
0.0
  0
ARC
  5
BAD2
  8
0
 10
4723.7729398010251316
 20
359.5354230064041872
 30
0.0
 40
0.0699775787764331
 50
89.8713110402284769
 51
180.8668820694859107
  0
LINE
  5
BAD3
  8
0
 10
4723.7730969737567648
 20
359.605400408671926
 30
0.0
 11
4726.031623824574126
 21
359.6054001838169256
 31
0.0
  0
LINE
  5
BAD4
  8
0
 10
4726.1334554342283809
 20
359.6054001736786176
 30
0.0
 11
4726.8640464855643586
 21
359.6054001009421768
 31
0.0
  0
ARC
  5
BAD5
  8
0
 10
4723.7729321165852525
 20
357.1417912715598959
 30
0.0
 40
0.0699389087564662
 50
179.143739364404496
 51
270.1843666436164995
  0
LINE
  5
BAD6
  8
0
 10
4716.568283229964436
 20
357.1428364393863149
 30
0.0
 11
4716.5682524437643224
 21
359.5343642897863106
 31
0.0
  0
ARC
  5
BAD7
  8
0
 10
4716.6382220132263683
 20
359.5354230064041872
 30
0.0
 40
0.0699775787764331
 50
89.8713110402284769
 51
180.8668820694859107
  0
LINE
  5
BAD8
  8
0
 10
4716.638379185957092
 20
359.605400408671926
 30
0.0
 11
4723.031623769144062
 21
359.6053997721710971
 31
0.0
  0
LINE
  5
BAD9
  8
0
 10
4723.133455087193397
 20
359.6053997620330165
 30
0.0
 11
4723.6190677181630235
 21
359.6053997136863245
 31
0.0
  0
ARC
  5
BADA
  8
0
 10
4723.6192991103243912
 20
359.5354295081082228
 30
0.0
 40
0.0699705881849908
 50
359.13413443658402
 51
90.1894770176523792
  0
LINE
  5
BADB
  8
0
 10
4723.6892617087642066
 20
359.5343721384862192
 30
0.0
 11
4723.6892302854639638
 21
357.1428383483861921
 31
0.0
  0
ARC
  5
BADC
  8
0
 10
4723.6193089048256297
 20
357.1417938533144252
 30
0.0
 40
0.0699291816069565
 50
269.8186353982289916
 51
0.8558284741055247
  0
LINE
  5
BADD
  8
0
 10
4723.6190875507036253
 20
357.0718650220459836
 30
0.0
 11
4723.1334422986747086
 21
357.0718641665297923
 31
0.0
  0
LINE
  5
BADE
  8
0
 10
4723.0316370785858453
 20
357.07186398718909
 30
0.0
 11
4716.638439378163639
 21
357.0718527248862983
 31
0.0
  0
ARC
  5
BADF
  8
0
 10
4716.6382143287837607
 20
357.1417912715598959
 30
0.0
 40
0.0699389087564662
 50
179.143739364404496
 51
270.1843666436164995
  0
LINE
  5
BAE0
  8
0
 10
4709.4335406179152415
 20
357.1428377419134108
 30
0.0
 11
4709.4335098317151278
 21
359.5343655923132928
 31
0.0
  0
ARC
  5
BAE1
  8
0
 10
4709.5034794011753547
 20
359.5354243089312831
 30
0.0
 40
0.0699775787764331
 50
89.8713110402284769
 51
180.8668820694859107
  0
LINE
  5
BAE2
  8
0
 10
4709.5036365739078974
 20
359.6054017111990788
 30
0.0
 11
4716.484325106113829
 21
359.6054010162134205
 31
0.0
  0
ARC
  5
BAE3
  8
0
 10
4716.4845564982751966
 20
359.5354308106353756
 30
0.0
 40
0.0699705881849908
 50
359.13413443658402
 51
90.1894770176523792
  0
LINE
  5
BAE4
  8
0
 10
4716.554519096715012
 20
359.534373441013372
 30
0.0
 11
4716.5544876734138597
 21
357.1428396509132881
 31
0.0
  0
ARC
  5
BAE5
  8
0
 10
4716.4845662927773446
 20
357.1417951558414074
 30
0.0
 40
0.0699291816069565
 50
269.8186353982289916
 51
0.8558284741055247
  0
LINE
  5
BAE6
  8
0
 10
4716.4843449386544307
 20
357.0718663245730795
 30
0.0
 11
4709.503696766115354
 21
357.0718540274132806
 31
0.0
  0
ARC
  5
BAE7
  8
0
 10
4709.5034717167345661
 20
357.1417925740869919
 30
0.0
 40
0.0699389087564662
 50
179.143739364404496
 51
270.1843666436164995
  0
LINE
  5
BAE8
  8
0
 10
4705.8662065483631523
 20
354.5947864393862119
 30
0.0
 11
4705.8661757621639481
 21
356.9863142897863213
 31
0.0
  0
ARC
  5
BAE9
  8
0
 10
4705.9361453316250845
 20
356.9873730064041979
 30
0.0
 40
0.0699775787764331
 50
89.8713110402284769
 51
180.8668820694859107
  0
LINE
  5
BAEA
  8
0
 10
4705.9363025043567177
 20
357.0573504086719936
 30
0.0
 11
4712.9169910365635587
 21
357.0573497136862215
 31
0.0
  0
ARC
  5
BAEB
  8
0
 10
4712.9172224287249264
 20
356.9873795081082903
 30
0.0
 40
0.0699705881849908
 50
359.13413443658402
 51
90.1894770176523792
  0
LINE
  5
BAEC
  8
0
 10
4712.9871850271638323
 20
356.9863221384861731
 30
0.0
 11
4712.9871536038635895
 21
354.5947883483862029
 31
0.0
  0
ARC
  5
BAED
  8
0
 10
4712.9172322232270744
 20
354.5937438533143222
 30
0.0
 40
0.0699291816069565
 50
269.8186353982289916
 51
0.8558284741055247
  0
LINE
  5
BAEE
  8
0
 10
4712.9170108691041605
 20
354.5238150220459943
 30
0.0
 11
4712.2407197717166127
 21
354.5238138306867768
 31
0.0
  0
LINE
  5
BAEF
  8
0
 10
4712.137462822114685
 20
354.5238136487885754
 30
0.0
 11
4705.9363626965641743
 21
354.5238027248861954
 31
0.0
  0
ARC
  5
BAF0
  8
0
 10
4705.9361376471852054
 20
354.5937412715599066
 30
0.0
 40
0.0699389087564662
 50
179.143739364404496
 51
270.1843666436164995
  0
LINE
  5
BAF1
  8
0
 10
4713.0009243360636901
 20
354.5947864393862119
 30
0.0
 11
4713.0008935498635765
 21
356.9863142897863213
 31
0.0
  0
ARC
  5
BAF2
  8
0
 10
4713.0708631193247129
 20
356.9873730064041979
 30
0.0
 40
0.0699775787764331
 50
89.8713110402284769
 51
180.8668820694859107
  0
LINE
  5
BAF3
  8
0
 10
4713.0710202920581651
 20
357.0573504086719936
 30
0.0
 11
4720.0517088242631871
 21
357.0573497136862215
 31
0.0
  0
ARC
  5
BAF4
  8
0
 10
4720.0519402164236453
 20
356.9873795081082903
 30
0.0
 40
0.0699705881849908
 50
359.13413443658402
 51
90.1894770176523792
  0
LINE
  5
BAF5
  8
0
 10
4720.1219028148643702
 20
356.9863221384861731
 30
0.0
 11
4720.1218713915641274
 21
354.5947883483862029
 31
0.0
  0
ARC
  5
BAF6
  8
0
 10
4720.0519500109257933
 20
354.5937438533143222
 30
0.0
 40
0.0699291816069565
 50
269.8186353982289916
 51
0.8558284741055247
  0
LINE
  5
BAF7
  8
0
 10
4720.0517286568037889
 20
354.5238150220459943
 30
0.0
 11
4713.0710804842638026
 21
354.5238027248861954
 31
0.0
  0
ARC
  5
BAF8
  8
0
 10
4713.0708554348839243
 20
354.5937412715599066
 30
0.0
 40
0.0699389087564662
 50
179.143739364404496
 51
270.1843666436164995
  0
LINE
  5
BAF9
  8
0
 10
4720.1356421238642724
 20
354.5947864393862119
 30
0.0
 11
4720.1356113376641588
 21
356.9863142897863213
 31
0.0
  0
ARC
  5
BAFA
  8
0
 10
4720.2055809071252952
 20
356.9873730064041979
 30
0.0
 40
0.0699775787764331
 50
89.8713110402284769
 51
180.8668820694859107
  0
LINE
  5
BAFB
  8
0
 10
4720.2057380798569284
 20
357.0573504086719936
 30
0.0
 11
4723.0316371548324241
 21
357.0573501273302099
 31
0.0
  0
LINE
  5
BAFC
  8
0
 10
4723.1334422254130914
 20
357.0573501171946873
 30
0.0
 11
4726.0316371975395668
 21
357.0573498286552194
 31
0.0
  0
LINE
  5
BAFD
  8
0
 10
4726.1334430192700893
 20
357.0573498185195831
 30
0.0
 11
4726.8640464855643586
 21
357.057349745781778
 31
0.0
  0
LINE
  5
BAFE
  8
0
 10
4726.8640464855643586
 20
354.5238144541038992
 30
0.0
 11
4726.1334306750295582
 21
354.523813167045887
 31
0.0
  0
LINE
  5
BAFF
  8
0
 10
4726.0316504943339169
 20
354.5238129877492952
 30
0.0
 11
4723.1334294368598421
 21
354.523807882222286
 31
0.0
  0
LINE
  5
BB00
  8
0
 10
4723.0316504643096778
 20
354.5238077029276837
 30
0.0
 11
4720.2057982720643849
 21
354.5238027248861954
 31
0.0
  0
ARC
  5
BB01
  8
0
 10
4720.2055732226835971
 20
354.5937412715599066
 30
0.0
 40
0.0699389087564662
 50
179.143739364404496
 51
270.1843666436164995
  0
LINE
  5
BB02
  8
0
 10
4723.7029761933608825
 20
352.0467377419769264
 30
0.0
 11
4723.7029454071607688
 21
354.4382655923769221
 31
0.0
  0
ARC
  5
BB03
  8
0
 10
4723.7729149766228147
 20
354.4393243089950261
 30
0.0
 40
0.0699775787764331
 50
89.8713110402284769
 51
180.8668820694859107
  0
LINE
  5
BB04
  8
0
 10
4723.7730721493553574
 20
354.5093017112625944
 30
0.0
 11
4726.0316505704959127
 21
354.5093014864024212
 31
0.0
  0
LINE
  5
BB05
  8
0
 10
4726.1334306043236211
 20
354.509301476269286
 30
0.0
 11
4726.8640464855643586
 21
354.5093014035304009
 31
0.0
  0
LINE
  5
BB06
  8
0
 10
4726.8640464855643586
 20
351.975759472453376
 30
0.0
 11
4726.1334182600512577
 21
351.9757581853734791
 31
0.0
  0
LINE
  5
BB07
  8
0
 10
4726.0316638673248235
 20
351.9757580061221915
 30
0.0
 11
4723.7731323415619045
 21
351.9757540274769099
 31
0.0
  0
ARC
  5
BB08
  8
0
 10
4723.7729072921829356
 20
352.0456925741506211
 30
0.0
 40
0.0699389087564662
 50
179.143739364404496
 51
270.1843666436164995
  0
LINE
  5
BB09
  8
0
 10
4716.5682584094638514
 20
352.0467363819863067
 30
0.0
 11
4716.5682276232628283
 21
354.4382642323863024
 31
0.0
  0
ARC
  5
BB0A
  8
0
 10
4716.6381971927239647
 20
354.4393229490044064
 30
0.0
 40
0.0699775787764331
 50
89.8713110402284769
 51
180.8668820694859107
  0
LINE
  5
BB0B
  8
0
 10
4716.6383543654583264
 20
354.5093003512719747
 30
0.0
 11
4723.0316505405262433
 21
354.5092997147662004
 31
0.0
  0
LINE
  5
BB0C
  8
0
 10
4723.1334293636282382
 20
354.509299704633122
 30
0.0
 11
4723.6190428976642579
 21
354.5092996562863163
 31
0.0
  0
ARC
  5
BB0D
  8
0
 10
4723.6192742898238066
 20
354.4393294507082146
 30
0.0
 40
0.0699705881849908
 50
359.13413443658402
 51
90.1894770176523792
  0
LINE
  5
BB0E
  8
0
 10
4723.6892368882636219
 20
354.4382720810862111
 30
0.0
 11
4723.6892054649642887
 21
352.046738290986184
 31
0.0
  0
ARC
  5
BB0F
  8
0
 10
4723.6192840843259546
 20
352.045693795914417
 30
0.0
 40
0.0699291816069565
 50
269.8186353982289916
 51
0.8558284741055247
  0
LINE
  5
BB10
  8
0
 10
4723.6190627302039502
 20
351.9757649646459754
 30
0.0
 11
4723.1334165751086402
 21
351.9757641091281926
 31
0.0
  0
LINE
  5
BB11
  8
0
 10
4723.0316638499680266
 20
351.9757639298799177
 30
0.0
 11
4716.6384145576639639
 21
351.9757526674862902
 31
0.0
  0
ARC
  5
BB12
  8
0
 10
4716.6381895082849951
 20
352.0456912141598877
 30
0.0
 40
0.0699389087564662
 50
179.143739364404496
 51
270.1843666436164995
  0
LINE
  5
BB13
  8
0
 10
4709.4335385932990903
 20
354.1324127250330775
 30
0.0
 11
4709.433536696158626
 21
354.2797859680991905
 31
0.0
  0
LINE
  5
BB14
  8
0
 10
4709.4335360137856696
 20
354.3327940147523805
 30
0.0
 11
4709.4335346560637845
 21
354.4382642897862183
 31
0.0
  0
ARC
  5
BB15
  8
0
 10
4709.5035042255249209
 20
354.4393230064043223
 30
0.0
 40
0.0699775787764331
 50
89.8713110402284769
 51
180.8668820694859107
  0
LINE
  5
BB16
  8
0
 10
4709.5036613982583731
 20
354.5093004086718906
 30
0.0
 11
4712.1374590202785839
 21
354.5093001464554732
 31
0.0
  0
LINE
  5
BB17
  8
0
 10
4712.2407239064714304
 20
354.5093001361746019
 30
0.0
 11
4716.4843499304643046
 21
354.5092997136861754
 31
0.0
  0
ARC
  5
BB18
  8
0
 10
4716.4845813226247628
 20
354.4393295081083011
 30
0.0
 40
0.0699705881849908
 50
359.13413443658402
 51
90.1894770176523792
  0
LINE
  5
BB19
  8
0
 10
4716.5545439210636687
 20
354.4382721384862975
 30
0.0
 11
4716.5545124977643354
 21
352.0467383483863273
 31
0.0
  0
ARC
  5
BB1A
  8
0
 10
4716.4845911171269108
 20
352.0456938533142761
 30
0.0
 40
0.0699291816069565
 50
269.8186353982289916
 51
0.8558284741055247
  0
LINE
  5
BB1B
  8
0
 10
4716.4843697630039969
 20
351.9757650220458913
 30
0.0
 11
4712.2150625310960095
 21
351.975757501203816
 31
0.0
  0
LINE
  5
BB1C
  8
0
 10
4712.1619923002735959
 20
351.9757574077149229
 30
0.0
 11
4711.9797924455642715
 21
351.9757570867503773
 31
0.0
  0
LINE
  5
BB1D
  8
0
 10
4711.9797924455642715
 20
351.9612497495896832
 30
0.0
 11
4712.161992300591919
 21
351.9612497314502093
 31
0.0
  0
LINE
  5
BB1E
  8
0
 10
4712.2150625267940995
 20
351.9612497261666135
 30
0.0
 11
4712.9169662159638392
 21
351.9612496562862134
 31
0.0
  0
ARC
  5
BB1F
  8
0
 10
4712.9171976081242974
 20
351.8912794507082253
 30
0.0
 40
0.0699705881849908
 50
359.13413443658402
 51
90.1894770176523792
  0
LINE
  5
BB20
  8
0
 10
4712.9871602065641127
 20
351.8902220810863923
 30
0.0
 11
4712.98712878326387
 21
349.4986882909861947
 31
0.0
  0
ARC
  5
BB21
  8
0
 10
4712.9172074026264454
 20
349.4976437959143141
 30
0.0
 40
0.0699291816069565
 50
269.8186353982289916
 51
0.8558284741055247
  0
LINE
  5
BB22
  8
0
 10
4712.916986048504441
 20
349.4277149646459861
 30
0.0
 11
4712.2150617757133659
 21
349.427713728131323
 31
0.0
  0
LINE
  5
BB23
  8
0
 10
4712.161992356052906
 20
349.4277136346436805
 30
0.0
 11
4711.9797924455642715
 21
349.4277133136790781
 31
0.0
  0
LINE
  5
BB24
  8
0
 10
4713.000899515564015
 20
349.4986863819862037
 30
0.0
 11
4713.0008687293639014
 21
351.8902142323863131
 31
0.0
  0
ARC
  5
BB25
  8
0
 10
4713.0708382988250378
 20
351.8912729490041897
 30
0.0
 40
0.0699775787764331
 50
89.8713110402284769
 51
180.8668820694859107
  0
LINE
  5
BB26
  8
0
 10
4713.070995471556671
 20
351.9612503512719854
 30
0.0
 11
4720.0516840037644215
 21
351.9612496562862134
 31
0.0
  0
ARC
  5
BB27
  8
0
 10
4720.0519153959248797
 20
351.8912794507082253
 30
0.0
 40
0.0699705881849908
 50
359.13413443658402
 51
90.1894770176523792
  0
LINE
  5
BB28
  8
0
 10
4720.1218779943637855
 20
351.8902220810863923
 30
0.0
 11
4720.1218465710644523
 21
349.4986882909861947
 31
0.0
  0
ARC
  5
BB29
  8
0
 10
4720.0519251904270277
 20
349.4976437959143141
 30
0.0
 40
0.0699291816069565
 50
269.8186353982289916
 51
0.8558284741055247
  0
LINE
  5
BB2A
  8
0
 10
4720.0517038363032043
 20
349.4277149646459861
 30
0.0
 11
4713.0710556637641275
 21
349.4277026674861872
 31
0.0
  0
ARC
  5
BB2B
  8
0
 10
4713.0708306143851587
 20
349.4976412141598985
 30
0.0
 40
0.0699389087564662
 50
179.143739364404496
 51
270.1843666436164995
  0
LINE
  5
BB2C
  8
0
 10
4720.1356421238642724
 20
349.4986864393861765
 30
0.0
 11
4720.1356113376641588
 21
351.8902142897862859
 31
0.0
  0
ARC
  5
BB2D
  8
0
 10
4720.2055809071252952
 20
351.8912730064042762
 30
0.0
 40
0.0699775787764331
 50
89.8713110402284769
 51
180.8668820694859107
  0
LINE
  5
BB2E
  8
0
 10
4720.2057380798569284
 20
351.9612504086719014
 30
0.0
 11
4723.0316639262146055
 21
351.9612501273275029
 31
0.0
  0
LINE
  5
BB2F
  8
0
 10
4723.133416501847023
 20
351.9612501171972099
 30
0.0
 11
4726.0316639434677199
 21
351.9612498286525124
 31
0.0
  0
LINE
  5
BB30
  8
0
 10
4726.1334181893616915
 20
351.9612498185221057
 30
0.0
 11
4726.8640464855643586
 21
351.9612497457817994
 31
0.0
  0
LINE
  5
BB31
  8
0
 10
4726.8640464855643586
 20
349.4277144541039206
 30
0.0
 11
4726.1334058451202509
 21
349.4277131670020822
 31
0.0
  0
LINE
  5
BB32
  8
0
 10
4726.03167724026207
 20
349.4277129877963262
 30
0.0
 11
4723.1334037132955928
 21
349.4277078821768896
 31
0.0
  0
LINE
  5
BB33
  8
0
 10
4723.0316772356927686
 20
349.4277077029748284
 30
0.0
 11
4720.2057982720643849
 21
349.4277027248862169
 31
0.0
  0
ARC
  5
BB34
  8
0
 10
4720.2055732226835971
 20
349.4976412715599281
 30
0.0
 40
0.0699389087564662
 50
179.143739364404496
 51
270.1843666436164995
  0
LINE
  5
BB35
  8
0
 10
4726.1334057744079473
 20
349.4132001162810752
 30
0.0
 11
4726.8640464855643586
 21
349.413200043539689
 31
0.0
  0
LINE
  5
BB36
  8
0
 10
4726.8640464855643586
 20
346.879658112462721
 30
0.0
 11
4726.1333975527313669
 21
346.8796568253463874
 31
0.0
  0
LINE
  5
BB37
  8
0
 10
4716.568283229964436
 20
346.9506364393863009
 30
0.0
 11
4716.56826450382232
 21
348.4053170264066921
 31
0.0
  0
LINE
  5
BB38
  8
0
 10
4716.5682631907147879
 20
348.5073215792862129
 30
0.0
 11
4716.5682524437643224
 21
349.342164289786183
 31
0.0
  0
ARC
  5
BB39
  8
0
 10
4716.6382220132263683
 20
349.3432230064042869
 30
0.0
 40
0.0699775787764331
 50
89.8713110402284769
 51
180.8668820694859107
  0
LINE
  5
BB3A
  8
0
 10
4716.638379185957092
 20
349.4132004086720258
 30
0.0
 11
4723.0316773119066056
 21
349.4131997721657967
 31
0.0
  0
LINE
  5
BB3B
  8
0
 10
4723.0316820707639636
 20
346.8796639872683727
 30
0.0
 11
4716.638439378163639
 21
346.8796527248862844
 31
0.0
  0
ARC
  5
BB3C
  8
0
 10
4716.6382143287837607
 20
346.949591271559882
 30
0.0
 40
0.0699389087564662
 50
179.143739364404496
 51
270.1843666436164995
  0
LINE
  5
BB3D
  8
0
 10
4709.4335406218642675
 20
346.9506363819863282
 30
0.0
 11
4709.4335218992091541
 21
348.4050460984577171
 31
0.0
  0
LINE
  5
BB3E
  8
0
 10
4709.4335205826146193
 20
348.5073215792862129
 30
0.0
 11
4709.4335189723133226
 21
348.6324127250330775
 31
0.0
  0
LINE
  5
BB3F
  8
0
 10
4711.9797924455642715
 20
349.4132001047499898
 30
0.0
 11
4712.1619923563703196
 21
349.4132000866105727
 31
0.0
  0
LINE
  5
BB40
  8
0
 10
4712.2150617714087275
 20
349.4132000813269769
 30
0.0
 11
4716.4843251100637644
 21
349.4131996562863947
 31
0.0
  0
ARC
  5
BB41
  8
0
 10
4716.4845565022242226
 20
349.3432294507082929
 30
0.0
 40
0.0699705881849908
 50
359.13413443658402
 51
90.1894770176523792
  0
LINE
  5
BB42
  8
0
 10
4716.554519100664038
 20
349.3421720810861757
 30
0.0
 11
4716.5545081312366165
 21
348.5073215792862129
 31
0.0
  0
LINE
  5
BB43
  8
0
 10
4716.5545067909506542
 20
348.4053165039844089
 30
0.0
 11
4716.5544876773628857
 21
346.9506382909863191
 31
0.0
  0
ARC
  5
BB44
  8
0
 10
4716.4845662967272801
 20
346.9495937959143248
 30
0.0
 40
0.0699291816069565
 50
269.8186353982289916
 51
0.8558284741055247
  0
LINE
  5
BB45
  8
0
 10
4716.4843449426043662
 20
346.8796649646458832
 30
0.0
 11
4709.50369677006438
 21
346.8796526674863117
 31
0.0
  0
ARC
  5
BB46
  8
0
 10
4709.5034717206835921
 20
346.9495912141599092
 30
0.0
 40
0.0699389087564662
 50
179.143739364404496
 51
270.1843666436164995
  0
LINE
  5
BB47
  8
0
 10
4705.8661817243437326
 20
344.4025877419633161
 30
0.0
 11
4705.866150938143619
 21
346.7941155923633119
 31
0.0
  0
ARC
  5
BB48
  8
0
 10
4705.9361205076047554
 20
346.7951743089813021
 30
0.0
 40
0.0699775787764331
 50
89.8713110402284769
 51
180.8668820694859107
  0
LINE
  5
BB49
  8
0
 10
4705.9362776803372981
 20
346.8651517112489842
 30
0.0
 11
4712.9169662125432296
 21
346.8651510162633258
 31
0.0
  0
ARC
  5
BB4A
  8
0
 10
4712.9171976047036878
 20
346.7951808106853946
 30
0.0
 40
0.0699705881849908
 50
359.13413443658402
 51
90.1894770176523792
  0
LINE
  5
BB4B
  8
0
 10
4712.9871602031444127
 20
346.7941234410632774
 30
0.0
 11
4712.9871287798423509
 21
344.4025896509633071
 31
0.0
  0
ARC
  5
BB4C
  8
0
 10
4712.9172073992058358
 20
344.4015451558913128
 30
0.0
 40
0.0699291816069565
 50
269.8186353982289916
 51
0.8558284741055247
  0
LINE
  5
BB4D
  8
0
 10
4712.9169860450829219
 20
344.3316163246230985
 30
0.0
 11
4705.9363378725429357
 21
344.3316040274632996
 31
0.0
  0
ARC
  5
BB4E
  8
0
 10
4705.9361128231639668
 20
344.4015425741368972
 30
0.0
 40
0.0699389087564662
 50
179.143739364404496
 51
270.1843666436164995
  0
LINE
  5
BB4F
  8
0
 10
4713.0008995154630611
 20
344.4025863819862252
 30
0.0
 11
4713.0008687292629475
 21
346.7941142323862778
 31
0.0
  0
ARC
  5
BB50
  8
0
 10
4713.0708382987249934
 20
346.7951729490043249
 30
0.0
 40
0.0699775787764331
 50
89.8713110402284769
 51
180.8668820694859107
  0
LINE
  5
BB51
  8
0
 10
4713.0709954714566265
 20
346.8651503512721206
 30
0.0
 11
4720.0516840036643771
 21
346.865149656286178
 31
0.0
  0
ARC
  5
BB52
  8
0
 10
4720.0519153958239258
 20
346.7951794507083036
 30
0.0
 40
0.0699705881849908
 50
359.13413443658402
 51
90.1894770176523792
  0
LINE
  5
BB53
  8
0
 10
4720.1218779942646506
 20
346.7941220810863001
 30
0.0
 11
4720.1218465709644079
 21
344.402588290986273
 31
0.0
  0
ARC
  5
BB54
  8
0
 10
4720.0519251903269833
 20
344.4015437959142787
 30
0.0
 40
0.0699291816069565
 50
269.8186353982289916
 51
0.8558284741055247
  0
LINE
  5
BB55
  8
0
 10
4720.0517038362040694
 20
344.3316149646461213
 30
0.0
 11
4713.0710556636640831
 21
344.3316026674862087
 31
0.0
  0
ARC
  5
BB56
  8
0
 10
4713.0708306142851143
 20
344.4015412141599199
 30
0.0
 40
0.0699389087564662
 50
179.143739364404496
 51
270.1843666436164995
  0
LINE
  5
BB57
  8
0
 10
4720.1356421238642724
 20
344.4025864393863117
 30
0.0
 11
4720.1356113376641588
 21
346.7941142897861937
 31
0.0
  0
ARC
  5
BB58
  8
0
 10
4720.2055809071252952
 20
346.7951730064042977
 30
0.0
 40
0.0699775787764331
 50
89.8713110402284769
 51
180.8668820694859107
  0
LINE
  5
BB59
  8
0
 10
4720.2057380798569284
 20
346.8651504086719797
 30
0.0
 11
4723.0316820707639636
 21
346.8651501273257054
 31
0.0
  0
LINE
  5
BB5A
  8
0
 10
4723.1333907782818642
 20
346.8651501171997893
 30
0.0
 11
4726.0316906893949636
 21
346.8651498286499191
 31
0.0
  0
LINE
  5
BB5B
  8
0
 10
4726.1333975541401742
 20
346.865149818524003
 30
0.0
 11
4726.8640464855643586
 21
346.8651497457818778
 31
0.0
  0
LINE
  5
BB5C
  8
0
 10
4726.8640464855643586
 20
344.3316144541038852
 30
0.0
 11
4726.1333978002239746
 21
344.3316131669880065
 31
0.0
  0
LINE
  5
BB5D
  8
0
 10
4726.0317039861902231
 20
344.331612987843414
 30
0.0
 11
4723.1333779897286149
 21
344.3316078821316069
 31
0.0
  0
LINE
  5
BB5E
  8
0
 10
4723.0316820707639636
 20
344.3316077029833195
 30
0.0
 11
4720.2057982720643849
 21
344.3316027248861815
 31
0.0
  0
ARC
  5
BB5F
  8
0
 10
4720.2055732226835971
 20
344.4015412715600064
 30
0.0
 40
0.0699389087564662
 50
179.143739364404496
 51
270.1843666436164995
  0
LINE
  5
BB60
  8
0
 10
4726.1333978016336914
 20
344.3171001736843095
 30
0.0
 11
4726.8640464855643586
 21
344.3171001009421843
 31
0.0
  0
LINE
  5
BB61
  8
0
 10
4726.8640256639564541
 20
341.7835581697822818
 30
0.0
 11
4726.1333980477165824
 21
341.7835568827034081
 31
0.0
  0
LINE
  5
BB62
  8
0
 10
4716.568258405753113
 20
341.8545377420603018
 30
0.0
 11
4716.5682276195529994
 21
344.2460655924601838
 31
0.0
  0
ARC
  5
BB63
  8
0
 10
4716.6381971890141358
 20
344.2471243090781741
 30
0.0
 40
0.0699775787764331
 50
89.8713110402284769
 51
180.8668820694859107
  0
LINE
  5
BB64
  8
0
 10
4716.6383543617466785
 20
344.3171017113460266
 30
0.0
 11
4723.0316820707639636
 21
344.3171010748370122
 31
0.0
  0
LINE
  5
BB65
  8
0
 10
4723.0316820707639636
 20
341.7835652899860861
 30
0.0
 11
4716.6384145539532255
 21
341.7835540275602852
 31
0.0
  0
ARC
  5
BB66
  8
0
 10
4716.6381895045733472
 20
341.8534925742338828
 30
0.0
 40
0.0699389087564662
 50
179.143739364404496
 51
270.1843666436164995
  0
LINE
  5
BB67
  8
0
 10
4709.4335654422638981
 20
341.8545364393863224
 30
0.0
 11
4709.4335346560637845
 21
344.2460642897862044
 31
0.0
  0
ARC
  5
BB68
  8
0
 10
4709.5035042255249209
 20
344.2471230064043084
 30
0.0
 40
0.0699775787764331
 50
89.8713110402284769
 51
180.8668820694859107
  0
LINE
  5
BB69
  8
0
 10
4709.5036613982583731
 20
344.3171004086719904
 30
0.0
 11
4716.4843499304643046
 21
344.3170997136862752
 31
0.0
  0
ARC
  5
BB6A
  8
0
 10
4716.4845813226247628
 20
344.2471295081082872
 30
0.0
 40
0.0699705881849908
 50
359.13413443658402
 51
90.1894770176523792
  0
LINE
  5
BB6B
  8
0
 10
4716.5545439210636687
 20
344.2460721384862836
 30
0.0
 11
4716.5545124977643354
 21
341.8545383483861997
 31
0.0
  0
ARC
  5
BB6C
  8
0
 10
4716.4845911171269108
 20
341.8534938533143759
 30
0.0
 40
0.0699291816069565
 50
269.8186353982289916
 51
0.8558284741055247
  0
LINE
  5
BB6D
  8
0
 10
4716.4843697630039969
 20
341.7835650220459911
 30
0.0
 11
4709.5037215904640107
 21
341.7835527248861922
 31
0.0
  0
ARC
  5
BB6E
  8
0
 10
4709.5034965410850418
 20
341.8534912715597898
 30
0.0
 40
0.0699389087564662
 50
179.143739364404496
 51
270.1843666436164995
  0
LINE
  5
BB6F
  8
0
 10
4705.8662065483631523
 20
339.3064864393862763
 30
0.0
 11
4705.8661757621639481
 21
341.6980142897862152
 31
0.0
  0
ARC
  5
BB70
  8
0
 10
4705.9361453316250845
 20
341.6990730064043191
 30
0.0
 40
0.0699775787764331
 50
89.8713110402284769
 51
180.8668820694859107
  0
LINE
  5
BB71
  8
0
 10
4705.9363025043567177
 20
341.7690504086720011
 30
0.0
 11
4712.9169910365635587
 21
341.7690497136862859
 31
0.0
  0
ARC
  5
BB72
  8
0
 10
4712.9172224287249264
 20
341.6990795081082979
 30
0.0
 40
0.0699705881849908
 50
359.13413443658402
 51
90.1894770176523792
  0
LINE
  5
BB73
  8
0
 10
4712.9871850271638323
 20
341.6980221384862944
 30
0.0
 11
4712.9871536038635895
 21
339.3064883483863241
 31
0.0
  0
ARC
  5
BB74
  8
0
 10
4712.9172322232270744
 20
339.3054438533143866
 30
0.0
 40
0.0699291816069565
 50
269.8186353982289916
 51
0.8558284741055247
  0
LINE
  5
BB75
  8
0
 10
4712.9170108691041605
 20
339.2355150220460018
 30
0.0
 11
4705.9363626965641743
 21
339.2355027248862029
 31
0.0
  0
ARC
  5
BB76
  8
0
 10
4705.9361376471852054
 20
339.3054412715600279
 30
0.0
 40
0.0699389087564662
 50
179.143739364404496
 51
270.1843666436164995
  0
LINE
  5
BB77
  8
0
 10
4713.0008995154630611
 20
339.3064863819863035
 30
0.0
 11
4713.0008687292629475
 21
341.6980142323861855
 31
0.0
  0
ARC
  5
BB78
  8
0
 10
4713.0708382987249934
 20
341.6990729490042895
 30
0.0
 40
0.0699775787764331
 50
89.8713110402284769
 51
180.8668820694859107
  0
LINE
  5
BB79
  8
0
 10
4713.0709954714566265
 20
341.7690503512720284
 30
0.0
 11
4720.0516840036643771
 21
341.7690496562863132
 31
0.0
  0
ARC
  5
BB7A
  8
0
 10
4720.0519153958239258
 20
341.6990794507082114
 30
0.0
 40
0.0699705881849908
 50
359.13413443658402
 51
90.1894770176523792
  0
LINE
  5
BB7B
  8
0
 10
4720.1218779942646506
 20
341.6980220810863216
 30
0.0
 11
4720.1218465709644079
 21
339.3064882909862945
 31
0.0
  0
ARC
  5
BB7C
  8
0
 10
4720.0519251903269833
 20
339.3054437959144138
 30
0.0
 40
0.0699291816069565
 50
269.8186353982289916
 51
0.8558284741055247
  0
LINE
  5
BB7D
  8
0
 10
4720.0517038362040694
 20
339.2355149646459722
 30
0.0
 11
4716.6109419754166083
 21
339.2355089033753188
 31
0.0
  0
LINE
  5
BB7E
  8
0
 10
4716.558843170209002
 20
339.2355088115976969
 30
0.0
 11
4716.5007219929739222
 21
339.2355087092109898
 31
0.0
  0
LINE
  5
BB7F
  8
0
 10
4716.4486051967378444
 20
339.235508617401706
 30
0.0
 11
4713.0710556636640831
 21
339.2355026674861733
 31
0.0
  0
ARC
  5
BB80
  8
0
 10
4713.0708306142851143
 20
339.3054412141598846
 30
0.0
 40
0.0699389087564662
 50
179.143739364404496
 51
270.1843666436164995
  0
LINE
  5
BB81
  8
0
 10
4720.1356172993564542
 20
339.3064877419940899
 30
0.0
 11
4720.13558651315725
 21
341.6980155923939719
 31
0.0
  0
ARC
  5
BB82
  8
0
 10
4720.2055560826165674
 20
341.6990743090120759
 30
0.0
 40
0.0699775787764331
 50
89.8713110402284769
 51
180.8668820694859107
  0
LINE
  5
BB83
  8
0
 10
4720.2057132553491101
 20
341.7690517112798148
 30
0.0
 11
4723.0316820707639636
 21
341.7690514299309825
 31
0.0
  0
LINE
  5
BB84
  8
0
 10
4723.1333650547221623
 20
341.7690514198076244
 30
0.0
 11
4726.0317174353158407
 21
341.7690511312525246
 31
0.0
  0
LINE
  5
BB85
  8
0
 10
4726.1333980491262992
 20
341.7690511211293938
 30
0.0
 11
4726.8640254911233569
 21
341.7690510483893149
 31
0.0
  0
LINE
  5
BB86
  8
0
 10
4726.8639953076535676
 20
339.2355157566652224
 30
0.0
 11
4726.1333982952100996
 21
339.2355144696404068
 31
0.0
  0
LINE
  5
BB87
  8
0
 10
4726.0317307321092812
 20
339.2355142905420848
 30
0.0
 11
4723.1333522661698225
 21
339.2355091847377935
 31
0.0
  0
LINE
  5
BB88
  8
0
 10
4723.0316820707639636
 20
339.2355090056349241
 30
0.0
 11
4720.2057734475556572
 21
339.2355040274940166
 31
0.0
  0
ARC
  5
BB89
  8
0
 10
4720.2055483981757789
 20
339.3054425741677278
 30
0.0
 40
0.0699389087564662
 50
179.143739364404496
 51
270.1843666436164995
  0
LINE
  5
BB8A
  8
0
 10
4726.1333982966198164
 20
339.2210001736842742
 30
0.0
 11
4726.8639951347213355
 21
339.2210001009473217
 31
0.0
  0
LINE
  5
BB8B
  8
0
 10
4726.8639649511733296
 20
336.6874581696753239
 30
0.0
 11
4726.1333985427027073
 21
336.6874568827043959
 31
0.0
  0
ARC
  5
BB8C
  8
0
 10
4716.6382220033383419
 20
339.1510267677134038
 30
0.0
 40
0.0699775787764331
 50
89.8713110402284769
 51
112.9446795081561987
  0
LINE
  5
BB8D
  8
0
 10
4716.6383791760727036
 20
339.2210041699811995
 30
0.0
 11
4723.0316820707639636
 21
339.2210035334746863
 31
0.0
  0
LINE
  5
BB8E
  8
0
 10
4723.0316820707639636
 20
336.6874677485776033
 30
0.0
 11
4716.6384393682792506
 21
336.687456486195515
 31
0.0
  0
ARC
  5
BB8F
  8
0
 10
4716.6382143189002818
 20
336.7573950328691126
 30
0.0
 40
0.0699389087564662
 50
247.0281760269245979
 51
270.1843666436164995
  0
LINE
  5
BB90
  8
0
 10
4709.4335390258129337
 20
336.8824127250330775
 30
0.0
 11
4709.4335367740477523
 21
337.0573339658990903
 31
0.0
  0
LINE
  5
BB91
  8
0
 10
4709.4335360937957375
 20
337.1101771704800854
 30
0.0
 11
4709.4335098355641094
 21
339.1499642323861963
 31
0.0
  0
ARC
  5
BB92
  8
0
 10
4709.5034794050252458
 20
339.1510229490043002
 30
0.0
 40
0.0699775787764331
 50
89.8713110402284769
 51
180.8668820694859107
  0
LINE
  5
BB93
  8
0
 10
4709.5036365777577885
 20
339.2210003512719823
 30
0.0
 11
4716.4486050641780821
 21
339.220999659842505
 31
0.0
  0
ARC
  5
BB94
  8
0
 10
4716.4845565021241782
 20
339.151029450708279
 30
0.0
 40
0.0699705881849908
 50
359.13413443658402
 51
76.6422542437654499
  0
LINE
  5
BB95
  8
0
 10
4716.5545191005639936
 20
339.1499720810862755
 30
0.0
 11
4716.5544876772628413
 21
336.7584382909861915
 31
0.0
  0
ARC
  5
BB96
  8
0
 10
4716.4845662966263262
 20
336.7573937959144246
 30
0.0
 40
0.0699291816069565
 50
283.3374301414019101
 51
0.8558284741055247
  0
LINE
  5
BB97
  8
0
 10
4716.4485819165356588
 20
336.687464901645626
 30
0.0
 11
4712.240126164180765
 21
336.6874574879997795
 31
0.0
  0
LINE
  5
BB98
  8
0
 10
4712.1365341908349365
 20
336.6874573055113729
 30
0.0
 11
4711.9797924455642715
 21
336.6874570293941247
 31
0.0
  0
LINE
  5
BB99
  8
0
 10
4711.9797924455642715
 20
336.6729497495896908
 30
0.0
 11
4712.1365303905531619
 21
336.6729497339850923
 31
0.0
  0
LINE
  5
BB9A
  8
0
 10
4712.240130297246651
 20
336.6729497236710245
 30
0.0
 11
4712.9169662159638392
 21
336.6729496562862778
 31
0.0
  0
ARC
  5
BB9B
  8
0
 10
4712.9171976081242974
 20
336.6029794507082897
 30
0.0
 40
0.0699705881849908
 50
359.13413443658402
 51
90.1894770176523792
  0
LINE
  5
BB9C
  8
0
 10
4712.9871602065641127
 20
336.6019220810862862
 30
0.0
 11
4712.98712878326387
 21
334.210388290986316
 31
0.0
  0
ARC
  5
BB9D
  8
0
 10
4712.9172074026264454
 20
334.2093437959143785
 30
0.0
 40
0.0699291816069565
 50
269.8186353982289916
 51
0.8558284741055247
  0
LINE
  5
BB9E
  8
0
 10
4712.916986048504441
 20
334.1394149646459937
 30
0.0
 11
4712.2150963105041228
 21
334.1394137281919825
 31
0.0
  0
LINE
  5
BB9F
  8
0
 10
4712.1619978997059661
 20
334.139413634653522
 30
0.0
 11
4711.9797924455642715
 21
334.1394133136789719
 31
0.0
  0
LINE
  5
BBA0
  8
0
 10
4713.0008995119223982
 20
334.2103877419119726
 30
0.0
 11
4713.0008687257222846
 21
336.6019155923119115
 31
0.0
  0
ARC
  5
BBA1
  8
0
 10
4713.070838295181602
 20
336.6029743089299018
 30
0.0
 40
0.0699775787764331
 50
89.8713110402284769
 51
180.8668820694859107
  0
LINE
  5
BBA2
  8
0
 10
4713.0709954679159637
 20
336.6729517111976975
 30
0.0
 11
4716.4485817839331503
 21
336.6729513749309035
 31
0.0
  0
LINE
  5
BBA3
  8
0
 10
4716.5006977861303312
 20
336.6729513697422931
 30
0.0
 11
4716.5588190362032037
 21
336.6729513639558036
 31
0.0
  0
LINE
  5
BBA4
  8
0
 10
4716.6109184890401593
 20
336.6729513587688984
 30
0.0
 11
4720.0516840001218952
 21
336.6729510162119823
 31
0.0
  0
ARC
  5
BBA5
  8
0
 10
4720.0519153922823534
 20
336.6029808106339942
 30
0.0
 40
0.0699705881849908
 50
359.13413443658402
 51
90.1894770176523792
  0
LINE
  5
BBA6
  8
0
 10
4720.1218779907221688
 20
336.6019234410119907
 30
0.0
 11
4720.121846567421926
 21
334.2103896509119068
 31
0.0
  0
ARC
  5
BBA7
  8
0
 10
4720.0519251867835919
 20
334.2093451558400261
 30
0.0
 40
0.0699291816069565
 50
269.8186353982289916
 51
0.8558284741055247
  0
LINE
  5
BBA8
  8
0
 10
4720.0517038326615875
 20
334.1394163245716982
 30
0.0
 11
4716.6108952686054181
 21
334.1394102632187924
 31
0.0
  0
LINE
  5
BBA9
  8
0
 10
4716.55879517547055
 20
334.1394101714388967
 30
0.0
 11
4716.5006738533811586
 21
334.1394100690519053
 31
0.0
  0
LINE
  5
BBAA
  8
0
 10
4716.4485586362316099
 20
334.1394099772454069
 30
0.0
 11
4713.0710556601216012
 21
334.139404027412013
 31
0.0
  0
ARC
  5
BBAB
  8
0
 10
4713.0708306107417229
 20
334.2093425740856105
 30
0.0
 40
0.0699389087564662
 50
179.143739364404496
 51
270.1843666436164995
  0
LINE
  5
BBAC
  8
0
 10
4720.1356172997047906
 20
334.2103877419802984
 30
0.0
 11
4720.135586513504677
 21
336.6019155923804078
 31
0.0
  0
ARC
  5
BBAD
  8
0
 10
4720.2055560829649039
 20
336.6029743089982844
 30
0.0
 40
0.0699775787764331
 50
89.8713110402284769
 51
180.8668820694859107
  0
LINE
  5
BBAE
  8
0
 10
4720.2057132556983561
 20
336.6729517112660801
 30
0.0
 11
4723.0316820707639636
 21
336.6729514299174184
 31
0.0
  0
LINE
  5
BBAF
  8
0
 10
4723.1333393311570035
 20
336.6729514197966182
 30
0.0
 11
4726.0317441812430843
 21
336.6729511312361751
 31
0.0
  0
LINE
  5
BBB0
  8
0
 10
4726.1333985441133336
 20
336.6729511211156023
 30
0.0
 11
4726.8639647783402324
 21
336.6729510483816057
 31
0.0
  0
LINE
  5
BBB1
  8
0
 10
4726.8639345948704431
 20
334.1394157565446221
 30
0.0
 11
4726.1333987901962246
 21
334.1394144696275816
 31
0.0
  0
LINE
  5
BBB2
  8
0
 10
4726.0317574780356153
 20
334.1394142905754734
 30
0.0
 11
4723.1333265426055732
 21
334.1394091846788115
 31
0.0
  0
LINE
  5
BBB3
  8
0
 10
4723.0316820707639636
 20
334.1394090056211894
 30
0.0
 11
4720.2057734479039937
 21
334.1394040274802819
 31
0.0
  0
ARC
  5
BBB4
  8
0
 10
4720.2055483985241153
 20
334.2093425741539932
 30
0.0
 40
0.0699389087564662
 50
179.143739364404496
 51
270.1843666436164995
  0
LINE
  5
BBB5
  8
0
 10
4711.9797924455642715
 20
334.1249001621525281
 30
0.0
 11
4712.1619979641218379
 21
334.1249001440124857
 31
0.0
  0
LINE
  5
BBB6
  8
0
 10
4712.2150963091298763
 20
334.1249001387259909
 30
0.0
 11
4716.4485585036582052
 21
334.1248997172496047
 31
0.0
  0
ARC
  5
BBB7
  8
0
 10
4716.4845813226247628
 20
334.0549295081082732
 30
0.0
 40
0.0699705881849908
 50
359.13413443658402
 51
76.7036512864439857
  0
LINE
  5
BBB8
  8
0
 10
4716.5545439210636687
 20
334.0538721384863265
 30
0.0
 11
4716.5545124977643354
 21
331.6623383483861858
 31
0.0
  0
ARC
  5
BBB9
  8
0
 10
4716.4845911171269108
 20
331.6612938533143051
 30
0.0
 40
0.0699291816069565
 50
283.2760016292295973
 51
0.8558284741055247
  0
LINE
  5
BBBA
  8
0
 10
4716.4485353560166914
 20
331.5913649589198826
 30
0.0
 11
4712.215096069199717
 21
331.5913575012629053
 31
0.0
  0
LINE
  5
BBBB
  8
0
 10
4712.1620092088633101
 20
331.591357407744681
 30
0.0
 11
4711.9797924455642715
 21
331.5913570867504063
 31
0.0
  0
ARC
  5
BBBC
  8
0
 10
4716.6382220132263683
 20
334.0549230064041808
 30
0.0
 40
0.0699775787764331
 50
89.8713110402284769
 51
112.9862227935724945
  0
LINE
  5
BBBD
  8
0
 10
4716.638379185957092
 20
334.1249004086719765
 30
0.0
 11
4723.0316820707639636
 21
334.1248997721652927
 31
0.0
  0
LINE
  5
BBBE
  8
0
 10
4723.0316820707639636
 20
331.5913639872683234
 30
0.0
 11
4716.638439378163639
 21
331.5913527248861783
 31
0.0
  0
ARC
  5
BBBF
  8
0
 10
4716.6382143287837607
 20
331.6612912715598895
 30
0.0
 40
0.0699389087564662
 50
246.986601739257793
 51
270.1843666436164995
  0
LINE
  5
BBC0
  8
0
 10
4726.1333987916050319
 20
334.1249001736842956
 30
0.0
 11
4726.8639344219373015
 21
334.1249001009534254
 31
0.0
  0
LINE
  5
BBC1
  8
0
 10
4726.8639042383865672
 20
331.5913581695684229
 30
0.0
 11
4726.1333990376897418
 21
331.5913568827052131
 31
0.0
  0
LINE
  5
BBC2
  8
0
 10
4720.1356171099478161
 20
331.0574127250329752
 30
0.0
 11
4720.1356154938903273
 21
331.1829511026214732
 31
0.0
  0
LINE
  5
BBC3
  8
0
 10
4720.1356141825090162
 20
331.2848215805847758
 30
0.0
 11
4720.1356113376641588
 21
331.5058142897862012
 31
0.0
  0
ARC
  5
BBC4
  8
0
 10
4720.2055809071252952
 20
331.5068730064043052
 30
0.0
 40
0.0699775787764331
 50
89.8713110402284769
 51
180.8668820694859107
  0
LINE
  5
BBC5
  8
0
 10
4720.2057380798569284
 20
331.5768504086718735
 30
0.0
 11
4723.0316820707639636
 21
331.5768501273255993
 31
0.0
  0
LINE
  5
BBC6
  8
0
 10
4723.1333136075845687
 20
331.5768501172074139
 30
0.0
 11
4726.0317709271766944
 21
331.576849828641798
 31
0.0
  0
LINE
  5
BBC7
  8
0
 10
4726.1333990390985491
 20
331.5768498185240105
 30
0.0
 11
4726.8639040655407371
 21
331.5768497457959825
 31
0.0
  0
LINE
  5
BBC8
  8
0
 10
4726.8638738820709477
 20
329.0433144537998942
 30
0.0
 11
4726.1334572394252973
 21
329.0433131670927196
 31
0.0
  0
LINE
  5
BBC9
  8
0
 10
4726.0317842239701349
 20
329.0433129879847911
 30
0.0
 11
4724.4644713663583389
 21
329.0433102269951746
 31
0.0
  0
LINE
  5
BBCA
  8
0
 10
4724.4114021275418054
 20
329.0433101335082142
 30
0.0
 11
4724.2295451877644155
 21
329.0433098131475731
 31
0.0
  0
LINE
  5
BBCB
  8
0
 10
4713.0008993221490528
 20
331.0574127250329752
 30
0.0
 11
4713.0008977095967566
 21
331.1826786982223894
 31
0.0
  0
LINE
  5
BBCC
  8
0
 10
4713.0008963947093434
 20
331.2848215801212746
 30
0.0
 11
4713.0008935498635765
 21
331.5058142897862012
 31
0.0
  0
ARC
  5
BBCD
  8
0
 10
4713.0708631193247129
 20
331.5068730064043052
 30
0.0
 40
0.0699775787764331
 50
89.8713110402284769
 51
180.8668820694859107
  0
LINE
  5
BBCE
  8
0
 10
4713.0710202920581651
 20
331.5768504086718735
 30
0.0
 11
4716.4485352234023594
 21
331.5768500724122987
 31
0.0
  0
LINE
  5
BBCF
  8
0
 10
4716.5006496465121018
 20
331.5768500672239156
 30
0.0
 11
4716.5587710414401954
 21
331.5768500614374261
 31
0.0
  0
LINE
  5
BBD0
  8
0
 10
4716.6108717822044127
 20
331.5768500562502936
 30
0.0
 11
4720.0517088242631871
 21
331.576849713686272
 31
0.0
  0
ARC
  5
BBD1
  8
0
 10
4720.0519402164236453
 20
331.5068795081082271
 30
0.0
 40
0.0699705881849908
 50
359.13413443658402
 51
90.1894770176523792
  0
LINE
  5
BBD2
  8
0
 10
4720.1219028148643702
 20
331.5058221384862236
 30
0.0
 11
4720.1218999110524237
 21
331.2848215805839232
 31
0.0
  0
LINE
  5
BBD3
  8
0
 10
4720.1218985725281527
 20
331.1829505789077075
 30
0.0
 11
4720.1218969230367293
 21
331.0574127250329752
 31
0.0
  0
LINE
  5
BBD4
  8
0
 10
4705.8661567101498804
 20
331.0574127250329752
 30
0.0
 11
4705.8661551011045958
 21
331.1824062928756121
 31
0.0
  0
LINE
  5
BBD5
  8
0
 10
4705.8661537827110806
 20
331.2848215796577165
 30
0.0
 11
4705.8661525264169541
 21
331.3824127250330775
 31
0.0
  0
LINE
  5
BBD6
  8
0
 10
4711.9797924455642715
 20
331.5768511095077997
 30
0.0
 11
4712.16200927324644
 21
331.5768510913666773
 31
0.0
  0
LINE
  5
BBD7
  8
0
 10
4712.21509606782638
 20
331.5768510860813763
 30
0.0
 11
4712.9169662122485533
 21
331.5768510162043867
 31
0.0
  0
ARC
  5
BBD8
  8
0
 10
4712.917197604409921
 20
331.5068808106263987
 30
0.0
 40
0.0699705881849908
 50
359.13413443658402
 51
90.1894770176523792
  0
LINE
  5
BBD9
  8
0
 10
4712.9871602028497364
 20
331.5058234410045088
 30
0.0
 11
4712.9871572990196
 21
331.2848215801204219
 31
0.0
  0
LINE
  5
BBDA
  8
0
 10
4712.9871559569173769
 20
331.1826781735605891
 30
0.0
 11
4712.9871543110039056
 21
331.0574127250329752
 31
0.0
  0
LINE
  5
BBDB
  8
0
 10
4724.2295451877644155
 20
329.0288003058262802
 30
0.0
 11
4724.4114021276045605
 21
329.0288002877210261
 31
0.0
  0
LINE
  5
BBDC
  8
0
 10
4724.4644713671341378
 20
329.0288002824374871
 30
0.0
 11
4726.0317843001394067
 21
329.0288001263983233
 31
0.0
  0
LINE
  5
BBDD
  8
0
 10
4726.1334572842743
 20
329.0288001162759883
 30
0.0
 11
4726.8638737091514486
 21
329.0288000435569984
 31
0.0
  0
LINE
  5
BBDE
  8
0
 10
4726.8638435256034427
 20
326.4952581121050912
 30
0.0
 11
4726.1334651136039611
 21
326.4952568254653897
 31
0.0
  0
LINE
  5
BBDF
  8
0
 10
4726.0317975969683175
 20
326.4952566463671246
 30
0.0
 11
4724.4930467955828135
 21
326.495253935692574
 31
0.0
  0
LINE
  5
BBE0
  8
0
 10
4724.3898837790839025
 20
326.4952537539600144
 30
0.0
 11
4724.2295451877644155
 21
326.4952534715063734
 31
0.0
  0
LINE
  5
BBE1
  8
0
 10
4720.1356421238642724
 20
324.0181864393862838
 30
0.0
 11
4720.1356251545048508
 21
325.3363970132946861
 31
0.0
  0
LINE
  5
BBE2
  8
0
 10
4720.1356244726875957
 20
325.3893617776819838
 30
0.0
 11
4720.1356223093644076
 21
325.5574127250329752
 31
0.0
  0
LINE
  5
BBE3
  8
0
 10
4724.2295451877644155
 20
326.4807500080685259
 30
0.0
 11
4724.3898739820360788
 21
326.4807499921063823
 31
0.0
  0
LINE
  5
BBE4
  8
0
 10
4724.4930467956100983
 20
326.4807499818347196
 30
0.0
 11
4726.031797673103938
 21
326.4807498286393184
 31
0.0
  0
LINE
  5
BBE5
  8
0
 10
4726.1334651584356834
 20
326.4807498185173245
 30
0.0
 11
4726.8638433527567031
 21
326.4807497458020862
 31
0.0
  0
LINE
  5
BBE6
  8
0
 10
4726.8638131692869138
 20
323.9472144536928795
 30
0.0
 11
4726.1334729877453356
 21
323.9472131671204238
 31
0.0
  0
LINE
  5
BBE7
  8
0
 10
4726.0318109698991975
 20
323.9472129880318789
 30
0.0
 11
4720.2057982720643849
 21
323.9472027248862105
 31
0.0
  0
ARC
  5
BBE8
  8
0
 10
4720.2055732226835971
 20
324.0171412715599217
 30
0.0
 40
0.0699389087564662
 50
179.143739364404496
 51
270.1843666436164995
  0
LINE
  5
BBE9
  8
0
 10
4713.0009243360636901
 20
324.0181864393862838
 30
0.0
 11
4713.000907366705178
 21
325.3363970132946861
 31
0.0
  0
LINE
  5
BBEA
  8
0
 10
4713.0009066886295841
 20
325.3890710638601718
 30
0.0
 11
4713.0009045215647348
 21
325.5574127250329752
 31
0.0
  0
LINE
  5
BBEB
  8
0
 10
4720.121891616036919
 20
325.5574127250329752
 30
0.0
 11
4720.1218894079420352
 21
325.3893612180281139
 31
0.0
  0
LINE
  5
BBEC
  8
0
 10
4720.1218887120239742
 20
325.3363970132946861
 30
0.0
 11
4720.1218713915641274
 21
324.0181883483862748
 31
0.0
  0
ARC
  5
BBED
  8
0
 10
4720.0519500109257933
 20
324.0171438533142805
 30
0.0
 40
0.0699291816069565
 50
269.8186353982289916
 51
0.8558284741055247
  0
LINE
  5
BBEE
  8
0
 10
4720.0517286568037889
 20
323.9472150220460094
 30
0.0
 11
4716.6108018549448389
 21
323.9472089604847156
 31
0.0
  0
LINE
  5
BBEF
  8
0
 10
4716.5586991859563568
 20
323.9472088687002724
 30
0.0
 11
4716.500577574158342
 21
323.9472087663128832
 31
0.0
  0
LINE
  5
BBF0
  8
0
 10
4716.448465515179123
 20
323.9472086745118986
 30
0.0
 11
4713.0710804842638026
 21
323.9472027248862105
 31
0.0
  0
ARC
  5
BBF1
  8
0
 10
4713.0708554348839243
 20
324.0171412715599217
 30
0.0
 40
0.0699389087564662
 50
179.143739364404496
 51
270.1843666436164995
  0
LINE
  5
BBF2
  8
0
 10
4705.8662065483631523
 20
324.0181864393862838
 30
0.0
 11
4705.8661895790055496
 21
325.3363970132946861
 31
0.0
  0
LINE
  5
BBF3
  8
0
 10
4705.8661889046734359
 20
325.3887803500384734
 30
0.0
 11
4705.8661867338641969
 21
325.5574127250329752
 31
0.0
  0
LINE
  5
BBF4
  8
0
 10
4712.9871738283363811
 20
325.5574127250329752
 30
0.0
 11
4712.9871716164216195
 21
325.3890705042060176
 31
0.0
  0
LINE
  5
BBF5
  8
0
 10
4712.9871709243243458
 20
325.3363970132946861
 30
0.0
 11
4712.9871536038635895
 21
324.0181883483862748
 31
0.0
  0
ARC
  5
BBF6
  8
0
 10
4712.9172322232270744
 20
324.0171438533142805
 30
0.0
 40
0.0699291816069565
 50
269.8186353982289916
 51
0.8558284741055247
  0
LINE
  5
BBF7
  8
0
 10
4712.9170108691041605
 20
323.9472150220460094
 30
0.0
 11
4705.9363626965641743
 21
323.9472027248862105
 31
0.0
  0
ARC
  5
BBF8
  8
0
 10
4705.9361376471852054
 20
324.0171412715599217
 30
0.0
 40
0.0699389087564662
 50
179.143739364404496
 51
270.1843666436164995
  0
LINE
  5
BBF9
  8
0
 10
4709.4335654422638981
 20
321.4701364393861809
 30
0.0
 11
4709.4335346560637845
 21
323.8616642897862903
 31
0.0
  0
ARC
  5
BBFA
  8
0
 10
4709.5035042255249209
 20
323.8627230064042806
 30
0.0
 40
0.0699775787764331
 50
89.8713110402284769
 51
180.8668820694859107
  0
LINE
  5
BBFB
  8
0
 10
4709.5036613982583731
 20
323.9327004086720194
 30
0.0
 11
4716.4484653826184513
 21
323.9326997172589131
 31
0.0
  0
ARC
  5
BBFC
  8
0
 10
4716.4845813226247628
 20
323.8627295081083162
 30
0.0
 40
0.0699705881849908
 50
359.13413443658402
 51
76.7846479372599902
  0
LINE
  5
BBFD
  8
0
 10
4716.5545439210636687
 20
323.8616721384861989
 30
0.0
 11
4716.5545124977643354
 21
321.4701383483862855
 31
0.0
  0
ARC
  5
BBFE
  8
0
 10
4716.4845911171269108
 20
321.4690938533144049
 30
0.0
 40
0.0699291816069565
 50
283.1949634395087969
 51
0.8558284741055247
  0
LINE
  5
BBFF
  8
0
 10
4716.4484422349769375
 20
321.3991649587558754
 30
0.0
 11
4713.4625708950206899
 21
321.399159698823496
 31
0.0
  0
LINE
  5
BC00
  8
0
 10
4713.3165882378079914
 20
321.3991594416593784
 30
0.0
 11
4713.1451194576966373
 21
321.3991591395986802
 31
0.0
  0
LINE
  5
BC01
  8
0
 10
4712.9984184216182257
 20
321.3991588811692282
 30
0.0
 11
4709.5037215904640107
 21
321.3991527248862212
 31
0.0
  0
ARC
  5
BC02
  8
0
 10
4709.5034965410850418
 20
321.4690912715599893
 30
0.0
 40
0.0699389087564662
 50
179.143739364404496
 51
270.1843666436164995
  0
ARC
  5
BC03
  8
0
 10
4716.6382220035220598
 20
323.8627267677485975
 30
0.0
 40
0.0699775787764331
 50
89.8713110402284769
 51
113.069321420300497
  0
LINE
  5
BC04
  8
0
 10
4716.6383791762546025
 20
323.9327041700163932
 30
0.0
 11
4723.6190677084614435
 21
323.9327034750305074
 31
0.0
  0
ARC
  5
BC05
  8
0
 10
4723.6192991006209922
 20
323.8627332694525194
 30
0.0
 40
0.0699705881849908
 50
359.13413443658402
 51
90.1894770176523792
  0
LINE
  5
BC06
  8
0
 10
4723.6892616990608076
 20
323.8616758998305158
 30
0.0
 11
4723.6892302757623838
 21
321.4701421097306024
 31
0.0
  0
ARC
  5
BC07
  8
0
 10
4723.6193088951231402
 20
321.4690976146586081
 30
0.0
 40
0.0699291816069565
 50
269.8186353982289916
 51
0.8558284741055247
  0
LINE
  5
BC08
  8
0
 10
4723.6190875410011358
 20
321.3991687833903939
 30
0.0
 11
4716.6384393684611496
 21
321.3991564862304813
 31
0.0
  0
ARC
  5
BC09
  8
0
 10
4716.6382143190821807
 20
321.4690950329041925
 30
0.0
 40
0.0699389087564662
 50
246.9034410204320125
 51
270.1843666436164995
  0
LINE
  5
BC0A
  8
0
 10
4723.7029761937028525
 20
321.4701377419585242
 30
0.0
 11
4723.7029454075027388
 21
323.8616655923585199
 31
0.0
  0
ARC
  5
BC0B
  8
0
 10
4723.7729149769638752
 20
323.8627243089766239
 30
0.0
 40
0.0699775787764331
 50
89.8713110402284769
 51
180.8668820694859107
  0
LINE
  5
BC0C
  8
0
 10
4723.7730721496973274
 20
323.9327017112441922
 30
0.0
 11
4726.0318110460593743
 21
323.9327014863679892
 31
0.0
  0
LINE
  5
BC0D
  8
0
 10
4726.1334730325897908
 20
323.9327014762466774
 30
0.0
 11
4726.8638129963837855
 21
323.9327014035353045
 31
0.0
  0
LINE
  5
BC0E
  8
0
 10
4726.8637828128348701
 20
321.3991594719705063
 30
0.0
 11
4723.7731323419038745
 21
321.3991540274585077
 31
0.0
  0
ARC
  5
BC0F
  8
0
 10
4723.7729072925239961
 20
321.4690925741322189
 30
0.0
 40
0.0699389087564662
 50
179.143739364404496
 51
270.1843666436164995
  0
LINE
  5
BC10
  8
0
 10
4720.1356173002886862
 20
318.9220877420534066
 30
0.0
 11
4720.1355865140885726
 21
321.3136155924532886
 31
0.0
  0
ARC
  5
BC11
  8
0
 10
4720.205556083549709
 20
321.3146743090713926
 30
0.0
 40
0.0699775787764331
 50
89.8713110402284769
 51
180.8668820694859107
  0
LINE
  5
BC12
  8
0
 10
4720.2057132562831612
 20
321.3846517113390746
 30
0.0
 11
4726.8637826399881305
 21
321.3846510484727901
 31
0.0
  0
LINE
  5
BC13
  8
0
 10
4726.8637524565192507
 20
318.8511157562966787
 30
0.0
 11
4720.2057734484897082
 21
318.8511040275532764
 31
0.0
  0
ARC
  5
BC14
  8
0
 10
4720.2055483991098299
 20
318.9210425742269877
 30
0.0
 40
0.0699389087564662
 50
179.143739364404496
 51
270.1843666436164995
  0
LINE
  5
BC15
  8
0
 10
4705.8662065483631523
 20
318.9220864393861916
 30
0.0
 11
4705.8661757621639481
 21
321.3136142897861873
 31
0.0
  0
ARC
  5
BC16
  8
0
 10
4705.9361453316250845
 20
321.3146730064042913
 30
0.0
 40
0.0699775787764331
 50
89.8713110402284769
 51
180.8668820694859107
  0
LINE
  5
BC17
  8
0
 10
4705.9363025043567177
 20
321.3846504086719733
 30
0.0
 11
4712.9169910365635587
 21
321.3846497136862013
 31
0.0
  0
ARC
  5
BC18
  8
0
 10
4712.9172224287249264
 20
321.3146795081083269
 30
0.0
 40
0.0699705881849908
 50
46.9031307970992586
 51
90.1894770176523792
  0
LINE
  5
BC19
  8
0
 10
4712.9871840726764276
 20
321.2409788375970265
 30
0.0
 11
4712.9871536038635895
 21
318.9220883483862963
 31
0.0
  0
ARC
  5
BC1A
  8
0
 10
4712.9172322232270744
 20
318.9210438533144156
 30
0.0
 40
0.0699291816069565
 50
269.8186353982289916
 51
0.8558284741055247
  0
LINE
  5
BC1B
  8
0
 10
4712.9170108691041605
 20
318.851115022045974
 30
0.0
 11
4705.9363626965641743
 21
318.8511027248861751
 31
0.0
  0
ARC
  5
BC1C
  8
0
 10
4705.9361376471852054
 20
318.92104127156
 30
0.0
 40
0.0699389087564662
 50
179.143739364404496
 51
270.1843666436164995
  0
LINE
  5
BC1D
  8
0
 10
4713.0008959516053437
 20
318.9210290693725938
 30
0.0
 11
4713.0008659104332764
 21
321.2546818923494811
 31
0.0
  0
LINE
  5
BC1E
  8
0
 10
4713.1295774525588058
 20
321.3835930328256723
 30
0.0
 11
4713.3321675159086226
 21
321.3835930126560925
 31
0.0
  0
LINE
  5
BC1F
  8
0
 10
4713.4781335160250819
 20
321.3835929981240724
 30
0.0
 11
4716.4484420927001338
 21
321.3835927024049965
 31
0.0
  0
LINE
  5
BC20
  8
0
 10
4716.5005533573093999
 20
321.3835924247069897
 30
0.0
 11
4716.5586750419706732
 21
321.3835918773207254
 31
0.0
  0
LINE
  5
BC21
  8
0
 10
4716.6107783588640814
 20
321.3835926862432188
 30
0.0
 11
4720.0516804398039312
 21
321.3835923436727171
 31
0.0
  0
ARC
  5
BC22
  8
0
 10
4720.0519118319652989
 20
321.3136221380946722
 30
0.0
 40
0.0699705881849908
 50
359.13413443658402
 51
90.1894770176523792
  0
LINE
  5
BC23
  8
0
 10
4720.1218744304051143
 20
321.3125647684727255
 30
0.0
 11
4720.1218430071048715
 21
318.9210309783725847
 31
0.0
  0
ARC
  5
BC24
  8
0
 10
4720.0519216264674469
 20
318.9199864833008178
 30
0.0
 40
0.0699291816069565
 50
269.8186353982289916
 51
0.8558284741055247
  0
LINE
  5
BC25
  8
0
 10
4720.0517002723436235
 20
318.8500576520323762
 30
0.0
 11
4716.6107551384293401
 21
318.8500515904387953
 31
0.0
  0
LINE
  5
BC26
  8
0
 10
4716.5586511812471144
 20
318.8500514986520784
 30
0.0
 11
4716.5005294245629557
 21
318.8500513962645186
 31
0.0
  0
LINE
  5
BC27
  8
0
 10
4716.4484189449976839
 20
318.8500513044662057
 30
0.0
 11
4713.0710520998045467
 21
318.8500453548725773
 31
0.0
  0
ARC
  5
BC28
  8
0
 10
4713.0708270504246684
 20
318.9199839015461748
 30
0.0
 40
0.0699389087564662
 50
179.143739364404496
 51
270.1843666436164995
  0
LINE
  5
BC29
  8
0
 10
4709.4335654422638981
 20
316.374036439386316
 30
0.0
 11
4709.4335346560637845
 21
318.7655642897861981
 31
0.0
  0
ARC
  5
BC2A
  8
0
 10
4709.5035042255249209
 20
318.766623006404302
 30
0.0
 40
0.0699775787764331
 50
89.8713110402284769
 51
180.8668820694859107
  0
LINE
  5
BC2B
  8
0
 10
4709.5036613982583731
 20
318.836600408671984
 30
0.0
 11
4716.4484188220985743
 21
318.836599717263482
 31
0.0
  0
ARC
  5
BC2C
  8
0
 10
4716.4845813226247628
 20
318.7666295081082808
 30
0.0
 40
0.0699705881849908
 50
359.13413443658402
 51
76.8251361715005174
  0
LINE
  5
BC2D
  8
0
 10
4716.5545439210636687
 20
318.7655721384862773
 30
0.0
 11
4716.5545124977643354
 21
316.374038348386307
 31
0.0
  0
ARC
  5
BC2E
  8
0
 10
4716.4845911171269108
 20
316.3729938533144264
 30
0.0
 40
0.0699291816069565
 50
283.1544544308972036
 51
0.8558284741055247
  0
LINE
  5
BC2F
  8
0
 10
4716.4483956744570605
 20
316.303064958673815
 30
0.0
 11
4709.5037215904640107
 21
316.3030527248861858
 31
0.0
  0
ARC
  5
BC30
  8
0
 10
4709.5034965410850418
 20
316.3729912715600108
 30
0.0
 40
0.0699389087564662
 50
179.143739364404496
 51
270.1843666436164995
  0
ARC
  5
BC31
  8
0
 10
4716.6382220033947306
 20
318.7666267676349889
 30
0.0
 40
0.0699775787764331
 50
89.8713110402284769
 51
113.1108941993814057
  0
LINE
  5
BC32
  8
0
 10
4716.6383791761281827
 20
318.8366041699027278
 30
0.0
 11
4723.6190677083341143
 21
318.8366034749170126
 31
0.0
  0
ARC
  5
BC33
  8
0
 10
4723.619299100493663
 20
318.7666332693390245
 30
0.0
 40
0.0699705881849908
 50
359.13413443658402
 51
90.1894770176523792
  0
LINE
  5
BC34
  8
0
 10
4723.6892616989343878
 20
318.765575899717021
 30
0.0
 11
4723.6892302756341451
 21
316.3740421096169939
 31
0.0
  0
ARC
  5
BC35
  8
0
 10
4723.619308894995811
 20
316.3729976145451133
 30
0.0
 40
0.0699291816069565
 50
269.8186353982289916
 51
0.8558284741055247
  0
LINE
  5
BC36
  8
0
 10
4723.6190875408738066
 20
316.3030687832766716
 30
0.0
 11
4716.6384393683347298
 21
316.3030564861168727
 31
0.0
  0
ARC
  5
BC37
  8
0
 10
4716.6382143189548515
 20
316.3729950327906977
 30
0.0
 40
0.0699389087564662
 50
246.8618371394782969
 51
270.1843666436164995
  0
LINE
  5
BC38
  8
0
 10
4723.7029761933717964
 20
316.3740377419107972
 30
0.0
 11
4723.7029454071716827
 21
318.7655655923106792
 31
0.0
  0
ARC
  5
BC39
  8
0
 10
4723.7729149766337287
 20
318.7666243089287832
 30
0.0
 40
0.0699775787764331
 50
89.8713110402284769
 51
180.8668820694859107
  0
LINE
  5
BC3A
  8
0
 10
4723.7730721493662713
 20
318.836601711196522
 30
0.0
 11
4726.863752283600661
 21
318.8366014034936029
 31
0.0
  0
LINE
  5
BC3B
  8
0
 10
4726.8637221000508362
 20
316.3030594718158
 30
0.0
 11
4723.7731323415719089
 21
316.3030540274107807
 31
0.0
  0
ARC
  5
BC3C
  8
0
 10
4723.7729072921929401
 20
316.3729925740844919
 30
0.0
 40
0.0699389087564662
 50
179.143739364404496
 51
270.1843666436164995
  0
LINE
  5
BC3D
  8
0
 10
4720.1356142895911034
 20
314.059821579286222
 30
0.0
 11
4720.1355865135401473
 21
316.2175155923421244
 31
0.0
  0
ARC
  5
BC3E
  8
0
 10
4720.2055560830003742
 20
316.2185743089602283
 30
0.0
 40
0.0699775787764331
 50
89.8713110402284769
 51
180.8668820694859107
  0
LINE
  5
BC3F
  8
0
 10
4720.2057132557329169
 20
316.2885517112279103
 30
0.0
 11
4726.8637219272040966
 21
316.2885510483675944
 31
0.0
  0
LINE
  5
BC40
  8
0
 10
4713.0009213258981617
 20
314.059821579286222
 30
0.0
 11
4713.0008935498635765
 21
316.2175142897862088
 31
0.0
  0
ARC
  5
BC41
  8
0
 10
4713.0708631193247129
 20
316.2185730064043128
 30
0.0
 40
0.0699775787764331
 50
89.8713110402284769
 51
180.8668820694859107
  0
LINE
  5
BC42
  8
0
 10
4713.0710202920581651
 20
316.2885504086719948
 30
0.0
 11
4716.4483955418409096
 21
316.288550072426176
 31
0.0
  0
LINE
  5
BC43
  8
0
 10
4716.5005052276937931
 20
316.2885500672381909
 30
0.0
 11
4716.5586270571857312
 21
316.2885500614517014
 31
0.0
  0
LINE
  5
BC44
  8
0
 10
4716.6107316617299148
 20
316.2885500562642846
 30
0.0
 11
4720.0517088242631871
 21
316.2885497136862796
 31
0.0
  0
ARC
  5
BC45
  8
0
 10
4720.0519402164236453
 20
316.2185795081082915
 30
0.0
 40
0.0699705881849908
 50
359.13413443658402
 51
90.1894770176523792
  0
LINE
  5
BC46
  8
0
 10
4720.1219028148643702
 20
316.217522138486288
 30
0.0
 11
4720.1218744639900251
 21
314.059821579286222
 31
0.0
  0
LINE
  5
BC47
  8
0
 10
4705.8662035381994428
 20
314.059821579286222
 30
0.0
 11
4705.8661757621639481
 21
316.2175142897862088
 31
0.0
  0
ARC
  5
BC48
  8
0
 10
4705.9361453316250845
 20
316.2185730064043128
 30
0.0
 40
0.0699775787764331
 50
89.8713110402284769
 51
180.8668820694859107
  0
LINE
  5
BC49
  8
0
 10
4705.9363025043567177
 20
316.2885504086719948
 30
0.0
 11
4712.9169910365635587
 21
316.2885497136862796
 31
0.0
  0
ARC
  5
BC4A
  8
0
 10
4712.9172224287249264
 20
316.2185795081082915
 30
0.0
 40
0.0699705881849908
 50
359.13413443658402
 51
90.1894770176523792
  0
LINE
  5
BC4B
  8
0
 10
4712.9871850271638323
 20
316.217522138486288
 30
0.0
 11
4712.9871566762903967
 21
314.059821579286222
 31
0.0
  0
ARC
  5
BC4C
  8
0
 10
4700.9045452037416908
 20
313.559821571855025
 30
0.0
 40
0.500000016374742
 50
90.0108368521878361
 51
176.7385365400724879
  0
LINE
  5
BC4D
  8
0
 10
4700.9044506343625471
 20
314.059821579286222
 30
0.0
 11
4732.0295451877636879
 21
314.059821579286222
 31
0.0
  0
ARC
  5
BC4E
  8
0
 10
4700.3753946572405766
 20
313.5898222514794043
 30
0.0
 40
0.0300006722127708
 50
270.004455193182423
 51
357.0300345248159033
  0
LINE
  5
BC4F
  8
0
 10
4700.3753969900271841
 20
313.5598215793572763
 30
0.0
 11
4700.0595451877643427
 21
313.5598215793282861
 31
0.0
  0
LINE
  5
BC50
  8
0
 10
4702.2980254285639603
 20
362.2439248886283849
 30
0.0
 11
4702.2979990144640396
 21
364.6254817016862262
 31
0.0
  0
ARC
  5
BC51
  8
0
 10
4702.3729769176543414
 20
364.6265270131239049
 30
0.0
 40
0.0749851894896967
 50
89.8423838846955221
 51
180.7987427121757946
  0
LINE
  5
BC52
  8
0
 10
4702.3731831956629321
 20
364.7015119188861831
 30
0.0
 11
4709.3496382293151328
 21
364.7014107669585883
 31
0.0
  0
ARC
  5
BC53
  8
0
 10
4709.3500135170370413
 20
364.6315905972857081
 30
0.0
 40
0.0698211782628243
 50
359.1012283022021165
 51
90.3079653869218362
  0
LINE
  5
BC54
  8
0
 10
4709.4198261051296868
 20
364.630495390520025
 30
0.0
 11
4709.4197946802069055
 21
362.2389029538255727
 31
0.0
  0
ARC
  5
BC55
  8
0
 10
4709.3498701536973385
 20
362.2378943244019069
 30
0.0
 40
0.0699318006415093
 50
269.8212492376430873
 51
0.8264081913678596
  0
LINE
  5
BC56
  8
0
 10
4709.3496519815644206
 20
362.1679628640861779
 30
0.0
 11
4702.3731727634640265
 21
362.1679397579861757
 31
0.0
  0
ARC
  5
BC57
  8
0
 10
4702.3729666276130956
 20
362.2428878485217183
 30
0.0
 40
0.0749483740110528
 50
179.2071887051679937
 51
270.1575848626621905
  0
LINE
  5
BC58
  8
0
 10
4702.298025424923253
 20
357.1478262017478187
 30
0.0
 11
4702.2979990108233324
 21
359.5293830148056031
 31
0.0
  0
ARC
  5
BC59
  8
0
 10
4702.3729769140136341
 20
359.530428326243225
 30
0.0
 40
0.0749851894896967
 50
89.8423838846955221
 51
180.7987427121757946
  0
LINE
  5
BC5A
  8
0
 10
4702.3731831920231343
 20
359.6054132320055032
 30
0.0
 11
4709.3496382256744255
 21
359.6053120800779084
 31
0.0
  0
ARC
  5
BC5B
  8
0
 10
4709.3500135133972435
 20
359.535491910405085
 30
0.0
 40
0.0698211782628243
 50
359.1012283022021165
 51
90.3079653869218362
  0
LINE
  5
BC5C
  8
0
 10
4709.419826101489889
 20
359.5343967036392883
 30
0.0
 11
4709.4197946765652887
 21
357.1428042669447791
 31
0.0
  0
ARC
  5
BC5D
  8
0
 10
4709.3498701500548123
 20
357.1417956375211133
 30
0.0
 40
0.0699318006415093
 50
269.8212492376430873
 51
0.8264081913678596
  0
LINE
  5
BC5E
  8
0
 10
4709.3496519779228038
 20
357.0718641772056117
 30
0.0
 11
4702.3731727598233192
 21
357.0718410711054958
 31
0.0
  0
ARC
  5
BC5F
  8
0
 10
4702.3729666239705693
 20
357.1467891616410952
 30
0.0
 40
0.0749483740110528
 50
179.2071887051679937
 51
270.1575848626621905
  0
LINE
  5
BC60
  8
0
 10
4702.2980265394344315
 20
354.1324127250330775
 30
0.0
 11
4702.2980248959993332
 21
354.2805886329225018
 31
0.0
  0
LINE
  5
BC61
  8
0
 10
4702.2980243158017402
 20
354.3329005689374753
 30
0.0
 11
4702.2980232024629004
 21
354.4332817573862258
 31
0.0
  0
ARC
  5
BC62
  8
0
 10
4702.3730011056541116
 20
354.4343270688239045
 30
0.0
 40
0.0749851894896967
 50
89.8423838846955221
 51
180.7987427121757946
  0
LINE
  5
BC63
  8
0
 10
4702.3732073836636118
 20
354.5093119745862964
 30
0.0
 11
4709.349662417314903
 21
354.5092108226585879
 31
0.0
  0
ARC
  5
BC64
  8
0
 10
4709.3500377050368115
 20
354.4393906529857077
 30
0.0
 40
0.0698211782628243
 50
359.1012283022021165
 51
90.3079653869218362
  0
LINE
  5
BC65
  8
0
 10
4709.4198502931303665
 20
354.4382954462200246
 30
0.0
 11
4709.4198489068712661
 21
354.3327942191411921
 31
0.0
  0
LINE
  5
BC66
  8
0
 10
4709.419848210375676
 20
354.2797875078999255
 30
0.0
 11
4709.4198462739086608
 21
354.1324127250330775
 31
0.0
  0
LINE
  5
BC67
  8
0
 10
4702.2980496165637305
 20
346.9556249443284059
 30
0.0
 11
4702.2980335438851398
 21
348.4047751421900898
 31
0.0
  0
LINE
  5
BC68
  8
0
 10
4702.2980324065320019
 20
348.5073215792862129
 30
0.0
 11
4702.2980310191323952
 21
348.6324127250330775
 31
0.0
  0
LINE
  5
BC69
  8
0
 10
4709.4198409667633314
 20
348.6324127250330775
 30
0.0
 11
4709.4198393230972215
 21
348.5073215792862129
 31
0.0
  0
LINE
  5
BC6A
  8
0
 10
4709.4198379792169362
 20
348.4050455788374165
 30
0.0
 11
4709.4198188682057662
 21
346.9506030095255937
 31
0.0
  0
ARC
  5
BC6B
  8
0
 10
4709.3498943416980183
 20
346.949594380101928
 30
0.0
 40
0.0699318006415093
 50
269.8212492376430873
 51
0.8264081913678596
  0
LINE
  5
BC6C
  8
0
 10
4709.3496761695641908
 20
346.8796629197861989
 30
0.0
 11
4702.3731969514647062
 21
346.8796398136863104
 31
0.0
  0
ARC
  5
BC6D
  8
0
 10
4702.3729908156119564
 20
346.9545879042216825
 30
0.0
 40
0.0749483740110528
 50
179.2071887051679937
 51
270.1575848626621905
  0
LINE
  5
BC6E
  8
0
 10
4702.2980496165637305
 20
341.8595249443284274
 30
0.0
 11
4702.2980232024629004
 21
344.2410817573863255
 31
0.0
  0
ARC
  5
BC6F
  8
0
 10
4702.3730011056541116
 20
344.2421270688238906
 30
0.0
 40
0.0749851894896967
 50
89.8423838846955221
 51
180.7987427121757946
  0
LINE
  5
BC70
  8
0
 10
4702.3732073836636118
 20
344.3171119745862825
 30
0.0
 11
4709.349662417314903
 21
344.3170108226585171
 31
0.0
  0
ARC
  5
BC71
  8
0
 10
4709.3500377050368115
 20
344.2471906529858074
 30
0.0
 40
0.0698211782628243
 50
359.1012283022021165
 51
90.3079653869218362
  0
LINE
  5
BC72
  8
0
 10
4709.4198502931303665
 20
344.2460954462200107
 30
0.0
 11
4709.4198188682057662
 21
341.8545030095256152
 31
0.0
  0
ARC
  5
BC73
  8
0
 10
4709.3498943416980183
 20
341.8534943801017789
 30
0.0
 40
0.0699318006415093
 50
269.8212492376430873
 51
0.8264081913678596
  0
LINE
  5
BC74
  8
0
 10
4709.3496761695641908
 20
341.7835629197862772
 30
0.0
 11
4702.3731969514647062
 21
341.783539813686275
 31
0.0
  0
ARC
  5
BC75
  8
0
 10
4702.3729908156119564
 20
341.8584879042218176
 30
0.0
 40
0.0749483740110528
 50
179.2071887051679937
 51
270.1575848626621905
  0
LINE
  5
BC76
  8
0
 10
4702.2980482968569049
 20
336.8824127250330775
 30
0.0
 11
4702.2980463472258634
 21
337.0581961114875753
 31
0.0
  0
LINE
  5
BC77
  8
0
 10
4702.2980457782687154
 20
337.1094945393850253
 30
0.0
 11
4702.2980232024629004
 21
339.1449817573861765
 31
0.0
  0
ARC
  5
BC78
  8
0
 10
4702.3730011056541116
 20
339.1460270688237983
 30
0.0
 40
0.0749851894896967
 50
89.8423838846955221
 51
180.7987427121757946
  0
LINE
  5
BC79
  8
0
 10
4702.3732073836636118
 20
339.2210119745861903
 30
0.0
 11
4709.349662417314903
 21
339.2209108226584817
 31
0.0
  0
ARC
  5
BC7A
  8
0
 10
4709.3500377050368115
 20
339.1510906529857721
 30
0.0
 40
0.0698211782628243
 50
359.1012283022021165
 51
90.3079653869218362
  0
LINE
  5
BC7B
  8
0
 10
4709.4198502931303665
 20
339.1499954462199753
 30
0.0
 11
4709.4198234904133642
 21
337.1101758586361825
 31
0.0
  0
LINE
  5
BC7C
  8
0
 10
4709.4198227961060184
 20
337.0573356228903776
 30
0.0
 11
4709.4198204976637498
 21
336.8824127250330775
 31
0.0
  0
LINE
  5
BC7D
  8
0
 10
4702.2980496165637305
 20
321.4751249443285133
 30
0.0
 11
4702.2980232024629004
 21
323.856681757386184
 31
0.0
  0
ARC
  5
BC7E
  8
0
 10
4702.3730011056541116
 20
323.8577270688239196
 30
0.0
 40
0.0749851894896967
 50
89.8423838846955221
 51
180.7987427121757946
  0
LINE
  5
BC7F
  8
0
 10
4702.3732073836636118
 20
323.9327119745861978
 30
0.0
 11
4709.349662417314903
 21
323.932610822658603
 31
0.0
  0
ARC
  5
BC80
  8
0
 10
4709.3500377050368115
 20
323.8627906529857228
 30
0.0
 40
0.0698211782628243
 50
359.1012283022021165
 51
90.3079653869218362
  0
LINE
  5
BC81
  8
0
 10
4709.4198502931303665
 20
323.8616954462199828
 30
0.0
 11
4709.4198188682057662
 21
321.4701030095255874
 31
0.0
  0
ARC
  5
BC82
  8
0
 10
4709.3498943416980183
 20
321.4690943801019216
 30
0.0
 40
0.0699318006415093
 50
269.8212492376430873
 51
0.8264081913678596
  0
LINE
  5
BC83
  8
0
 10
4709.3496761695641908
 20
321.3991629197863062
 30
0.0
 11
4702.3731969514647062
 21
321.399139813686304
 31
0.0
  0
ARC
  5
BC84
  8
0
 10
4702.3729908156119564
 20
321.4740879042217898
 30
0.0
 40
0.0749483740110528
 50
179.2071887051679937
 51
270.1575848626621905
  0
LINE
  5
BC85
  8
0
 10
4702.2980254252352097
 20
316.3790262016607926
 30
0.0
 11
4702.297999011135289
 21
318.7605830147186907
 31
0.0
  0
ARC
  5
BC86
  8
0
 10
4702.3729769143246813
 20
318.7616283261561989
 30
0.0
 40
0.0749851894896967
 50
89.8423838846955221
 51
180.7987427121757946
  0
LINE
  5
BC87
  8
0
 10
4702.3731831923341815
 20
318.8366132319185908
 30
0.0
 11
4709.3496382259863822
 21
318.8365120799908823
 31
0.0
  0
ARC
  5
BC88
  8
0
 10
4709.3500135137082907
 20
318.7666919103181726
 30
0.0
 40
0.0698211782628243
 50
359.1012283022021165
 51
90.3079653869218362
  0
LINE
  5
BC89
  8
0
 10
4709.4198261018000267
 20
318.7655967035523759
 30
0.0
 11
4709.4197946768772454
 21
316.3740042668579235
 31
0.0
  0
ARC
  5
BC8A
  8
0
 10
4709.3498701503676784
 20
316.3729956374342009
 30
0.0
 40
0.0699318006415093
 50
269.8212492376430873
 51
0.8264081913678596
  0
LINE
  5
BC8B
  8
0
 10
4709.3496519782347605
 20
316.3030641771186993
 30
0.0
 11
4702.3731727601352759
 21
316.3030410710185834
 31
0.0
  0
ARC
  5
BC8C
  8
0
 10
4702.3729666242834355
 20
316.3779891615541828
 30
0.0
 40
0.0749483740110528
 50
179.2071887051679937
 51
270.1575848626621905
  0
LINE
  5
BC8D
  8
0
 10
4700.2958519117910328
 20
359.6908973118958102
 30
0.0
 11
4700.2958271019933818
 21
362.0823966896144839
 31
0.0
  0
ARC
  5
BC8E
  8
0
 10
4700.3658135601381218
 20
362.0834569106262961
 30
0.0
 40
0.0699944882993229
 50
89.8322680948244283
 51
180.8679042300443029
  0
LINE
  5
BC8F
  8
0
 10
4700.3660184668906368
 20
362.153451098995788
 30
0.0
 11
4705.7823039020431679
 21
362.1533594636683233
 31
0.0
  0
ARC
  5
BC90
  8
0
 10
4705.7826791897650764
 20
362.0835392939953863
 30
0.0
 40
0.0698211782628243
 50
359.1012283022021165
 51
90.3079653869218362
  0
LINE
  5
BC91
  8
0
 10
4705.8524917778568124
 20
362.0824440872297032
 30
0.0
 11
4705.8524603529340311
 21
359.6908516505353077
 31
0.0
  0
ARC
  5
BC92
  8
0
 10
4705.7825358264235547
 20
359.6898430211115283
 30
0.0
 40
0.0699318006415093
 50
269.8212492376430873
 51
0.8264081913678596
  0
LINE
  5
BC93
  8
0
 10
4705.7823176542915462
 20
359.6199115607959129
 30
0.0
 11
4700.3660117628905937
 21
359.6198977379958137
 31
0.0
  0
ARC
  5
BC94
  8
0
 10
4700.3657981272062898
 20
359.6898514458779914
 30
0.0
 40
0.0699540340986673
 50
179.1433526005693011
 51
270.1749783590756806
  0
LINE
  5
BC95
  8
0
 10
4700.2958519116909883
 20
354.5947973118957748
 30
0.0
 11
4700.2958271018933374
 21
356.9862966896145053
 31
0.0
  0
ARC
  5
BC96
  8
0
 10
4700.3658135600389869
 20
356.9873569106263176
 30
0.0
 40
0.0699944882993229
 50
89.8322680948244283
 51
180.8679042300443029
  0
LINE
  5
BC97
  8
0
 10
4700.3660184667905924
 20
357.0573510989958095
 30
0.0
 11
4705.782303901942214
 21
357.0572594636681742
 31
0.0
  0
ARC
  5
BC98
  8
0
 10
4705.782679189665032
 20
356.9874392939954078
 30
0.0
 40
0.0698211782628243
 50
359.1012283022021165
 51
90.3079653869218362
  0
LINE
  5
BC99
  8
0
 10
4705.852491777756768
 20
356.9863440872297247
 30
0.0
 11
4705.8524603528339867
 21
354.5947516505352723
 31
0.0
  0
ARC
  5
BC9A
  8
0
 10
4705.7825358263226008
 20
354.5937430211114929
 30
0.0
 40
0.0699318006415093
 50
269.8212492376430873
 51
0.8264081913678596
  0
LINE
  5
BC9B
  8
0
 10
4705.7823176541905923
 20
354.5238115607958775
 30
0.0
 11
4700.3660117627905493
 21
354.5237977379957783
 31
0.0
  0
ARC
  5
BC9C
  8
0
 10
4700.3657981271080644
 20
354.5937514458781266
 30
0.0
 40
0.0699540340986673
 50
179.1433526005693011
 51
270.1749783590756806
  0
LINE
  5
BC9D
  8
0
 10
4700.2958519117910328
 20
344.4025973118958746
 30
0.0
 11
4700.2958271019933818
 21
346.7940966896144914
 31
0.0
  0
ARC
  5
BC9E
  8
0
 10
4700.3658135601381218
 20
346.7951569106264174
 30
0.0
 40
0.0699944882993229
 50
89.8322680948244283
 51
180.8679042300443029
  0
LINE
  5
BC9F
  8
0
 10
4700.3660184668906368
 20
346.8651510989959093
 30
0.0
 11
4705.7823039020431679
 21
346.8650594636682172
 31
0.0
  0
ARC
  5
BCA0
  8
0
 10
4705.7826791897650764
 20
346.7952392939955075
 30
0.0
 40
0.0698211782628243
 50
359.1012283022021165
 51
90.3079653869218362
  0
LINE
  5
BCA1
  8
0
 10
4705.8524917778568124
 20
346.7941440872297107
 30
0.0
 11
4705.8524603529340311
 21
344.4025516505352016
 31
0.0
  0
ARC
  5
BCA2
  8
0
 10
4705.7825358264235547
 20
344.401543021111479
 30
0.0
 40
0.0699318006415093
 50
269.8212492376430873
 51
0.8264081913678596
  0
LINE
  5
BCA3
  8
0
 10
4705.7823176542915462
 20
344.3316115607959773
 30
0.0
 11
4700.3660117628905937
 21
344.3315977379958213
 31
0.0
  0
ARC
  5
BCA4
  8
0
 10
4700.3657981272062898
 20
344.401551445877999
 30
0.0
 40
0.0699540340986673
 50
179.1433526005693011
 51
270.1749783590756806
  0
LINE
  5
BCA5
  8
0
 10
4700.2958273452004505
 20
339.3064986152975848
 30
0.0
 11
4700.2958025354027995
 21
341.6979979930164859
 31
0.0
  0
ARC
  5
BCA6
  8
0
 10
4700.3657889935466301
 20
341.6990582140281276
 30
0.0
 40
0.0699944882993229
 50
89.8322680948244283
 51
180.8679042300443029
  0
LINE
  5
BCA7
  8
0
 10
4700.3659939003000545
 20
341.7690524023976195
 30
0.0
 11
4705.7822793354498572
 21
341.768960767070098
 31
0.0
  0
ARC
  5
BCA8
  8
0
 10
4705.7826546231726752
 20
341.6991405973972178
 30
0.0
 40
0.0698211782628243
 50
359.1012283022021165
 51
90.3079653869218362
  0
LINE
  5
BCA9
  8
0
 10
4705.8524672112662302
 20
341.6980453906314779
 30
0.0
 11
4705.8524357863434489
 21
339.3064529539370824
 31
0.0
  0
ARC
  5
BCAA
  8
0
 10
4705.7825112598320629
 20
339.3054443245134166
 30
0.0
 40
0.0699318006415093
 50
269.8212492376430873
 51
0.8264081913678596
  0
LINE
  5
BCAB
  8
0
 10
4705.7822930877000545
 20
339.2355128641976876
 30
0.0
 11
4700.3659871963000114
 21
339.2354990413975884
 31
0.0
  0
ARC
  5
BCAC
  8
0
 10
4700.3657735606157075
 20
339.3054527492798798
 30
0.0
 40
0.0699540340986673
 50
179.1433526005693011
 51
270.1749783590756806
  0
LINE
  5
BCAD
  8
0
 10
4700.2958071870725689
 20
331.0574127250329752
 30
0.0
 11
4700.2958058925751175
 21
331.1821936162604061
 31
0.0
  0
LINE
  5
BCAE
  8
0
 10
4700.2958048278969727
 20
331.2848215792956807
 30
0.0
 11
4700.2958038154702081
 21
331.3824127250330775
 31
0.0
  0
LINE
  5
BCAF
  8
0
 10
4705.8524655894398165
 20
331.3824127250330775
 30
0.0
 11
4705.8524643071177707
 21
331.2848215796566933
 31
0.0
  0
LINE
  5
BCB0
  8
0
 10
4705.8524629614003061
 20
331.1824057701081188
 30
0.0
 11
4705.8524613190229502
 21
331.0574127250329752
 31
0.0
  0
LINE
  5
BCB1
  8
0
 10
4700.2958519117910328
 20
324.0181973118957899
 30
0.0
 11
4700.2958382365759462
 21
325.3363970132946861
 31
0.0
  0
LINE
  5
BCB2
  8
0
 10
4700.2958376954984487
 20
325.3885533784696236
 30
0.0
 11
4700.2958359437234321
 21
325.5574127250329752
 31
0.0
  0
LINE
  5
BCB3
  8
0
 10
4705.8524805784372802
 20
325.5574127250329752
 30
0.0
 11
4705.8524783626426142
 21
325.3887797913836835
 31
0.0
  0
LINE
  5
BCB4
  8
0
 10
4705.8524776743461189
 20
325.3363970132946861
 30
0.0
 11
4705.8524603529340311
 21
324.0181516505352874
 31
0.0
  0
ARC
  5
BCB5
  8
0
 10
4705.7825358264235547
 20
324.0171430211116217
 30
0.0
 40
0.0699318006415093
 50
269.8212492376430873
 51
0.8264081913678596
  0
LINE
  5
BCB6
  8
0
 10
4705.7823176542915462
 20
323.9472115607960063
 30
0.0
 11
4700.3660117628905937
 21
323.9471977379957934
 31
0.0
  0
ARC
  5
BCB7
  8
0
 10
4700.3657981272062898
 20
324.0171514458780848
 30
0.0
 40
0.0699540340986673
 50
179.1433526005693011
 51
270.1749783590756806
  0
LINE
  5
BCB8
  8
0
 10
4700.2958519116909883
 20
318.9220973118958113
 30
0.0
 11
4700.2958271018933374
 21
321.3135966896145987
 31
0.0
  0
ARC
  5
BCB9
  8
0
 10
4700.3658135600389869
 20
321.3146569106262973
 30
0.0
 40
0.0699944882993229
 50
89.8322680948244283
 51
180.8679042300443029
  0
LINE
  5
BCBA
  8
0
 10
4700.3660184667905924
 20
321.3846510989956755
 30
0.0
 11
4705.782303901942214
 21
321.3845594636682108
 31
0.0
  0
ARC
  5
BCBB
  8
0
 10
4705.782679189665032
 20
321.3147392939952738
 30
0.0
 40
0.0698211782628243
 50
359.1012283022021165
 51
90.3079653869218362
  0
LINE
  5
BCBC
  8
0
 10
4705.852491777756768
 20
321.3136440872295907
 30
0.0
 11
4705.8524603528339867
 21
318.9220516505353089
 31
0.0
  0
ARC
  5
BCBD
  8
0
 10
4705.7825358263226008
 20
318.9210430211114726
 30
0.0
 40
0.0699318006415093
 50
269.8212492376430873
 51
0.8264081913678596
  0
LINE
  5
BCBE
  8
0
 10
4705.7823176541905923
 20
318.8511115607959141
 30
0.0
 11
4700.3660117627905493
 21
318.8510977379958149
 31
0.0
  0
ARC
  5
BCBF
  8
0
 10
4700.3657981271080644
 20
318.9210514458781063
 30
0.0
 40
0.0699540340986673
 50
179.1433526005693011
 51
270.1749783590756806
  0
LINE
  5
BCC0
  8
0
 10
4700.295849289988837
 20
314.0787215792863094
 30
0.0
 11
4700.2958271019933818
 21
316.2174966896146202
 31
0.0
  0
ARC
  5
BCC1
  8
0
 10
4700.3658135601381218
 20
316.2185569106263188
 30
0.0
 40
0.0699944882993229
 50
89.8322680948244283
 51
180.8679042300443029
  0
LINE
  5
BCC2
  8
0
 10
4700.3660184668906368
 20
316.2885510989958107
 30
0.0
 11
4705.7823039020431679
 21
316.2884594636682891
 31
0.0
  0
ARC
  5
BCC3
  8
0
 10
4705.7826791897650764
 20
316.2186392939954089
 30
0.0
 40
0.0698211782628243
 50
359.1012283022021165
 51
90.3079653869218362
  0
LINE
  5
BCC4
  8
0
 10
4705.8524917778568124
 20
316.2175440872296122
 30
0.0
 11
4705.8524634259256345
 21
314.059821579286222
 31
0.0
  0
LINE
  5
BCC5
  8
0
 10
4700.2958233702720463
 20
367.3400254753861987
 30
0.0
 11
4700.2957976170637266
 21
369.7215812433863107
 31
0.0
  0
ARC
  5
BCC6
  8
0
 10
4700.3707753112676073
 20
369.722627177545121
 30
0.0
 40
0.0749849892079024
 50
89.8423449641113763
 51
180.7992207111585969
  0
LINE
  5
BCC7
  8
0
 10
4700.3709816396640235
 20
369.7976118828862013
 30
0.0
 11
4702.2141346681491996
 21
369.7975937069862766
 31
0.0
  0
ARC
  5
BCC8
  8
0
 10
4702.2143660603078388
 20
369.7276235014082886
 30
0.0
 40
0.0699705881849908
 50
359.13413443658402
 51
90.1894770176523792
  0
LINE
  5
BCC9
  8
0
 10
4702.2843286587476541
 20
369.726566131786285
 30
0.0
 11
4702.2842972354483209
 21
367.3350323416863148
 31
0.0
  0
ARC
  5
BCCA
  8
0
 10
4702.2143758548099868
 20
367.3339878466143773
 30
0.0
 40
0.0699291816069565
 50
269.8186353982289916
 51
0.8558284741055247
  0
LINE
  5
BCCB
  8
0
 10
4702.2141545006888919
 20
367.2640590153459925
 30
0.0
 11
4700.370977809064243
 21
367.2640419554862774
 31
0.0
  0
ARC
  5
BCCC
  8
0
 10
4700.3707602514550672
 20
367.3389857336994169
 30
0.0
 40
0.0749440939912334
 50
179.2050778321489872
 51
270.1663259849689211
  0
LINE
  5
BCCD
  8
0
 10
4700.2958233692606882
 20
362.243925475104902
 30
0.0
 11
4700.2957976160505495
 21
364.6254812431049004
 31
0.0
  0
ARC
  5
BCCE
  8
0
 10
4700.3707753102553397
 20
364.6265271772637107
 30
0.0
 40
0.0749849892079024
 50
89.8423449641113763
 51
180.7992207111585969
  0
LINE
  5
BCCF
  8
0
 10
4700.3709816386508464
 20
364.7015118826049047
 30
0.0
 11
4702.214134667135113
 21
364.7014937067049232
 31
0.0
  0
ARC
  5
BCD0
  8
0
 10
4702.2143660592955712
 20
364.6315235011268783
 30
0.0
 40
0.0699705881849908
 50
359.13413443658402
 51
90.1894770176523792
  0
LINE
  5
BCD1
  8
0
 10
4702.2843286577353865
 20
364.6304661315049884
 30
0.0
 11
4702.2842972344342343
 21
362.2389323414047908
 31
0.0
  0
ARC
  5
BCD2
  8
0
 10
4702.2143758537977192
 20
362.2378878463330238
 30
0.0
 40
0.0699291816069565
 50
269.8186353982289916
 51
0.8558284741055247
  0
LINE
  5
BCD3
  8
0
 10
4702.2141544996748053
 20
362.1679590150645822
 30
0.0
 11
4700.3709778080510659
 21
362.1679419552049239
 31
0.0
  0
ARC
  5
BCD4
  8
0
 10
4700.3707602504418901
 20
362.2428857334180066
 30
0.0
 40
0.0749440939912334
 50
179.2050778321489872
 51
270.1663259849689211
  0
LINE
  5
BCD5
  8
0
 10
4700.29584756092936
 20
357.1478242178235973
 30
0.0
 11
4700.2958218077201309
 21
359.529379985823482
 31
0.0
  0
ARC
  5
BCD6
  8
0
 10
4700.3707995019240116
 20
359.5304259199825196
 30
0.0
 40
0.0749849892079024
 50
89.8423449641113763
 51
180.7992207111585969
  0
LINE
  5
BCD7
  8
0
 10
4700.3710058303204278
 20
359.6054106253236
 30
0.0
 11
4702.2141588588037848
 21
359.6053924494236753
 31
0.0
  0
ARC
  5
BCD8
  8
0
 10
4702.2143902509651525
 20
359.5354222438455736
 30
0.0
 40
0.0699705881849908
 50
359.13413443658402
 51
90.1894770176523792
  0
LINE
  5
BCD9
  8
0
 10
4702.2843528494049679
 20
359.5343648742236269
 30
0.0
 11
4702.2843214261038156
 21
357.1428310841235998
 31
0.0
  0
ARC
  5
BCDA
  8
0
 10
4702.2144000454673005
 20
357.141786589051776
 30
0.0
 40
0.0699291816069565
 50
269.8186353982289916
 51
0.8558284741055247
  0
LINE
  5
BCDB
  8
0
 10
4702.2141786913443866
 20
357.0718577577833912
 30
0.0
 11
4700.3710019997197378
 21
357.0718406979236761
 31
0.0
  0
ARC
  5
BCDC
  8
0
 10
4700.3707844421123809
 20
357.1467844761368156
 30
0.0
 40
0.0749440939912334
 50
179.2050778321489872
 51
270.1663259849689211
  0
LINE
  5
BCDD
  8
0
 10
4700.2958008736795819
 20
354.1324127250330775
 30
0.0
 11
4700.2957992689280218
 21
354.2808138607862247
 31
0.0
  0
LINE
  5
BCDE
  8
0
 10
4700.2957987053596298
 20
354.3329304680572136
 30
0.0
 11
4700.2957976202196733
 21
354.4332799302237049
 31
0.0
  0
ARC
  5
BCDF
  8
0
 10
4700.3707753144253729
 20
354.4343258643825152
 30
0.0
 40
0.0749849892079024
 50
89.8423449641113763
 51
180.7992207111585969
  0
LINE
  5
BCE0
  8
0
 10
4700.3709816428208796
 20
354.5093105697237092
 30
0.0
 11
4702.2141346713042367
 21
354.509292393823614
 31
0.0
  0
ARC
  5
BCE1
  8
0
 10
4702.2143660634646949
 20
354.4393221882456828
 30
0.0
 40
0.0699705881849908
 50
359.13413443658402
 51
90.1894770176523792
  0
LINE
  5
BCE2
  8
0
 10
4702.2843286619036007
 20
354.4382648186236793
 30
0.0
 11
4702.2843272774853176
 21
354.3329007734745915
 31
0.0
  0
LINE
  5
BCE3
  8
0
 10
4702.2843265901547056
 20
354.280590173827818
 30
0.0
 11
4702.2843246431930311
 21
354.1324127250330775
 31
0.0
  0
LINE
  5
BCE4
  8
0
 10
4700.29584756092936
 20
346.9556242178235834
 30
0.0
 11
4700.2958318912023969
 21
348.4046991124835131
 31
0.0
  0
LINE
  5
BCE5
  8
0
 10
4700.2958307814842556
 20
348.5073215792862129
 30
0.0
 11
4700.2958294287964236
 21
348.6324127250330775
 31
0.0
  0
LINE
  5
BCE6
  8
0
 10
4702.2843435236918594
 20
348.6324127250330775
 30
0.0
 11
4702.2843418800712243
 21
348.5073215792862129
 31
0.0
  0
LINE
  5
BCE7
  8
0
 10
4702.2843405326657376
 20
348.4047746222246928
 30
0.0
 11
4702.2843214261038156
 21
346.9506310841235859
 31
0.0
  0
ARC
  5
BCE8
  8
0
 10
4702.2144000454673005
 20
346.9495865890517052
 30
0.0
 40
0.0699291816069565
 50
269.8186353982289916
 51
0.8558284741055247
  0
LINE
  5
BCE9
  8
0
 10
4702.2141786913443866
 20
346.8796577577833204
 30
0.0
 11
4700.3710019997197378
 21
346.8796406979236053
 31
0.0
  0
ARC
  5
BCEA
  8
0
 10
4700.3707844421123809
 20
346.9545844761368016
 30
0.0
 40
0.0749440939912334
 50
179.2050778321489872
 51
270.1663259849689211
  0
LINE
  5
BCEB
  8
0
 10
4700.29584756092936
 20
341.8595242179235925
 30
0.0
 11
4700.2958218077201309
 21
344.2410799859235908
 31
0.0
  0
ARC
  5
BCEC
  8
0
 10
4700.3707995019240116
 20
344.2421259200825148
 30
0.0
 40
0.0749849892079024
 50
89.8423449641113763
 51
180.7992207111585969
  0
LINE
  5
BCED
  8
0
 10
4700.3710058303204278
 20
344.3171106254235951
 30
0.0
 11
4702.2141588588037848
 21
344.3170924495236136
 31
0.0
  0
ARC
  5
BCEE
  8
0
 10
4702.2143902509651525
 20
344.2471222439456824
 30
0.0
 40
0.0699705881849908
 50
359.13413443658402
 51
90.1894770176523792
  0
LINE
  5
BCEF
  8
0
 10
4702.2843528494049679
 20
344.2460648743236789
 30
0.0
 11
4702.2843214261038156
 21
341.8545310842235949
 31
0.0
  0
ARC
  5
BCF0
  8
0
 10
4702.2144000454673005
 20
341.8534865891516006
 30
0.0
 40
0.0699291816069565
 50
269.8186353982289916
 51
0.8558284741055247
  0
LINE
  5
BCF1
  8
0
 10
4702.2141786913443866
 20
341.7835577578833863
 30
0.0
 11
4700.3710019997197378
 21
341.7835406980235007
 31
0.0
  0
ARC
  5
BCF2
  8
0
 10
4700.3707844421123809
 20
341.8584844762368107
 30
0.0
 40
0.0749440939912334
 50
179.2050778321489872
 51
270.1663259849689211
  0
LINE
  5
BCF3
  8
0
 10
4700.2958462742353731
 20
336.8824127250330775
 30
0.0
 11
4700.2958443707648257
 21
337.0584380275295189
 31
0.0
  0
LINE
  5
BCF4
  8
0
 10
4700.2958438207324434
 20
337.1093029946902107
 30
0.0
 11
4700.2958218077201309
 21
339.1449799858236247
 31
0.0
  0
ARC
  5
BCF5
  8
0
 10
4700.3707995019240116
 20
339.1460259199824918
 30
0.0
 40
0.0749849892079024
 50
89.8423449641113763
 51
180.7992207111585969
  0
LINE
  5
BCF6
  8
0
 10
4700.3710058303204278
 20
339.2210106253235722
 30
0.0
 11
4702.2141588588037848
 21
339.2209924494235906
 31
0.0
  0
ARC
  5
BCF7
  8
0
 10
4702.2143902509651525
 20
339.1510222438457163
 30
0.0
 40
0.0699705881849908
 50
359.13413443658402
 51
90.1894770176523792
  0
LINE
  5
BCF8
  8
0
 10
4702.2843528494049679
 20
339.1499648742235991
 30
0.0
 11
4702.2843260388481212
 21
337.1094932268583761
 31
0.0
  0
LINE
  5
BCF9
  8
0
 10
4702.2843253648570681
 20
337.0581977693252043
 30
0.0
 11
4702.2843230551479792
 21
336.8824127250330775
 31
0.0
  0
LINE
  5
BCFA
  8
0
 10
4700.29584756092936
 20
321.4751242178235771
 30
0.0
 11
4700.2958218077201309
 21
323.8566799858235754
 31
0.0
  0
ARC
  5
BCFB
  8
0
 10
4700.3707995019240116
 20
323.8577259199824994
 30
0.0
 40
0.0749849892079024
 50
89.8423449641113763
 51
180.7992207111585969
  0
LINE
  5
BCFC
  8
0
 10
4700.3710058303204278
 20
323.9327106253235797
 30
0.0
 11
4702.2141588588037848
 21
323.9326924494235982
 31
0.0
  0
ARC
  5
BCFD
  8
0
 10
4702.2143902509651525
 20
323.8627222438456101
 30
0.0
 40
0.0699705881849908
 50
359.13413443658402
 51
90.1894770176523792
  0
LINE
  5
BCFE
  8
0
 10
4702.2843528494049679
 20
323.8616648742236066
 30
0.0
 11
4702.2843214261038156
 21
321.4701310841236932
 31
0.0
  0
ARC
  5
BCFF
  8
0
 10
4702.2144000454673005
 20
321.4690865890516989
 30
0.0
 40
0.0699291816069565
 50
269.8186353982289916
 51
0.8558284741055247
  0
LINE
  5
BD00
  8
0
 10
4702.2141786913443866
 20
321.3991577577834278
 30
0.0
 11
4700.3710019997197378
 21
321.399140697923599
 31
0.0
  0
ARC
  5
BD01
  8
0
 10
4700.3707844421123809
 20
321.4740844761366816
 30
0.0
 40
0.0749440939912334
 50
179.2050778321489872
 51
270.1663259849689211
  0
LINE
  5
BD02
  8
0
 10
4700.2958233737299452
 20
316.3790241622235726
 30
0.0
 11
4700.295797620520716
 21
318.7605799302236278
 31
0.0
  0
ARC
  5
BD03
  8
0
 10
4700.3707753147245967
 20
318.7616258643824949
 30
0.0
 40
0.0749849892079024
 50
89.8423449641113763
 51
180.7992207111585969
  0
LINE
  5
BD04
  8
0
 10
4700.3709816431201034
 20
318.8366105697235753
 30
0.0
 11
4702.2141346716052794
 21
318.8365923938235937
 31
0.0
  0
ARC
  5
BD05
  8
0
 10
4702.2143660637657376
 20
318.7666221882456057
 30
0.0
 40
0.0699705881849908
 50
359.13413443658402
 51
90.1894770176523792
  0
LINE
  5
BD06
  8
0
 10
4702.284328662203734
 20
318.7655648186236022
 30
0.0
 11
4702.2842972389062197
 21
316.3740310285235751
 31
0.0
  0
ARC
  5
BD07
  8
0
 10
4702.2143758582669761
 20
316.3729865334516944
 30
0.0
 40
0.0699291816069565
 50
269.8186353982289916
 51
0.8558284741055247
  0
LINE
  5
BD08
  8
0
 10
4702.2141545041449717
 20
316.3030577021833096
 30
0.0
 11
4700.3709778125212324
 21
316.3030406423235945
 31
0.0
  0
ARC
  5
BD09
  8
0
 10
4700.3707602549111471
 20
316.3779844205367908
 30
0.0
 40
0.0749440939912334
 50
179.2050778321489872
 51
270.1663259849689211
  0
LINE
  5
BD0A
  8
0
 10
4699.9449934960630344
 20
313.595512042286316
 30
0.0
 11
4699.9717722773639252
 21
313.5958105177862763
 31
0.0
  0
ARC
  5
BD0B
  8
0
 10
4700.081646854322571
 20
313.6221297533309098
 30
0.0
 40
0.0300234644447881
 50
270.0738677591231749
 51
359.9146596332359991
  0
ARC
  5
BD0C
  8
0
 10
4699.9897086439250415
 20
312.4954713641587887
 30
0.0
 40
1.1004853321365511
 50
85.2057117339359138
 51
90.9338821354391911
  0
ARC
  5
BD0D
  8
0
 10
4699.9880195056575758
 20
313.5724242799896047
 30
0.0
 40
0.0237206643645451
 50
37.5584396550170112
 51
82.7621199547491671
  0
ARC
  5
BD0E
  8
0
 10
4691.4794541106075485
 20
313.2621808472081852
 30
0.0
 40
8.5366425160059052
 50
359.480776940019723
 51
1.913910900837601
  0
ARC
  5
BD0F
  8
0
 10
4699.7888021168346313
 20
313.5419923083014169
 30
0.0
 40
0.2225951909984478
 50
1.362777343431399
 51
11.6347939619897698
  0
ARC
  5
BD10
  8
0
 10
4700.1407832926452102
 20
313.1849831257607093
 30
0.0
 40
0.1250372936531614
 50
180.074036774671697
 51
207.1720290381726954
  0
ARC
  5
BD11
  8
0
 10
4701.1866159406636143
 20
313.9534523530862771
 30
0.0
 40
0.1252683212000119
 50
58.117287414753342
 51
89.9723410936350518
  0
LINE
  5
BD12
  8
0
 10
4701.1866764125643385
 20
314.0787206596903047
 30
0.0
 11
4700.1444691671640612
 21
314.0787215792863094
 31
0.0
  0
ARC
  5
BD13
  8
0
 10
4700.146323317399947
 20
314.1136749599481846
 30
0.0
 40
0.0350025240917672
 50
188.1033088131443947
 51
266.9635124412142773
  0
LINE
  5
BD14
  8
0
 10
4700.6300642132227949
 20
313.9777452500862864
 30
0.0
 11
4700.1444460317643461
 21
313.9777452500862864
 31
0.0
  0
ARC
  5
BD15
  8
0
 10
4700.1466919847543977
 20
313.9424147547102848
 30
0.0
 40
0.0354018108188026
 50
93.6373878846127354
 51
171.5963899365168004
  0
LINE
  5
BD16
  8
0
 10
4700.1919993002638876
 20
313.9583347335862982
 30
0.0
 11
4700.1919993002638876
 21
313.5598215792692258
 31
0.0
  0
LINE
  5
BD17
  8
0
 10
4700.1919993002638876
 20
313.9583347335862982
 30
0.0
 11
4700.4668317777641278
 21
313.9633085664863188
 31
0.0
  0
LINE
  5
BD18
  8
0
 10
4700.4668317777641278
 20
313.9633085664863188
 30
0.0
 11
4700.4668317777641278
 21
313.8014969183291782
 31
0.0
  0
LINE
  5
BD19
  8
0
 10
4700.4955817777636184
 20
313.973969412986321
 30
0.0
 11
4700.6243995593686122
 21
313.973969412986321
 31
0.0
  0
LINE
  5
BD1A
  8
0
 10
4700.4955817777636184
 20
313.973969412986321
 30
0.0
 11
4700.4955817777636184
 21
313.8474827138035153
 31
0.0
  0
LINE
  5
BD1B
  8
0
 10
4700.4668317777641278
 20
313.9600126166862992
 30
0.0
 11
4700.4955817777636184
 21
313.9594923081862134
 31
0.0
  0
LINE
  5
BD1C
  8
0
 10
4730.9212128288645545
 20
355.4139470063863087
 30
0.0
 11
4730.9211631877651598
 21
356.704569079286216
 31
0.0
  0
ARC
  5
BD1D
  8
0
 10
4732.3949770785047804
 20
356.6786375337969162
 30
0.0
 40
1.474042004005911
 50
166.3220213633757965
 51
178.9919929452647125
  0
ARC
  5
BD1E
  8
0
 10
4730.8314076437582116
 20
357.0573682485396034
 30
0.0
 40
0.1347523942833195
 50
347.0614804049693021
 51
0.0177659888836156
  0
ARC
  5
BD1F
  8
0
 10
4730.8261631889326964
 20
346.8657764430207067
 30
0.0
 40
0.1399999988310292
 50
347.080538350165682
 51
0.0000000268497846
  0
ARC
  5
BD20
  8
0
 10
4732.3555168293096358
 20
346.4914844981158808
 30
0.0
 40
1.4345056760944821
 50
166.1665611609317068
 51
179.1658167317891071
  0
LINE
  5
BD21
  8
0
 10
4730.9211631877651598
 20
346.5123690792872821
 30
0.0
 11
4730.9211631877569744
 21
345.5302252890166983
 31
0.0
  0
ARC
  5
BD22
  8
0
 10
4727.7982001348673293
 20
345.5301894612501883
 30
0.0
 40
3.1229630530960688
 50
353.7091514069663276
 51
0.0006573179931205
  0
ARC
  5
BD23
  8
0
 10
4730.9330084684916073
 20
345.1895895334203033
 30
0.0
 40
0.0306920545918905
 50
182.9891106902011018
 51
239.3099247728690955
  0
LINE
  5
BD24
  8
0
 10
4731.4961684573881939
 20
345.0622599157555896
 30
0.0
 11
4730.914560634537338
 21
345.0367784563015903
 31
0.0
  0
ARC
  5
BD25
  8
0
 10
4730.8502254185887068
 20
346.980659221560586
 30
0.0
 40
1.944945101938492
 50
263.6597082523485938
 51
271.8955850641768279
  0
ARC
  5
BD26
  8
0
 10
4730.6529448721448716
 20
345.281942665225813
 30
0.0
 40
0.2349853671671915
 50
251.2832715651059061
 51
265.7275858367416959
  0
ARC
  5
BD27
  8
0
 10
4730.9231295575564218
 20
344.9870771064893233
 30
0.0
 40
0.0504346172266444
 50
99.7820989045002449
 51
157.4265516102119875
  0
ARC
  5
BD28
  8
0
 10
4727.8051640263147419
 20
345.530891699536312
 30
0.0
 40
3.115849550721923
 50
344.2355742812792982
 51
350.3099462943031881
  0
ARC
  5
BD29
  8
0
 10
4733.2754643302123441
 20
344.0374828132124776
 30
0.0
 40
2.5548980084774038
 50
165.3333696037697109
 51
172.6969859726993946
  0
ARC
  5
BD2A
  8
0
 10
4730.487873261347886
 20
344.3965444893902941
 30
0.0
 40
0.2557285405502952
 50
345.1401643295770896
 51
352.2938595795424135
  0
LINE
  5
BD2B
  8
0
 10
4730.7350492400901203
 20
344.3309615496511924
 30
0.0
 11
4730.7333760498449919
 21
344.3231731545698153
 31
0.0
  0
ARC
  5
BD2C
  8
0
 10
4730.6077947155908987
 20
344.3501172995893853
 30
0.0
 40
0.1284393182166832
 50
309.0612116749127836
 51
347.8904739171288156
  0
ARC
  5
BD2D
  8
0
 10
4730.9727105613774256
 20
343.9699275403488059
 30
0.0
 40
0.399127001271156
 50
135.3572768782570108
 51
160.2532789458163052
  0
ARC
  5
BD2E
  8
0
 10
4730.0940251407200776
 20
344.7720904531856263
 30
0.0
 40
0.8356700239581023
 50
307.009458424113177
 51
319.466661576640206
  0
ARC
  5
BD2F
  8
0
 10
4731.5204194493280738
 20
343.2733882379450279
 30
0.0
 40
1.240678181979143
 50
116.5344948656778996
 51
129.6253993042558932
  0
LINE
  5
BD30
  8
0
 10
4730.9661631877652326
 20
344.3833802864562017
 30
0.0
 11
4730.9661631867256801
 21
344.3235413956784896
 31
0.0
  0
ARC
  5
BD31
  8
0
 10
4730.8261185950686922
 20
344.323564941956306
 30
0.0
 40
0.1400445936370426
 50
326.8698130365168026
 51
359.9903666100502164
  0
ARC
  5
BD32
  8
0
 10
4731.1910040233897234
 20
344.1003214603211973
 30
0.0
 40
0.2878044293764904
 50
149.354036782624604
 51
171.8673420723627885
  0
ARC
  5
BD33
  8
0
 10
4731.1541690905623909
 20
344.0742944399834187
 30
0.0
 40
0.2568962296611689
 50
140.3732154793553093
 51
164.9418555001965103
  0
ARC
  5
BD34
  8
0
 10
4730.2334174174975487
 20
344.2630869566909837
 30
0.0
 40
0.6836594481953564
 50
321.4468914878526107
 51
349.7160754733004069
  0
ARC
  5
BD35
  8
0
 10
4732.0176970289630844
 20
343.6115324549547267
 30
0.0
 40
0.0100881459949276
 50
79.2129602456751485
 51
121.3545596810084959
  0
ARC
  5
BD36
  8
0
 10
4732.0239488613187859
 20
343.6041504346637225
 30
0.0
 40
0.0197021656767683
 50
125.7143156358807943
 51
159.5903528830021969
  0
ARC
  5
BD37
  8
0
 10
4732.0811346034652161
 20
343.5832242476382135
 30
0.0
 40
0.0805962360659867
 50
159.8248548336970885
 51
181.4918017827999961
  0
ARC
  5
BD38
  8
0
 10
4732.016606334572316
 20
343.5019085169536766
 30
0.0
 40
0.0093880441901866
 50
238.0243835373410946
 51
282.8553971408090888
  0
ARC
  5
BD39
  8
0
 10
4732.0221368818092742
 20
343.508472999098899
 30
0.0
 40
0.0179264992774708
 50
201.6527122321195122
 51
234.1376310007208872
  0
ARC
  5
BD3A
  8
0
 10
4732.0762259991452083
 20
343.5287797435610173
 30
0.0
 40
0.0756994880617694
 50
178.1566554215656026
 51
200.8322642515842915
  0
LINE
  5
BD3B
  8
0
 10
4732.0005656846642523
 20
343.581126012386278
 30
0.0
 11
4732.0005656846642523
 21
343.5312147600863
 31
0.0
  0
ARC
  5
BD3C
  8
0
 10
4732.0295662810640351
 20
343.2567610121570851
 30
0.0
 40
0.0499789110542181
 50
359.9784332244203142
 51
81.014791427572078
  0
LINE
  5
BD3D
  8
0
 10
4732.0795451885778675
 20
343.2567421995335053
 30
0.0
 11
4732.0795451885778675
 21
343.2333023877334881
 31
0.0
  0
ARC
  5
BD3E
  8
0
 10
4732.029570027835689
 20
343.233279835963117
 30
0.0
 40
0.049975165829476
 50
280.9824216150257143
 51
0.0258552681604106
  0
LINE
  5
BD3F
  8
0
 10
4732.0195901677579968
 20
343.3089429760336202
 30
0.0
 11
4732.0373719613580761
 21
343.3061266166334917
 31
0.0
  0
LINE
  5
BD40
  8
0
 10
4732.0390906878583337
 20
343.1842199314335176
 30
0.0
 11
4732.0187001423573747
 21
343.1802564235334785
 31
0.0
  0
ARC
  5
BD41
  8
0
 10
4732.0177020792561962
 20
343.2990330915021104
 30
0.0
 40
0.0100881459949276
 50
79.2129602456751485
 51
121.3545596810084959
  0
ARC
  5
BD42
  8
0
 10
4732.0239539116128071
 20
343.2916510712109925
 30
0.0
 40
0.0197021656767683
 50
125.7143156358807943
 51
159.5903528830021969
  0
ARC
  5
BD43
  8
0
 10
4732.0811396537592373
 20
343.2707248841854835
 30
0.0
 40
0.0805962360659867
 50
159.8248548336970885
 51
181.4918017827999961
  0
ARC
  5
BD44
  8
0
 10
4732.0166113848663372
 20
343.189409153500776
 30
0.0
 40
0.0093880441901866
 50
238.0243835373410946
 51
282.8553971408090888
  0
ARC
  5
BD45
  8
0
 10
4732.0221419321023859
 20
343.1959736356462258
 30
0.0
 40
0.0179264992774708
 50
201.6527122321195122
 51
234.1376310007208872
  0
ARC
  5
BD46
  8
0
 10
4732.07623104943832
 20
343.2162803801082873
 30
0.0
 40
0.0756994880617694
 50
178.1566554215656026
 51
200.8322642515842915
  0
LINE
  5
BD47
  8
0
 10
4732.000570734957364
 20
343.2686266489334912
 30
0.0
 11
4732.000570734957364
 21
343.2187153966335131
 31
0.0
  0
ARC
  5
BD48
  8
0
 10
4733.3426733780688664
 20
231.0092400282483993
 30
0.0
 40
111.9868852033306013
 50
92.5130694022160043
 51
92.6579315312623493
  0
ARC
  5
BD49
  8
0
 10
4732.4392105795977841
 20
306.6329710272892726
 30
0.0
 40
36.1364539447098423
 50
91.9974114712837405
 51
93.6184349772046147
  0
ARC
  5
BD4A
  8
0
 10
4731.1866290376146935
 20
342.5783224000733185
 30
0.0
 40
0.169288101022675
 50
57.226782486710583
 51
92.3464351975605666
  0
LINE
  5
BD4B
  8
0
 10
4731.278267265717659
 20
342.7206631753206807
 30
0.0
 11
4730.8995382263628926
 21
340.3879736076863196
 31
0.0
  0
ARC
  5
BD4C
  8
0
 10
4734.1741898054797275
 20
339.7661896185219916
 30
0.0
 40
3.3331604062484521
 50
169.2487847210628047
 51
176.9581557076438969
  0
ARC
  5
BD4D
  8
0
 10
4723.2807960534728409
 20
338.9879608146496821
 30
0.0
 40
7.624984157365728
 50
7.1957579615432818
 51
18.5411289435718203
  0
ARC
  5
BD4E
  8
0
 10
4731.1691631877638429
 20
342.112738826486293
 30
0.0
 40
0.1720000000000152
 50
0.0000244173322264
 51
77.3553903694094629
  0
LINE
  5
BD4F
  8
0
 10
4731.3411631877643231
 20
342.1127388997862226
 30
0.0
 11
4731.3411631877643231
 21
341.9152275233863065
 31
0.0
  0
ARC
  5
BD50
  8
0
 10
4731.1691816697457398
 20
341.9152170652388918
 30
0.0
 40
0.1719815183366329
 50
271.1191307826650814
 51
0.0034841401436311
  0
LINE
  5
BD51
  8
0
 10
4731.1725406880641458
 20
341.7432683529863198
 30
0.0
 11
4731.1192736222956228
 21
341.7413804301540949
 31
0.0
  0
ARC
  5
BD52
  8
0
 10
4731.9492281711973192
 20
341.8711575060289078
 30
0.0
 40
1.510506147090793
 50
186.0502550718958901
 51
197.6729227407635108
  0
ARC
  5
BD53
  8
0
 10
4730.4760468812919498
 20
341.7066269927565827
 30
0.0
 40
0.0293968505442368
 50
100.7002844078413943
 51
169.5695579810933111
  0
LINE
  5
BD54
  8
0
 10
4730.4705887241643723
 20
341.7355126871863149
 30
0.0
 11
4730.713781047464181
 21
341.7439529350862131
 31
0.0
  0
ARC
  5
BD55
  8
0
 10
4730.74467435886163
 20
341.8654342297044195
 30
0.0
 40
0.1145270139637005
 50
287.3188471782412989
 51
26.1021251670493406
  0
LINE
  5
BD56
  8
0
 10
4730.847520906664613
 20
341.9158229638862849
 30
0.0
 11
4730.7842367498642488
 21
342.0921288651862824
 31
0.0
  0
ARC
  5
BD57
  8
0
 10
4730.4963242073408765
 20
341.9249336540884769
 30
0.0
 40
0.3329382386517168
 50
30.1443897469649613
 51
91.4389134274283037
  0
LINE
  5
BD58
  8
0
 10
4730.4879637495641873
 20
342.2577669058862284
 30
0.0
 11
4730.0977550149636954
 21
342.2639200501861865
 31
0.0
  0
ARC
  5
BD59
  8
0
 10
4730.1019261213659775
 20
342.3464773163897235
 30
0.0
 40
0.0826625691084372
 50
196.6772045619437108
 51
267.1076591506881073
  0
LINE
  5
BD5A
  8
0
 10
4730.0227405751638798
 20
342.322754845586303
 30
0.0
 11
4729.9935764826641389
 21
342.3805585624863284
 31
0.0
  0
ARC
  5
BD5B
  8
0
 10
4730.0972648464230588
 20
342.4370311358518961
 30
0.0
 40
0.1180695910111355
 50
128.6918466050503866
 51
208.5743691837911911
  0
ARC
  5
BD5C
  8
0
 10
4730.4670197429368272
 20
341.884823010364812
 30
0.0
 40
0.7822746148413735
 50
99.1665721482522287
 51
124.5425549829992065
  0
ARC
  5
BD5D
  8
0
 10
4731.3770108838943997
 20
337.1275049612784755
 30
0.0
 40
5.62555999532748
 50
93.7124346383129563
 51
100.597743502228596
  0
ARC
  5
BD5E
  8
0
 10
4731.9597119187319549
 20
338.9301611463171184
 30
0.0
 40
3.8512689398433539
 50
93.5588268504472467
 51
100.1915909636058046
  0
ARC
  5
BD5F
  8
0
 10
4731.9013449505318931
 20
340.5649812135011985
 30
0.0
 40
2.216399960443741
 50
92.1053131987565763
 51
94.6762783268701611
  0
ARC
  5
BD60
  8
0
 10
4730.9604806656416258
 20
340.1575071026169894
 30
0.0
 40
0.0246361058409653
 50
23.2428421691537004
 51
79.5173489161935123
  0
ARC
  5
BD61
  8
0
 10
4730.9106740467632335
 20
340.1460985426376169
 30
0.0
 40
0.0754621316741892
 50
336.819551310946224
 51
16.2612223856896883
  0
ARC
  5
BD62
  8
0
 10
4730.7352127142294194
 20
340.2002998027048193
 30
0.0
 40
0.2588097834494583
 50
332.5914921945559968
 51
341.0830835155139766
  0
ARC
  5
BD63
  8
0
 10
4730.7095646751140521
 20
341.9464306681795165
 30
0.0
 40
0.2025216289544032
 50
271.1929481171346765
 51
289.9809225979307143
  0
ARC
  5
BD64
  8
0
 10
4740.8849936138167322
 20
340.4339824866434014
 30
0.0
 40
13.4342626364491906
 50
173.1659403220494085
 51
174.3305726310726129
  0
LINE
  5
BD65
  8
0
 10
4727.5461821252811205
 20
342.0325820795305276
 30
0.0
 11
4728.0549917915641345
 21
342.0292236972862838
 31
0.0
  0
ARC
  5
BD66
  8
0
 10
4728.1135168212213102
 20
342.7306167072583776
 30
0.0
 40
0.703830472155096
 50
265.2302243137481241
 51
274.4831105173309993
  0
LINE
  5
BD67
  8
0
 10
4727.9614232587955485
 20
326.4946095200863283
 30
0.0
 11
4730.9659739946228001
 21
326.4944732779788978
 31
0.0
  0
LINE
  5
BD68
  8
0
 10
4727.9614249835631199
 20
326.4813781410102251
 30
0.0
 11
4730.9659749628799545
 21
326.4813658542288977
 31
0.0
  0
ARC
  5
BD69
  8
0
 10
4730.2196530141272888
 20
342.8662217416168119
 30
0.0
 40
0.1795422537926843
 50
202.913183910047394
 51
250.1133979822992046
  0
LINE
  5
BD6A
  8
0
 10
4727.5108820920640937
 20
343.7322477000747085
 30
0.0
 11
4727.5108820920640937
 21
343.6663017211863007
 31
0.0
  0
ARC
  5
BD6B
  8
0
 10
4730.9392347700959363
 20
332.0432282460495799
 30
0.0
 40
0.5015013749160332
 50
98.6923394879176641
 51
118.4259663099036004
  0
LINE
  5
BD6C
  8
0
 10
4730.8634435412641324
 20
332.5389694271863164
 30
0.0
 11
4731.4970359409644516
 21
332.5498321627862879
 31
0.0
  0
ARC
  5
BD6D
  8
0
 10
4731.4952748478026479
 20
332.498966765736327
 30
0.0
 40
0.0508958747461424
 50
271.9829377505329262
 51
359.0140903194773045
  0
ARC
  5
BD6E
  8
0
 10
4731.4952748478026479
 20
332.498966765736327
 30
0.0
 40
0.0508958747461424
 50
0.9859096805226254
 51
88.0170622494670738
  0
ARC
  5
BD6F
  8
0
 10
4730.9166659317843369
 20
332.9202275878207047
 30
0.0
 40
0.4866079295131782
 50
243.6270430674705096
 51
263.4121841409940998
  0
LINE
  5
BD70
  8
0
 10
4730.8608393972654085
 20
332.4368326404862728
 30
0.0
 11
4731.4970359409644516
 21
332.4481013686863093
 31
0.0
  0
ARC
  5
BD71
  8
0
 10
4731.3305966992802496
 20
332.5813273581961766
 30
0.0
 40
0.0344659589253655
 50
182.4863744700583084
 51
266.1547447402505782
  0
ARC
  5
BD72
  8
0
 10
4731.3314314212493628
 20
332.4099034964265797
 30
0.0
 40
0.035337569163246
 50
94.8350557297820416
 51
176.410212711857298
  0
ARC
  5
BD73
  8
0
 10
4731.007403919112221
 20
332.397793446415676
 30
0.0
 40
0.0422195699385176
 50
100.6116442300534999
 51
172.5840085257675867
  0
ARC
  5
BD74
  8
0
 10
4731.0099979327824258
 20
332.5838171750949073
 30
0.0
 40
0.0449693639962028
 50
188.5184516160919941
 51
251.2503769774484965
  0
ARC
  5
BD75
  8
0
 10
4707.2092734427660616
 20
314.0607402091861786
 30
0.0
 40
0.7305957651021524
 50
176.5234441221060138
 51
180.07204206838
  0
ARC
  5
BD76
  8
0
 10
4708.7355506760641219
 20
313.902827892654102
 30
0.0
 40
2.2645749980587739
 50
166.9562373719101913
 51
174.876936847140513
  0
ARC
  5
BD77
  8
0
 10
4704.2798108819797562
 20
313.8932583990371086
 30
0.0
 40
2.3090648068030291
 50
5.2622807146012942
 51
13.0317498784898191
  0
ARC
  5
BD78
  8
0
 10
4705.8375607615926128
 20
314.0584793047740959
 30
0.0
 40
0.7430427756167358
 50
0.1035023942706637
 51
3.5922012794361482
  0
ARC
  5
BD79
  8
0
 10
4712.6272734428657714
 20
314.0607402089862035
 30
0.0
 40
0.7305957651021524
 50
176.5234441221060138
 51
180.0720420526949113
  0
ARC
  5
BD7A
  8
0
 10
4714.1535506761638317
 20
313.9028278924541269
 30
0.0
 40
2.2645749980587739
 50
166.9562373719101913
 51
174.876936847140513
  0
ARC
  5
BD7B
  8
0
 10
4709.6978108820803754
 20
313.8932583988370197
 30
0.0
 40
2.3090648068030291
 50
5.2622807146012942
 51
13.0317498784898191
  0
ARC
  5
BD7C
  8
0
 10
4711.2555607616923226
 20
314.0584793045741776
 30
0.0
 40
0.7430427756167358
 50
0.1035024096887463
 51
3.5922012794361482
  0
ARC
  5
BD7D
  8
0
 10
4718.0354300192930168
 20
314.0593665543686939
 30
0.0
 40
0.7206598982964277
 50
176.3718139599500887
 51
179.9638234219142987
  0
ARC
  5
BD7E
  8
0
 10
4719.6006735415230651
 20
313.8869669665738797
 30
0.0
 40
2.2948374108186989
 50
166.9823604726867075
 51
174.5488191600186951
  0
ARC
  5
BD7F
  8
0
 10
4714.9408797758651417
 20
313.8455302325056095
 30
0.0
 40
2.4874086999515308
 50
5.9847885389792541
 51
12.9717750360491308
  0
ARC
  5
BD80
  8
0
 10
4716.6940195047909583
 20
314.0555555290097232
 30
0.0
 40
0.7223973991115868
 50
0.3383568338420626
 51
3.9150147824937789
  0
ARC
  5
BD81
  8
0
 10
4723.4534399894400849
 20
314.059366216419221
 30
0.0
 40
0.7206698698471071
 50
176.3718373064434104
 51
179.9637970543001018
  0
ARC
  5
BD82
  8
0
 10
4724.9718468221453804
 20
313.8935293595174016
 30
0.0
 40
2.2476000200812831
 50
166.9412760949720109
 51
174.6019518323064119
  0
ARC
  5
BD83
  8
0
 10
4720.5989117570443341
 20
313.8779928808402246
 30
0.0
 40
2.2453120207623671
 50
5.799555444745323
 51
13.4796128022080097
  0
ARC
  5
BD84
  8
0
 10
4722.1128263266364229
 20
314.0555886529322152
 30
0.0
 40
0.7215901987932487
 50
0.3361051833209152
 51
3.9167648476546271
  0
ARC
  5
BD85
  8
0
 10
4751.6723884584944244
 20
307.1176392428271242
 30
0.0
 40
22.2634872663122607
 50
161.5290647488216962
 51
161.8311030439022034
  0
ARC
  5
BD86
  8
0
 10
4731.0753512536457492
 20
314.239981643533099
 30
0.0
 40
0.4786762131778794
 50
166.2894517350250112
 51
202.1091027023522884
  0
ARC
  5
BD87
  8
0
 10
4731.1745160170421514
 20
314.0854243541214146
 30
0.0
 40
0.6246226195029904
 50
154.5909514722540905
 51
172.1036042172426903
  0
ARC
  5
BD88
  8
0
 10
4715.2872551491245758
 20
365.0630389080022837
 30
0.0
 40
2.1669321562617361
 50
161.3203811616727137
 51
165.9511514606228957
  0
ARC
  5
BD89
  8
0
 10
4711.8886733650342649
 20
365.3103818628924842
 30
0.0
 40
1.4179843719718499
 50
11.5271567252285703
 51
18.3611712720075992
  0
ARC
  5
BD8A
  8
0
 10
4713.4374128354611457
 20
365.5335092932947987
 30
0.0
 40
0.2583186246597248
 50
167.5817850439314896
 51
178.681236186833587
  0
ARC
  5
BD8B
  8
0
 10
4713.0021888381934332
 20
365.548457786639915
 30
0.0
 40
0.2795601711783449
 50
1.797320146186157
 51
9.3218617771289338
  0
LINE
  5
BD8C
  8
0
 10
4713.1791626327321865
 20
365.5394544288593011
 30
0.0
 11
4713.1791315072632642
 21
362.5661023504862897
 31
0.0
  0
LINE
  5
BD8D
  8
0
 10
4713.2816114737142925
 20
365.5572259146026113
 30
0.0
 11
4713.2817437842631989
 21
362.564048012786202
 31
0.0
  0
ARC
  5
BD8E
  8
0
 10
4713.471947559117325
 20
362.5731664490440949
 30
0.0
 40
0.292901249077602
 50
181.381975263967206
 51
210.6858011598843063
  0
ARC
  5
BD8F
  8
0
 10
4712.9892517430580483
 20
362.5742465804382277
 30
0.0
 40
0.2926697882441622
 50
329.0174641535544993
 51
358.003028565335228
  0
ARC
  5
BD90
  8
0
 10
4713.2301468932482749
 20
362.4304970373152059
 30
0.0
 40
0.0121698182725353
 50
214.0088197583160081
 51
325.4027853318430061
  0
LINE
  5
BD91
  8
0
 10
4706.8650628811628849
 20
369.962179165186285
 30
0.0
 11
4706.8608113641639648
 21
369.0249492242862743
 31
0.0
  0
LINE
  5
BD92
  8
0
 10
4706.968457141345425
 20
369.9629441117634769
 30
0.0
 11
4706.9632535346036093
 21
369.022802830527894
 31
0.0
  0
ARC
  5
BD93
  8
0
 10
4708.2552650503848781
 20
369.126236983062995
 30
0.0
 40
1.398127423767805
 50
184.1544492578645134
 51
196.0737059918195087
  0
ARC
  5
BD94
  8
0
 10
4705.5285091297510007
 20
369.1365635254625204
 30
0.0
 40
1.4392473737926861
 50
343.9701415540599783
 51
355.4665098194681718
  0
ARC
  5
BD95
  8
0
 10
4706.8122683482670254
 20
369.951382308203506
 30
0.0
 40
0.0538872417602845
 50
11.5580216464791796
 51
76.2742185587004116
  0
ARC
  5
BD96
  8
0
 10
4707.0242459745340966
 20
369.9469938297489762
 30
0.0
 40
0.0580241794856962
 50
102.0916940966635025
 51
164.0445252800627998
  0
LINE
  5
BD97
  8
0
 10
4713.6377484969643774
 20
369.9598293973862155
 30
0.0
 11
4713.633524063967343
 21
369.0248857808703065
 31
0.0
  0
LINE
  5
BD98
  8
0
 10
4713.7411408124644367
 20
369.9606076770862728
 30
0.0
 11
4713.7359237070641029
 21
369.0226768818861842
 31
0.0
  0
ARC
  5
BD99
  8
0
 10
4714.9517352356169795
 20
369.1212498491930774
 30
0.0
 40
1.3217286887741919
 50
184.1810074820857892
 51
196.385876281608887
  0
ARC
  5
BD9A
  8
0
 10
4712.4295570216117994
 20
369.1293262074792096
 30
0.0
 40
1.3107127814705739
 50
343.1038598956607188
 51
355.3328302360981183
  0
ARC
  5
BD9B
  8
0
 10
4713.5890532882349362
 20
369.9553177051647026
 30
0.0
 40
0.0489037699953605
 50
5.2934370805866138
 51
81.8756571827668012
  0
ARC
  5
BD9C
  8
0
 10
4713.7903746542251611
 20
369.9546942149281108
 30
0.0
 40
0.0495877021978002
 50
98.5512569788687784
 51
173.1510303219029083
  0
LINE
  5
BD9D
  8
0
 10
4720.4104370414643199
 20
369.957479703586273
 30
0.0
 11
4720.4062239616632723
 21
369.0248879750861875
 31
0.0
  0
LINE
  5
BD9E
  8
0
 10
4720.5138293551653987
 20
369.9582579832862166
 30
0.0
 11
4720.5086237070636344
 21
369.0226768818861842
 31
0.0
  0
ARC
  5
BD9F
  8
0
 10
4721.7109319614201013
 20
369.1192697413133033
 30
0.0
 40
1.3081173045361201
 50
184.1375339234336934
 51
196.4550656829985087
  0
ARC
  5
BDA0
  8
0
 10
4719.2114438478838565
 20
369.1280451882612965
 30
0.0
 40
1.3014522915000051
 50
343.0548095083676117
 51
355.3561307804209832
  0
ARC
  5
BDA1
  8
0
 10
4720.3606247961906774
 20
369.9544620182718973
 30
0.0
 40
0.0499035690494542
 50
3.4668097420639872
 51
80.8505590571567438
  0
ARC
  5
BDA2
  8
0
 10
4720.5624334608783101
 20
369.9555326758693923
 30
0.0
 40
0.0486804518537202
 50
98.0733291673815586
 51
176.7906975373167882
  0
ARC
  5
BDA3
  8
0
 10
4725.6788949554993451
 20
360.8342762183868899
 30
0.0
 40
2.6506199383449962
 50
168.3522367395976005
 51
177.1226903973241917
  0
ARC
  5
BDA4
  8
0
 10
4720.5228409338069469
 20
360.842223533420281
 30
0.0
 40
2.6137382618854512
 50
2.7985532005272029
 51
11.6365477029495796
  0
LINE
  5
BDA5
  8
0
 10
4723.031616614502127
 20
360.9673305037160844
 30
0.0
 11
4723.0316820707639636
 21
348.5073215792862129
 31
0.0
  0
LINE
  5
BDA6
  8
0
 10
4723.133461974462989
 20
360.9698381239862783
 30
0.0
 11
4723.1333990674647794
 21
348.5073215792862129
 31
0.0
  0
LINE
  5
BDA7
  8
0
 10
4723.1333985538349225
 20
348.4055663245807182
 30
0.0
 11
4723.1333121335137548
 21
331.2848215807795214
 31
0.0
  0
ARC
  5
BDA8
  8
0
 10
4728.729281388689742
 20
323.2286706777579752
 30
0.0
 40
2.7011765323364738
 50
183.0035478457257909
 51
191.4637427795055942
  0
ARC
  5
BDA9
  8
0
 10
4723.7335556910093146
 20
323.198218754116283
 30
0.0
 40
2.4024139424998441
 50
347.8314426626042177
 51
357.3890479205882116
  0
ARC
  5
BDAA
  8
0
 10
4729.4474332530726315
 20
360.6826278652106907
 30
0.0
 40
3.4325898016549119
 50
168.5025705272325922
 51
172.5738431323019881
  0
ARC
  5
BDAB
  8
0
 10
4720.6317991558598806
 20
360.3782808973519991
 30
0.0
 40
5.5408206698410307
 50
7.8126617190847227
 51
10.2772296485166397
  0
ARC
  5
BDAC
  8
0
 10
4727.3378843056007099
 20
360.9484913352328022
 30
0.0
 40
1.3064039521064259
 50
172.1781499824587911
 51
179.1722725815006072
  0
ARC
  5
BDAD
  8
0
 10
4724.8090235675263102
 20
360.9505555996973953
 30
0.0
 40
1.32457838770848
 50
0.8326640765384498
 51
7.8501307551107598
  0
LINE
  5
BDAE
  8
0
 10
4726.031616676563317
 20
360.9673637332862768
 30
0.0
 11
4726.0316820707639636
 21
348.5073215792862129
 31
0.0
  0
LINE
  5
BDAF
  8
0
 10
4726.0316826042289904
 20
348.4056763812703821
 30
0.0
 11
4726.0317724598317
 21
331.2848215809679004
 31
0.0
  0
LINE
  5
BDB0
  8
0
 10
4726.0317729932985458
 20
331.1831762186371861
 30
0.0
 11
4726.0318154838569171
 21
323.0871349893100728
 31
0.0
  0
LINE
  5
BDB1
  8
0
 10
4726.1334620820643977
 20
360.969804661786327
 30
0.0
 11
4726.1334013606629014
 21
348.5073215792862129
 31
0.0
  0
LINE
  5
BDB2
  8
0
 10
4726.1334756405367443
 20
323.0887793326364772
 30
0.0
 11
4726.1334506266612152
 21
331.183180100701577
 31
0.0
  0
LINE
  5
BDB3
  8
0
 10
4726.8638993758586366
 20
331.1832079893242735
 30
0.0
 11
4726.1334506266612152
 21
331.183180100701577
 31
0.0
  0
LINE
  5
BDB4
  8
0
 10
4726.0317729932985458
 20
331.1831762186371861
 30
0.0
 11
4700.1501135361422712
 21
331.1821880537083871
 31
0.0
  0
ARC
  5
BDB5
  8
0
 10
4700.1600213953233833
 20
331.1348491165575183
 30
0.0
 40
0.0483646631758728
 50
101.821151546101305
 51
178.6618930967163976
  0
LINE
  5
BDB6
  8
0
 10
4726.8639005864397404
 20
331.2848215810219017
 30
0.0
 11
4726.1333990674629604
 21
331.2848215809744943
 31
0.0
  0
LINE
  5
BDB7
  8
0
 10
4726.0317724598317
 20
331.2848215809679004
 30
0.0
 11
4723.1333121335137548
 21
331.2848215807795214
 31
0.0
  0
LINE
  5
BDB8
  8
0
 10
4723.0316820707639636
 20
331.2848215807729275
 30
0.0
 11
4700.1510356463559219
 21
331.2848215792861879
 31
0.0
  0
ARC
  5
BDB9
  8
0
 10
4700.1623908318888425
 20
331.3343033905309767
 30
0.0
 40
0.0507680005766183
 50
182.4678647530323872
 51
257.0754261617829002
  0
LINE
  5
BDBA
  8
0
 10
4726.8640466114993615
 20
348.4057079886719066
 30
0.0
 11
4726.1333974045091963
 21
348.4056802436917906
 31
0.0
  0
LINE
  5
BDBB
  8
0
 10
4726.0316826042289904
 20
348.4056763812703821
 30
0.0
 11
4723.7031850860412305
 21
348.4055879611137811
 31
0.0
  0
LINE
  5
BDBC
  8
0
 10
4723.7031850860412305
 20
348.4055879611141222
 30
0.0
 11
4723.1333985538349225
 21
348.4055663245807182
 31
0.0
  0
LINE
  5
BDBD
  8
0
 10
4723.0316820707639636
 20
348.4055624620954177
 30
0.0
 11
4700.1501075679643691
 21
348.4046935788862811
 31
0.0
  0
ARC
  5
BDBE
  8
0
 10
4700.1655020306061488
 20
348.3522029933566841
 30
0.0
 40
0.0547014720940828
 50
106.3453816712901983
 51
169.7735297645523076
  0
LINE
  5
BDBF
  8
0
 10
4726.8640478215620533
 20
348.5073215792862129
 30
0.0
 11
4726.1334013606629014
 21
348.5073215792862129
 31
0.0
  0
LINE
  5
BDC0
  8
0
 10
4726.0316820707639636
 20
348.5073215792862129
 30
0.0
 11
4723.1333990674647794
 21
348.5073215792862129
 31
0.0
  0
LINE
  5
BDC1
  8
0
 10
4723.0316820707639636
 20
348.5073215792862129
 30
0.0
 11
4700.1511828814773253
 21
348.5073215792862129
 31
0.0
  0
ARC
  5
BDC2
  8
0
 10
4700.1568589627731853
 20
348.5523892119850871
 30
0.0
 40
0.0454236658137729
 50
185.8214939024828993
 51
262.8216304206786162
  0
LINE
  5
BDC3
  8
0
 10
4723.0316820707639636
 20
348.4055624620954177
 30
0.0
 11
4723.0316820707639636
 21
331.2848215807729275
 31
0.0
  0
LINE
  5
BDC4
  8
0
 10
4726.1333974045091963
 20
348.4056802436917906
 30
0.0
 11
4726.1333990674629604
 21
331.2848215809744943
 31
0.0
  0
ARC
  5
BDC5
  8
0
 10
4713.0164552783317049
 20
354.7338184748135745
 30
0.0
 40
0.8886932265664524
 50
158.7005313381550025
 51
171.0177486850487014
  0
ARC
  5
BDC6
  8
0
 10
4711.3377775419394311
 20
354.7250751762708774
 30
0.0
 40
0.9130152673278267
 50
9.2920730802295122
 51
21.2933056187539798
  0
ARC
  5
BDC7
  8
0
 10
4712.5268658510158275
 20
354.8394701093557728
 30
0.0
 40
0.3896139897145329
 50
175.1267033170881859
 51
182.2096874624226075
  0
ARC
  5
BDC8
  8
0
 10
4711.6787925439211904
 20
354.8272067008738873
 30
0.0
 40
0.5618481497789515
 50
359.7227087861626842
 51
4.6236288386940663
  0
LINE
  5
BDC9
  8
0
 10
4712.1375415737493313
 20
354.8244478554713055
 30
0.0
 11
4712.1374192092380326
 21
354.3573215768182081
 31
0.0
  0
LINE
  5
BDCA
  8
0
 10
4712.1373919944981026
 20
354.2534293590267112
 30
0.0
 11
4712.1370077371502703
 21
352.7865276935726229
 31
0.0
  0
LINE
  5
BDCB
  8
0
 10
4712.2406341138639618
 20
354.8244875660863045
 30
0.0
 11
4712.240767203093128
 21
354.357321577009202
 31
0.0
  0
LINE
  5
BDCC
  8
0
 10
4712.2407968204697681
 20
354.2533595108043869
 30
0.0
 11
4712.2412147028517211
 21
352.786520775600593
 31
0.0
  0
ARC
  5
BDCD
  8
0
 10
4712.5668397065992394
 20
352.7832575783382936
 30
0.0
 40
0.4298444086102546
 50
179.5641083027500997
 51
199.636011666305194
  0
ARC
  5
BDCE
  8
0
 10
4711.8020994871976654
 20
352.7894716011962828
 30
0.0
 40
0.4391251302199485
 50
340.122665035091984
 51
359.6149818957994171
  0
ARC
  5
BDCF
  8
0
 10
4712.2907294704446031
 20
352.4531845077087269
 30
0.0
 40
1.9563745068865059
 50
70.7704145216776794
 51
76.2241182971328755
  0
ARC
  5
BDD0
  8
0
 10
4712.636960964339778
 20
355.1151540235047719
 30
0.0
 40
0.867573248505267
 50
277.9928929092081944
 51
290.0971024287123896
  0
ARC
  5
BDD1
  8
0
 10
4712.7134567310040438
 20
354.1254187242369085
 30
0.0
 40
0.231910981198762
 50
79.2809925487537441
 51
89.5203128886613229
  0
ARC
  5
BDD2
  8
0
 10
4712.9329307023035653
 20
350.7727834978834949
 30
0.0
 40
3.4876355157901711
 50
92.8816379856168766
 51
93.7264702857659131
  0
LINE
  5
BDD3
  8
0
 10
4712.7153982947638724
 20
354.3573215778862959
 30
0.0
 11
4712.240767203093128
 21
354.357321577009202
 31
0.0
  0
LINE
  5
BDD4
  8
0
 10
4712.1374192092380326
 20
354.3573215768182081
 30
0.0
 11
4710.6616058655972665
 21
354.357321574090804
 31
0.0
  0
LINE
  5
BDD5
  8
0
 10
4712.7062576492653534
 20
354.2530450998364131
 30
0.0
 11
4712.2407968204697681
 21
354.2533595108043869
 31
0.0
  0
LINE
  5
BDD6
  8
0
 10
4712.1373919944981026
 20
354.2534293590267112
 30
0.0
 11
4710.6720231252093072
 21
354.2544191910732252
 31
0.0
  0
ARC
  5
BDD7
  8
0
 10
4710.6948466042986183
 20
353.8747440577362227
 30
0.0
 40
0.4837210001650283
 50
93.9404040783512215
 51
108.7560956704573982
  0
ARC
  5
BDD8
  8
0
 10
4710.6500199037764105
 20
354.5310249181231939
 30
0.0
 40
0.2774794947204015
 50
244.941796170335607
 51
274.5481439161820276
  0
ARC
  5
BDD9
  8
0
 10
4724.8695436955731566
 20
324.5366679860235877
 30
0.0
 40
0.8886932265664524
 50
68.7005313381663143
 51
81.0177486850358406
  0
ARC
  5
BDDA
  8
0
 10
4724.8608003970302889
 20
326.2153457224175099
 30
0.0
 40
0.9130152673278267
 50
279.2920730802135267
 51
291.2933056187652028
  0
ARC
  5
BDDB
  8
0
 10
4724.9751953301156391
 20
325.0262574133404883
 30
0.0
 40
0.3896139897145329
 50
85.1267033170874043
 51
92.2096874624228349
  0
ARC
  5
BDDC
  8
0
 10
4724.962931921632844
 20
325.8743307204355233
 30
0.0
 40
0.5618481497789515
 50
269.7227087861433006
 51
274.6236288387129889
  0
LINE
  5
BDDD
  8
0
 10
4724.9601730762306033
 20
325.4155816906073824
 30
0.0
 11
4724.4930467975782449
 21
325.4157040551182831
 31
0.0
  0
LINE
  5
BDDE
  8
0
 10
4724.3891545797869185
 20
325.4157312698587816
 30
0.0
 11
4722.9222529143316933
 21
325.4161155272063866
 31
0.0
  0
LINE
  5
BDDF
  8
0
 10
4724.9602127868456591
 20
325.3124891504925245
 30
0.0
 11
4724.4930467977692388
 21
325.3123560612634151
 31
0.0
  0
LINE
  5
BDE0
  8
0
 10
4724.3890847315642532
 20
325.3123264438863202
 30
0.0
 11
4722.9222459963602887
 21
325.3119085615037989
 31
0.0
  0
ARC
  5
BDE1
  8
0
 10
4722.9189827990976482
 20
324.9862835577580995
 30
0.0
 40
0.4298444086102546
 50
89.5641083027175
 51
110.2849164868305962
  0
ARC
  5
BDE2
  8
0
 10
4722.9251968219559785
 20
325.7510237771579114
 30
0.0
 40
0.4391251302199485
 50
250.7712039180482009
 51
269.6149818958319884
  0
ARC
  5
BDE3
  8
0
 10
4722.5889097284671152
 20
325.2623937939112011
 30
0.0
 40
1.9563745068865059
 50
340.7704145217147129
 51
346.2241182971163767
  0
ARC
  5
BDE4
  8
0
 10
4725.2508792442640697
 20
324.9161623000160262
 30
0.0
 40
0.867573248505267
 50
187.992892909211406
 51
200.0971024286826037
  0
ARC
  5
BDE5
  8
0
 10
4724.2611439449956379
 20
324.8396665333522719
 30
0.0
 40
0.231910981198762
 50
349.2809925487326268
 51
359.5203128886677177
  0
ARC
  5
BDE6
  8
0
 10
4720.9085087186422243
 20
324.6201925620526936
 30
0.0
 40
3.4876355157901711
 50
2.881637985650034
 51
3.7264702857654788
  0
LINE
  5
BDE7
  8
0
 10
4724.4930467986459917
 20
324.8377249695925002
 30
0.0
 11
4724.4930467977692388
 21
325.3123560612634151
 31
0.0
  0
LINE
  5
BDE8
  8
0
 10
4724.4930467975782449
 20
325.4157040551182831
 30
0.0
 11
4724.4930467948497608
 21
326.8915173987596745
 31
0.0
  0
LINE
  5
BDE9
  8
0
 10
4724.3887703205964499
 20
324.8468656150924971
 30
0.0
 11
4724.3890847315642532
 21
325.3123264438863202
 31
0.0
  0
LINE
  5
BDEA
  8
0
 10
4724.3891545797869185
 20
325.4157312698587816
 30
0.0
 11
4724.3901444118328072
 21
326.8811001391472928
 31
0.0
  0
ARC
  5
BDEB
  8
0
 10
4724.0104692784952931
 20
326.8582766600566742
 30
0.0
 40
0.4837210001650283
 50
3.940404078339121
 51
20.1885354393777092
  0
ARC
  5
BDEC
  8
0
 10
4724.6667501388819801
 20
326.9031033605799053
 30
0.0
 40
0.2774794947204015
 50
156.961337199124614
 51
184.5481439162074082
  0
ARC
  5
BDED
  8
0
 10
4713.0156871333792878
 20
337.5101183643889726
 30
0.0
 40
0.8886932265664524
 50
158.7005313381550025
 51
171.0177486850487014
  0
ARC
  5
BDEE
  8
0
 10
4711.3370093969851951
 20
337.5013750658463891
 30
0.0
 40
0.9130152673278267
 50
9.2920730802295122
 51
21.2933056187539798
  0
ARC
  5
BDEF
  8
0
 10
4712.5260977060634104
 20
337.6157699989312277
 30
0.0
 40
0.3896139897145329
 50
175.1267033170881859
 51
182.2096874624226075
  0
ARC
  5
BDF0
  8
0
 10
4711.6780243989678638
 20
337.6035065904495127
 30
0.0
 40
0.5618481497789515
 50
359.7227087861626842
 51
4.6236288387005571
  0
LINE
  5
BDF1
  8
0
 10
4712.1367734287950952
 20
337.6007477450468173
 30
0.0
 11
4712.1366510642847061
 21
337.1336214663936062
 31
0.0
  0
LINE
  5
BDF2
  8
0
 10
4712.1366238495438665
 20
337.0297292486022229
 30
0.0
 11
4712.1362395921960342
 21
335.5628275831480209
 31
0.0
  0
LINE
  5
BDF3
  8
0
 10
4712.2398659689097258
 20
337.6007874556617026
 30
0.0
 11
4712.2399990581398015
 21
337.1336214665846001
 31
0.0
  0
LINE
  5
BDF4
  8
0
 10
4712.2400286755164416
 20
337.029659400379785
 30
0.0
 11
4712.240446557899304
 21
335.5628206651759911
 31
0.0
  0
ARC
  5
BDF5
  8
0
 10
4712.5660715616450034
 20
335.5595574679138053
 30
0.0
 40
0.4298444086102546
 50
179.5641083027500997
 51
199.938451046985108
  0
ARC
  5
BDF6
  8
0
 10
4711.8013313422452484
 20
335.5657714907717946
 30
0.0
 40
0.4391251302199485
 50
340.4326940519924847
 51
359.6149818957994171
  0
ARC
  5
BDF7
  8
0
 10
4712.289961325492186
 20
335.229484397284125
 30
0.0
 40
1.9563745068865059
 50
70.7704145216776794
 51
76.2241182971328755
  0
ARC
  5
BDF8
  8
0
 10
4712.6361928193873609
 20
337.8914539130802268
 30
0.0
 40
0.867573248505267
 50
277.9928929092081944
 51
290.0971024287123896
  0
ARC
  5
BDF9
  8
0
 10
4712.7126885860507173
 20
336.9017186138123066
 30
0.0
 40
0.231910981198762
 50
79.2809925487537441
 51
89.5203128886613229
  0
ARC
  5
BDFA
  8
0
 10
4712.9321625573502388
 20
333.5490833874591203
 30
0.0
 40
3.4876355157901711
 50
92.8816379856168766
 51
93.7264702857659131
  0
LINE
  5
BDFB
  8
0
 10
4712.7146301498096364
 20
337.133621467461694
 30
0.0
 11
4712.2399990581398015
 21
337.1336214665846001
 31
0.0
  0
LINE
  5
BDFC
  8
0
 10
4712.1366510642847061
 20
337.1336214663936062
 30
0.0
 11
4710.6608377206430305
 21
337.1336214636663726
 31
0.0
  0
LINE
  5
BDFD
  8
0
 10
4712.7054895043102078
 20
337.0293449894118112
 30
0.0
 11
4712.2400286755164416
 21
337.029659400379785
 31
0.0
  0
LINE
  5
BDFE
  8
0
 10
4712.1366238495438665
 20
337.0297292486022229
 30
0.0
 11
4710.6712549802559806
 21
337.0307190806486233
 31
0.0
  0
ARC
  5
BDFF
  8
0
 10
4710.6940784593462013
 20
336.6510439473116207
 30
0.0
 40
0.4837210001650283
 50
93.9404040783512215
 51
108.3066990682658997
  0
ARC
  5
BE00
  8
0
 10
4710.6492517588221745
 20
337.3073248076987056
 30
0.0
 40
0.2774794947204015
 50
244.3442308360029074
 51
274.5481439161820276
  0
ARC
  5
BE01
  8
0
 10
4713.6925082404441127
 20
320.0383872172778865
 30
0.0
 40
0.8047619161885107
 50
23.3956815285692485
 51
38.4205509935221201
  0
ARC
  5
BE02
  8
0
 10
4714.7645486943602009
 20
321.1227179914362182
 30
0.0
 40
0.8343066622695117
 50
232.1365261047590991
 51
246.4428205108941938
  0
LINE
  5
BE03
  8
0
 10
4714.3230155514993385
 20
320.538489479275313
 30
0.0
 11
4713.3037432817873196
 21
321.558028948257288
 31
0.0
  0
LINE
  5
BE04
  8
0
 10
4713.2305353525825922
 20
321.6312560687065911
 30
0.0
 11
4712.2294921964139576
 21
322.6325616454363967
 31
0.0
  0
LINE
  5
BE05
  8
0
 10
4714.2524662545629326
 20
320.464053295586325
 30
0.0
 11
4713.2307522047731254
 21
321.4849246809415035
 31
0.0
  0
LINE
  5
BE06
  8
0
 10
4713.1574447459497605
 20
321.5581716790230757
 30
0.0
 11
4712.1560013252938006
 21
322.5587891535598146
 31
0.0
  0
ARC
  5
BE07
  8
0
 10
4711.7718736213473676
 20
322.1375706959041167
 30
0.0
 40
0.6741148272850264
 50
47.2466516717831126
 51
67.6755501536342194
  0
ARC
  5
BE08
  8
0
 10
4712.6802234381439121
 20
323.0322356426083275
 30
0.0
 40
0.7063712915967663
 50
202.5667392389792099
 51
222.0864864526120925
  0
ARC
  5
BE09
  8
0
 10
4714.7413624668743068
 20
322.0436761863740003
 30
0.0
 40
0.7810626513671521
 50
113.336915052938096
 51
128.8927084402693026
  0
ARC
  5
BE0A
  8
0
 10
4713.6497373303009226
 20
323.1022928630396791
 30
0.0
 40
0.8534945843435737
 50
322.5051471811402166
 51
336.4178752374759824
  0
LINE
  5
BE0B
  8
0
 10
4714.2509613369638828
 20
322.6515952575862798
 30
0.0
 11
4713.2305353525825922
 21
321.6312560687065911
 31
0.0
  0
LINE
  5
BE0C
  8
0
 10
4713.1574447459497605
 20
321.5581716790230757
 30
0.0
 11
4712.1480550229862274
 21
320.5488678128363063
 31
0.0
  0
LINE
  5
BE0D
  8
0
 10
4714.3269067830951826
 20
322.5827791118196046
 30
0.0
 11
4713.3037432817873196
 21
321.558028948257288
 31
0.0
  0
LINE
  5
BE0E
  8
0
 10
4713.2307522047731254
 20
321.4849246809415035
 30
0.0
 11
4712.2221480059797614
 21
320.4747563976114861
 31
0.0
  0
ARC
  5
BE0F
  8
0
 10
4712.6201982642987787
 20
320.1008004867521777
 30
0.0
 40
0.6509098009874906
 50
136.4987153501976991
 51
157.8581335044621881
  0
ARC
  5
BE10
  8
0
 10
4711.7255141499199453
 20
321.0382708302163906
 30
0.0
 40
0.751128286472392
 50
292.8581600108972225
 51
311.3902188490732215
  0
ARC
  5
BE11
  8
0
 10
4727.339517621549021
 20
318.9504297592212083
 30
0.0
 40
0.1769906975210268
 50
274.2078135100322811
 51
1.5243102836221689
  0
LINE
  5
BE12
  8
0
 10
4727.3525041723642062
 20
318.7739161435877122
 30
0.0
 11
4727.1386273392408839
 21
318.7626936556914075
 31
0.0
  0
ARC
  5
BE13
  8
0
 10
4727.1406671312079197
 20
318.7179619536789801
 30
0.0
 40
0.0447781857178553
 50
92.6109125826769457
 51
191.0629320166841865
  0
LINE
  5
BE14
  8
0
 10
4727.0967210579628954
 20
318.7093695987862816
 30
0.0
 11
4727.0967210579947277
 21
318.4112237197722948
 31
0.0
  0
ARC
  5
BE15
  8
0
 10
4727.3608422830011477
 20
318.4111188747996266
 30
0.0
 40
0.2641212458156908
 50
179.9772559963203094
 51
201.8284839623896971
  0
LINE
  5
BE16
  8
0
 10
4727.1156582424200678
 20
318.3129108367563731
 30
0.0
 11
4727.4104683924078927
 21
317.6104519436560167
 31
0.0
  0
ARC
  5
BE17
  8
0
 10
4726.1550749207963236
 20
317.0838424157286113
 30
0.0
 40
1.3613707663482011
 50
359.9993769532101169
 51
22.7569612334535805
  0
ARC
  5
BE18
  8
0
 10
4727.1147937140603972
 20
318.5180070790227091
 30
0.0
 40
0.0326111239803454
 50
91.9830990871836036
 51
123.6547253249021026
  0
LINE
  5
BE19
  8
0
 10
4727.1136652159530058
 20
318.5505986714857727
 30
0.0
 11
4727.3397397903354431
 21
318.5624621697515977
 31
0.0
  0
ARC
  5
BE1A
  8
0
 10
4727.3081575617698036
 20
318.7579206189740262
 30
0.0
 40
0.1979935416462415
 50
279.1785377307700173
 51
3.710659075359461
  0
LINE
  5
BE1B
  8
0
 10
4727.5057360288992641
 20
318.7707343561569928
 30
0.0
 11
4727.516143209609254
 21
318.9390671604248269
 31
0.0
  0
LINE
  5
BE1C
  8
0
 10
4730.0977550149636954
 20
342.2639200501861865
 30
0.0
 11
4728.3146084908248667
 21
342.198479327806524
 31
0.0
  0
LINE
  5
BE1D
  8
0
 10
4728.3146084908248667
 20
342.198479327806524
 30
0.0
 11
4728.2388758720226178
 21
342.1998225653996997
 31
0.0
  0
ARC
  5
BE1E
  8
0
 10
4728.2347892022144151
 20
342.2275617295948109
 30
0.0
 40
0.0280385823531831
 50
186.144014806657907
 51
278.3808083374898956
  0
ARC
  5
BE1F
  8
0
 10
4725.1549117790582386
 20
342.3796567368132173
 30
0.0
 40
3.0559381695423031
 50
341.1607148427337961
 51
357.0908570995459854
  0
ARC
  5
BE20
  8
0
 10
4728.159440360118424
 20
342.1142399837925723
 30
0.0
 40
0.085783452892203
 50
276.0837639633652998
 51
291.8061071315742083
  0
ARC
  5
BE21
  8
0
 10
8353.8506300585013378
 20
342.4017575598899157
 30
0.0
 40
3625.6437227151559455
 50
179.9971999237208138
 51
180.0028002269623073
  0
LINE
  5
BE22
  8
0
 10
4716.4483751790512542
 20
314.0598202099947116
 30
0.0
 11
4716.4484782074996474
 21
325.3363970132946861
 31
0.0
  0
LINE
  5
BE23
  8
0
 10
4716.4484786900393374
 20
325.3892115398905958
 30
0.0
 11
4716.4484802268098065
 21
325.5574127250329752
 31
0.0
  0
LINE
  5
BE24
  8
0
 10
4716.4485304775616896
 20
331.0574127250329752
 30
0.0
 11
4716.4485316232576224
 21
331.1828103293075856
 31
0.0
  0
LINE
  5
BE25
  8
0
 10
4716.4485325552832364
 20
331.2848215803451808
 30
0.0
 11
4716.4486056419127635
 21
339.2842333473495842
 31
0.0
  0
ARC
  5
BE26
  8
0
 10
4716.5247354657021788
 20
339.2843415735965209
 30
0.0
 40
0.0761299007168091
 50
90.0439707919057355
 51
180.0814516925252065
  0
LINE
  5
BE27
  8
0
 10
4716.5246770435496728
 20
339.3604714518946821
 30
0.0
 11
4716.5346766467591806
 21
339.3605169911940038
 31
0.0
  0
ARC
  5
BE28
  8
0
 10
4716.534500556713283
 20
339.2840752555475206
 30
0.0
 40
0.0764419384654369
 50
0.0795447166534216
 51
89.8680145274925053
  0
LINE
  5
BE29
  8
0
 10
4716.6109424215101171
 20
339.2841813811721181
 30
0.0
 11
4716.6108691057015676
 21
331.2848215803556968
 31
0.0
  0
LINE
  5
BE2A
  8
0
 10
4716.6108681708037693
 20
331.1828165273369109
 30
0.0
 11
4716.6108670214525773
 21
331.0574127250329752
 31
0.0
  0
LINE
  5
BE2B
  8
0
 10
4716.6108166127987715
 20
325.5574127250329752
 30
0.0
 11
4716.6108150712607312
 21
325.3892181545082849
 31
0.0
  0
LINE
  5
BE2C
  8
0
 10
4716.6108145871439774
 20
325.3363970132946861
 30
0.0
 11
4716.6107112349500312
 21
314.0598197007947192
 31
0.0
  0
LINE
  5
BE2D
  8
0
 10
4716.5004841743166253
 20
314.0598215809947078
 30
0.0
 11
4716.5005906969327043
 21
325.3363970132946861
 31
0.0
  0
LINE
  5
BE2E
  8
0
 10
4716.5005911958578508
 20
325.3892136632858865
 30
0.0
 11
4716.5005927847259954
 21
325.5574127250329752
 31
0.0
  0
LINE
  5
BE2F
  8
0
 10
4716.5006447397181546
 20
331.0574127250329752
 30
0.0
 11
4716.5006459242886194
 21
331.1828123190380211
 31
0.0
  0
LINE
  5
BE30
  8
0
 10
4716.5006468879037129
 20
331.2848215803485914
 30
0.0
 11
4716.500722405938177
 21
339.2792253727287175
 31
0.0
  0
ARC
  5
BE31
  8
0
 10
4716.5297829752626058
 20
339.279156216055128
 30
0.0
 40
0.0290606516126279
 50
0.1009607087079075
 51
179.8636510526494021
  0
LINE
  5
BE32
  8
0
 10
4716.5588435817589925
 20
339.2792074237092947
 30
0.0
 11
4716.5587682911327647
 21
331.2848215803523999
 31
0.0
  0
LINE
  5
BE33
  8
0
 10
4716.5587673304380587
 20
331.1828145381205104
 30
0.0
 11
4716.5587661494118947
 21
331.0574127250329752
 31
0.0
  0
LINE
  5
BE34
  8
0
 10
4716.5587143507564178
 20
325.5574127250329752
 30
0.0
 11
4716.5587127666904053
 21
325.3892160315286901
 31
0.0
  0
LINE
  5
BE35
  8
0
 10
4716.5587122692431876
 20
325.3363970132946861
 30
0.0
 11
4716.5586060671503219
 21
314.0598203711946894
 31
0.0
  0
LINE
  5
BE36
  8
0
 10
4712.16199228575897
 20
352.6388111126374838
 30
0.0
 11
4712.1619923762009421
 21
348.5073215792862129
 31
0.0
  0
LINE
  5
BE37
  8
0
 10
4712.2150615028558605
 20
348.5073215792862129
 30
0.0
 11
4712.2150627280625486
 21
352.6401657349858283
 31
0.0
  0
LINE
  5
BE38
  8
0
 10
4710.5393108538128217
 20
354.3327775022805213
 30
0.0
 11
4700.2295859683617891
 21
354.3329314568081827
 31
0.0
  0
LINE
  5
BE39
  8
0
 10
4710.5324965951722334
 20
354.2796623474707189
 30
0.0
 11
4700.2298448827423272
 21
354.2808212799128
 31
0.0
  0
LINE
  5
BE3A
  8
0
 10
4700.2211204650502623
 20
354.2922513593946974
 30
0.0
 11
4700.2211204650502623
 21
354.3205420789947198
 31
0.0
  0
ARC
  5
BE3B
  8
0
 10
4700.2317463783247149
 20
354.3223684023810165
 30
0.0
 40
0.0107817201799907
 50
101.5590124341799054
 51
189.7523963568239083
  0
ARC
  5
BE3C
  8
0
 10
4700.2301766001792203
 20
354.2901191270677259
 30
0.0
 40
0.0093037625814164
 50
166.7512254518169073
 51
267.9567365305802014
  0
LINE
  5
BE3D
  8
0
 10
4712.1619922471963946
 20
335.4129760118963191
 30
0.0
 11
4712.1620105693737059
 21
331.2848215800667049
 31
0.0
  0
LINE
  5
BE3E
  8
0
 10
4712.2150960401695556
 20
331.2848215800701155
 30
0.0
 11
4712.2150964316551836
 21
335.4187023547273725
 31
0.0
  0
LINE
  5
BE3F
  8
0
 10
4710.5291133078826533
 20
337.0572015928709106
 30
0.0
 11
4700.230052788156172
 21
337.0584459767970884
 31
0.0
  0
LINE
  5
BE40
  8
0
 10
4710.5421400188397456
 20
337.110283227314028
 30
0.0
 11
4700.2286852679053482
 21
337.1092965698314856
 31
0.0
  0
LINE
  5
BE41
  8
0
 10
4700.22112046725033
 20
337.0697514089947049
 30
0.0
 11
4700.2211204744489805
 21
337.0980422696947016
 31
0.0
  0
ARC
  5
BE42
  8
0
 10
4700.2314879287423537
 20
337.0992431471595978
 30
0.0
 40
0.0104367722590164
 50
105.5772359126378035
 51
186.6072098315910068
  0
ARC
  5
BE43
  8
0
 10
4700.2310998375605777
 20
337.0684546307152232
 30
0.0
 40
0.010063273111109
 50
172.5961359498232923
 51
264.0277597989223182
  0
LINE
  5
BE44
  8
0
 10
4724.4114021363975553
 20
327.0116955684840718
 30
0.0
 11
4724.4114021182140277
 21
331.1831143526786718
 31
0.0
  0
LINE
  5
BE45
  8
0
 10
4724.4644712518229426
 20
331.1831163788647245
 30
0.0
 11
4724.4644714743790246
 21
327.0252138103086281
 31
0.0
  0
LINE
  5
BE46
  8
0
 10
4722.7699605853640605
 20
325.389469117305282
 30
0.0
 11
4716.6108150712607312
 21
325.3892181545082849
 31
0.0
  0
LINE
  5
BE47
  8
0
 10
4716.5587127666904053
 20
325.3892160315286901
 30
0.0
 11
4716.5005911958578508
 21
325.3892136632858865
 31
0.0
  0
LINE
  5
BE48
  8
0
 10
4716.4484786900393374
 20
325.3892115398905958
 30
0.0
 11
4700.2303013260470834
 21
325.3885507081008086
 31
0.0
  0
LINE
  5
BE49
  8
0
 10
4722.7805748088358087
 20
325.3363970132946861
 30
0.0
 11
4716.6108145871439774
 21
325.3363970132946861
 31
0.0
  0
LINE
  5
BE4A
  8
0
 10
4716.5587122692431876
 20
325.3363970132946861
 30
0.0
 11
4716.5005906969327043
 21
325.3363970132946861
 31
0.0
  0
LINE
  5
BE4B
  8
0
 10
4716.4484782074996474
 20
325.3363970132946861
 30
0.0
 11
4700.2300257604565559
 21
325.3363970132946861
 31
0.0
  0
LINE
  5
BE4C
  8
0
 10
4700.2211204650502623
 20
325.3772319705947211
 30
0.0
 11
4700.2211204650357104
 21
325.3489404887546925
 31
0.0
  0
ARC
  5
BE4D
  8
0
 10
4700.2299241632999838
 20
325.3794738711408741
 30
0.0
 40
0.0090846695555111
 50
87.6206018209285844
 51
194.2869581704042048
  0
ARC
  5
BE4E
  8
0
 10
4700.2318064222981775
 20
325.347094116482026
 30
0.0
 40
0.0108442968050839
 50
170.196944094838102
 51
260.5490843790793178
  0
LINE
  5
BE4F
  8
0
 10
4723.7032038156930867
 20
346.9506346544897042
 30
0.0
 11
4723.7031850860412305
 21
348.4055879611137811
 31
0.0
  0
LINE
  5
BE50
  8
0
 10
4723.7031837764207012
 20
348.5073215792862129
 30
0.0
 11
4723.703173029492973
 21
349.3421625048895862
 31
0.0
  0
ARC
  5
BE51
  8
0
 10
4723.7731425989541094
 20
349.3432212215076902
 30
0.0
 40
0.0699775787764331
 50
89.8713110402284769
 51
180.8668820694859107
  0
LINE
  5
BE52
  8
0
 10
4723.7732997716866521
 20
349.4131986237753722
 30
0.0
 11
4726.0316773164404367
 21
349.4131983989352079
 31
0.0
  0
LINE
  5
BE53
  8
0
 10
4726.031690613268438
 20
346.8796549182810054
 30
0.0
 11
4723.7733599638931992
 21
346.8796509399896877
 31
0.0
  0
ARC
  5
BE54
  8
0
 10
4723.7731349145133208
 20
346.9495894866633989
 30
0.0
 40
0.0699389087564662
 50
179.143739364404496
 51
270.1843666436164995
  0
LINE
  5
BE55
  8
0
 10
4723.1334036400467085
 20
349.4131966171710815
 30
0.0
 11
4723.6192705199946431
 21
349.4131965687990942
 31
0.0
  0
ARC
  5
BE56
  8
0
 10
4723.6195019121551013
 20
349.3432263632209924
 30
0.0
 40
0.0699705881849908
 50
359.13413443658402
 51
90.1894770176523792
  0
LINE
  5
BE57
  8
0
 10
4723.6894645105940072
 20
349.3421689935989889
 30
0.0
 11
4723.6894535412066034
 21
348.5073215792862129
 31
0.0
  0
LINE
  5
BE58
  8
0
 10
4723.6894522044831319
 20
348.4055874396347008
 30
0.0
 11
4723.6894330872946739
 21
346.9506352034990186
 31
0.0
  0
ARC
  5
BE59
  8
0
 10
4723.6195117066572493
 20
346.9495907084271948
 30
0.0
 40
0.0699291816069565
 50
269.8186353982289916
 51
0.8558284741055247
  0
LINE
  5
BE5A
  8
0
 10
4723.6192903525361544
 20
346.8796618771588101
 30
0.0
 11
4723.13339085152802
 21
346.8796610211946927
 31
0.0
  0
LINE
  5
BE5B
  8
0
 10
4723.7032038042889326
 20
341.8545388164001793
 30
0.0
 11
4723.7031730180888189
 21
344.246066666800175
 31
0.0
  0
ARC
  5
BE5C
  8
0
 10
4723.7731425875499554
 20
344.2471253834182789
 30
0.0
 40
0.0699775787764331
 50
89.8713110402284769
 51
180.8668820694859107
  0
LINE
  5
BE5D
  8
0
 10
4723.7732997602815885
 20
344.3171027856859041
 30
0.0
 11
4726.0317040623449429
 21
344.3171025608430114
 31
0.0
  0
LINE
  5
BE5E
  8
0
 10
4726.0317173591729443
 20
341.7835590802387742
 30
0.0
 11
4723.7733599524890451
 21
341.7835551019002196
 31
0.0
  0
ARC
  5
BE5F
  8
0
 10
4723.7731349031100763
 20
341.853493648573874
 30
0.0
 40
0.0699389087564662
 50
179.143739364404496
 51
270.1843666436164995
  0
LINE
  5
BE60
  8
0
 10
4723.1333779165033775
 20
344.3171007790842282
 30
0.0
 11
4723.6192705085913985
 21
344.3171007307096261
 31
0.0
  0
ARC
  5
BE61
  8
0
 10
4723.6195019007518567
 20
344.2471305251315243
 30
0.0
 40
0.0699705881849908
 50
359.13413443658402
 51
90.1894770176523792
  0
LINE
  5
BE62
  8
0
 10
4723.6894644991916721
 20
344.2460731555095208
 30
0.0
 11
4723.6894330758914293
 21
341.8545393654094937
 31
0.0
  0
ARC
  5
BE63
  8
0
 10
4723.6195116952540047
 20
341.8534948703377268
 30
0.0
 40
0.0699291816069565
 50
269.8186353982289916
 51
0.8558284741055247
  0
LINE
  5
BE64
  8
0
 10
4723.6192903411310908
 20
341.7835660390692851
 30
0.0
 11
4723.1333651279837795
 21
341.7835651830599772
 31
0.0
  0
LINE
  5
BE65
  8
0
 10
4723.7032038155402915
 20
336.7584346545704079
 30
0.0
 11
4723.7031730293401779
 21
339.14996250497029
 31
0.0
  0
ARC
  5
BE66
  8
0
 10
4723.7731425988013143
 20
339.1510212215883939
 30
0.0
 40
0.0699775787764331
 50
89.8713110402284769
 51
180.8668820694859107
  0
LINE
  5
BE67
  8
0
 10
4723.773299771533857
 20
339.2209986238560759
 30
0.0
 11
4726.0317308082931049
 21
339.2209983990105115
 31
0.0
  0
LINE
  5
BE68
  8
0
 10
4726.0317441051229252
 20
336.6874549184560124
 30
0.0
 11
4723.7733599637404041
 21
336.6874509400702777
 31
0.0
  0
ARC
  5
BE69
  8
0
 10
4723.7731349143614352
 20
336.7573894867441027
 30
0.0
 40
0.0699389087564662
 50
179.143739364404496
 51
270.1843666436164995
  0
LINE
  5
BE6A
  8
0
 10
4723.1333521929163908
 20
339.2209966172569011
 30
0.0
 11
4723.619270519841848
 21
339.2209965688797979
 31
0.0
  0
ARC
  5
BE6B
  8
0
 10
4723.6195019120023062
 20
339.1510263633015825
 30
0.0
 40
0.0699705881849908
 50
359.13413443658402
 51
90.1894770176523792
  0
LINE
  5
BE6C
  8
0
 10
4723.689464510441212
 20
339.1499689936796926
 30
0.0
 11
4723.6894330871418788
 21
336.7584352035797224
 31
0.0
  0
ARC
  5
BE6D
  8
0
 10
4723.6195117065044542
 20
336.7573907085077849
 30
0.0
 40
0.0699291816069565
 50
269.8186353982289916
 51
0.8558284741055247
  0
LINE
  5
BE6E
  8
0
 10
4723.6192903523824498
 20
336.6874618772395138
 30
0.0
 11
4723.1333394043967928
 21
336.6874610211846743
 31
0.0
  0
LINE
  5
BE6F
  8
0
 10
4723.7032038042889326
 20
331.6623388164002222
 30
0.0
 11
4723.7031730180888189
 21
334.0538666668001042
 31
0.0
  0
ARC
  5
BE70
  8
0
 10
4723.7731425875499554
 20
334.0549253834182082
 30
0.0
 40
0.0699775787764331
 50
89.8713110402284769
 51
180.8668820694859107
  0
LINE
  5
BE71
  8
0
 10
4723.7732997602815885
 20
334.1249027856858902
 30
0.0
 11
4726.0317575541994302
 21
334.124902560837711
 31
0.0
  0
LINE
  5
BE72
  8
0
 10
4726.0317708510292505
 20
331.591359080332893
 30
0.0
 11
4723.7733599524890451
 21
331.5913551019002057
 31
0.0
  0
ARC
  5
BE73
  8
0
 10
4723.7731349031100763
 20
331.6612936485739169
 30
0.0
 40
0.0699389087564662
 50
179.143739364404496
 51
270.1843666436164995
  0
LINE
  5
BE74
  8
0
 10
4723.1333264693712408
 20
334.1249007790892733
 30
0.0
 11
4723.6192705085913985
 21
334.1249007307096122
 31
0.0
  0
ARC
  5
BE75
  8
0
 10
4723.6195019007518567
 20
334.0549305251315104
 30
0.0
 40
0.0699705881849908
 50
359.13413443658402
 51
90.1894770176523792
  0
LINE
  5
BE76
  8
0
 10
4723.6894644991916721
 20
334.0538731555095069
 30
0.0
 11
4723.6894330758914293
 21
331.6623393654094798
 31
0.0
  0
ARC
  5
BE77
  8
0
 10
4723.6195116952540047
 20
331.6612948703375991
 30
0.0
 40
0.0699291816069565
 50
269.8186353982289916
 51
0.8558284741055247
  0
LINE
  5
BE78
  8
0
 10
4723.6192903411310908
 20
331.5913660390693281
 30
0.0
 11
4723.1333136808516429
 21
331.5913651829692981
 31
0.0
  0
ARC
  5
BE79
  8
0
 10
4700.0595451877634332
 20
313.5298215793283134
 30
0.0
 40
0.029999999999891
 50
89.9999999998957776
 51
180.0042073803815867
  0
ARC
  5
BE7A
  8
0
 10
4706.3162260928402247
 20
306.5416073213214077
 30
0.0
 40
0.2753973345276676
 50
28.5917689578992409
 51
46.120315657585337
  0
ARC
  5
BE7B
  8
0
 10
4706.5775588541164325
 20
306.6855975995995891
 30
0.0
 40
0.0230157344584192
 50
211.9943426141213934
 51
266.0658652984441801
  0
LINE
  5
BE7C
  8
0
 10
4699.8728304099640809
 20
293.0598215793282861
 30
0.0
 11
4699.998358575329803
 21
293.1096579200445831
 31
0.0
  0
LINE
  5
BE7D
  8
0
 10
4700.1123005466170071
 20
293.5102004095089114
 30
0.0
 11
4700.0600956964062789
 21
296.5021698586648995
 31
0.0
  0
LINE
  5
BE7E
  8
0
 10
4699.9133151258638463
 20
293.6598215793281952
 30
0.0
 11
4699.9819012300640679
 21
293.6598215793281952
 31
0.0
  0
ARC
  5
BE7F
  8
0
 10
4699.9819012300640679
 20
293.6898215793282816
 30
0.0
 40
0.0300000000000011
 50
270.0
 51
0.0
  0
LINE
  5
BE80
  8
0
 10
4700.0119012300629038
 20
293.6898215793282816
 30
0.0
 11
4699.9487163732092085
 21
297.3099790664115858
 31
0.0
  0
ARC
  5
BE81
  8
0
 10
4699.9133785515678028
 20
293.6294488541732903
 30
0.0
 40
0.030372791379099
 50
90.1196474737927673
 51
178.8260930543133895
  0
CIRCLE
  5
BE82
  8
0
 10
4716.5295384880628262
 20
308.5118294425781755
 30
0.0
 40
1.251638803867934
  0
LINE
  5
BE83
  8
0
 10
4713.5558002392772323
 20
310.1088364107312145
 30
0.0
 11
4719.5038337418745868
 21
310.1088367851282896
 31
0.0
  0
LINE
  5
BE84
  8
0
 10
4713.5558002426596431
 20
310.1088364107312145
 30
0.0
 11
4714.6590922238328858
 21
306.9229690366004206
 31
0.0
  0
LINE
  5
BE85
  8
0
 10
4718.3963187513663797
 20
306.9157358844234977
 30
0.0
 11
4719.5038337418745868
 21
310.1088367851282896
 31
0.0
  0
ARC
  5
BE86
  8
0
 10
4721.026574722791338
 20
308.9028149428771144
 30
0.0
 40
6.6681799006286431
 50
197.2720742501923894
 51
219.1517191177497068
  0
ARC
  5
BE87
  8
0
 10
4711.9095784984656348
 20
308.965447477446105
 30
0.0
 40
6.8028756216147084
 50
321.0711339109698201
 51
342.4642534776368166
  0
ARC
  5
BE88
  8
0
 10
4716.5293332168557754
 20
305.1961580064520945
 30
0.0
 40
0.841106502363743
 50
216.7684955286547961
 51
323.0732039563567923
  0
ARC
  5
BE89
  8
0
 10
4707.0941605632369829
 20
292.5547282800503126
 30
0.0
 40
2.0022988535893709
 50
38.7577339742013933
 51
51.8334372895626885
  0
ARC
  5
BE8A
  8
0
 10
4708.9049300045217024
 20
297.5305491796298156
 30
0.0
 40
3.4752464585848419
 50
265.8283968175671248
 51
268.6555652141241239
  0
ARC
  5
BE8B
  8
0
 10
4710.2157990446321492
 20
295.0603954045183741
 30
0.0
 40
2.000574445336158
 50
218.7486778801612104
 51
269.9548864232816072
  0
LINE
  5
BE8C
  8
0
 10
4710.2142238315864233
 20
293.0598215793282861
 30
0.0
 11
4723.7659489527641199
 21
293.0598215793282861
 31
0.0
  0
LINE
  5
BE8D
  8
0
 10
4709.1515834039673791
 20
293.1098147826676268
 30
0.0
 11
4709.1542034988642627
 21
293.0598215793281724
 31
0.0
  0
LINE
  5
BE8E
  8
0
 10
4709.1542034988642627
 20
293.0598215793281724
 30
0.0
 11
4709.6854867308638859
 21
293.0598215793282861
 31
0.0
  0
LINE
  5
BE8F
  8
0
 10
4709.6854867308638859
 20
293.0598215793282861
 30
0.0
 11
4709.6846140754323642
 21
293.109819290410428
 31
0.0
  0
LINE
  5
BE90
  8
0
 10
4710.2930267538586122
 20
293.0878438113880975
 30
0.0
 11
4710.2359159123561767
 21
293.9522515843269161
 31
0.0
  0
ARC
  5
BE91
  8
0
 10
4710.3229615074069443
 20
293.0898215871486059
 30
0.0
 40
0.0300000177816404
 50
183.7800127274990984
 51
269.9533087372474256
  0
LINE
  5
BE92
  8
0
 10
4710.3948234818935816
 20
293.0899372577684971
 30
0.0
 11
4710.3915665547638127
 21
293.9381520990281729
 31
0.0
  0
ARC
  5
BE93
  8
0
 10
4710.3648237049737872
 20
293.089821579261411
 30
0.0
 40
0.0299999999451407
 50
269.998382201545212
 51
0.220930222430075
  0
LINE
  5
BE94
  8
0
 10
4708.8233914771517448
 20
294.0562594081138741
 30
0.0
 11
4710.4524936590751167
 21
293.9993800089279716
 31
0.0
  0
ARC
  5
BE95
  8
0
 10
4710.17397676796827
 20
293.9470572452539727
 30
0.0
 40
0.0621565665561521
 50
4.7937205060345471
 51
84.0551789084095873
  0
ARC
  5
BE96
  8
0
 10
4710.452358488295431
 20
293.9385866724076095
 30
0.0
 40
0.0607934867929468
 50
89.8726060738425758
 51
180.4095740168968121
  0
LINE
  5
BE97
  8
0
 10
4710.4524936590751167
 20
293.9993800089279716
 30
0.0
 11
4712.5024947559877546
 21
293.9278698319541832
 31
0.0
  0
ARC
  5
BE98
  8
0
 10
4711.440419737898992
 20
293.0786620899000923
 30
0.0
 40
0.885739085587696
 50
43.1205219348088917
 51
87.6010639733472942
  0
ARC
  5
BE99
  8
0
 10
4712.9263756788323008
 20
294.4320422702866722
 30
0.0
 40
1.1243141448216309
 50
221.7012552323695047
 51
273.4969780028570767
  0
LINE
  5
BE9A
  8
0
 10
4712.9949542252652464
 20
293.3098215793282861
 30
0.0
 11
4713.2686755011427522
 21
293.3098215793282861
 31
0.0
  0
LINE
  5
BE9B
  8
0
 10
4713.2817786352643452
 20
293.0598215793282861
 30
0.0
 11
4713.2397780805013099
 21
293.861167165356278
 31
0.0
  0
ARC
  5
BE9C
  8
0
 10
4713.5386143331552375
 20
293.893507871683596
 30
0.0
 40
0.5910119579167751
 50
215.122166584210504
 51
242.4824786985861067
  0
ARC
  5
BE9D
  8
0
 10
4712.2901763765567011
 20
293.0192304391399034
 30
0.0
 40
0.9331155557694325
 50
34.9282443297115179
 51
81.9366707568993462
  0
ARC
  5
BE9E
  8
0
 10
4706.3250898919750398
 20
114.1112077171238042
 30
0.0
 40
179.9352046387394068
 50
87.8095637554474138
 51
88.0585214781863073
  0
ARC
  5
BE9F
  8
0
 10
4713.1775796201136473
 20
293.8578029342094169
 30
0.0
 40
0.0622893773087084
 50
3.0960348426998401
 51
66.5219060762989756
  0
ARC
  5
BEA0
  8
0
 10
4713.1795024481189103
 20
293.8636122164169819
 30
0.0
 40
0.0561976786239578
 50
65.9603662334020555
 51
88.7657151962187356
  0
ARC
  5
BEA1
  8
0
 10
4713.181013123899902
 20
293.9228520640853048
 30
0.0
 40
0.0030699157517636
 50
233.7487474368539893
 51
264.3893296196134202
  0
ARC
  5
BEA2
  8
0
 10
4713.1808906861979267
 20
293.9177746947287915
 30
0.0
 40
0.0031039762664714
 50
91.7682971978357642
 51
123.0515304730852932
  0
ARC
  5
BEA3
  8
0
 10
4713.2126410972095982
 20
282.4396008365009152
 30
0.0
 40
11.4813205229487991
 50
87.389347770447074
 51
90.1589237723915176
  0
LINE
  5
BEA4
  8
0
 10
4713.7997063812654233
 20
293.8182071959474229
 30
0.0
 11
4713.8129404396640894
 21
293.0598215793282861
 31
0.0
  0
ARC
  5
BEA5
  8
0
 10
4714.9648627613360077
 20
293.4102672600911887
 30
0.0
 40
0.1429795411733518
 50
224.6293626548946065
 51
268.7530318522586867
  0
LINE
  5
BEA6
  8
0
 10
4714.9617512431632349
 20
293.2673215793283248
 30
0.0
 11
4718.0973391323641408
 21
293.2673215793283248
 31
0.0
  0
ARC
  5
BEA7
  8
0
 10
4718.0976819445622823
 20
293.3903444100068896
 30
0.0
 40
0.1230233083135481
 50
269.8403414944955898
 51
319.115741356504202
  0
LINE
  5
BEA8
  8
0
 10
4716.2843714946639011
 20
293.2673215793283248
 30
0.0
 11
4716.2915429239092191
 21
293.0598215793282861
 31
0.0
  0
LINE
  5
BEA9
  8
0
 10
4716.799491951464006
 20
293.2673215793283248
 30
0.0
 11
4716.8065614799133982
 21
293.0598215793282861
 31
0.0
  0
LINE
  5
BEAA
  8
0
 10
4713.8085778640643184
 20
293.3098215793282861
 30
0.0
 11
4719.2723327673638778
 21
293.3098215793282861
 31
0.0
  0
LINE
  5
BEAB
  8
0
 10
4713.5379607214963471
 20
294.1063221046267131
 30
0.0
 11
4713.5883920010637667
 21
294.1280974107282873
 31
0.0
  0
ARC
  5
BEAC
  8
0
 10
4712.8368765046061526
 20
293.2064511203535062
 30
0.0
 40
1.1407396142450421
 50
27.3289775863440596
 51
52.0780523624531497
  0
ARC
  5
BEAD
  8
0
 10
4714.5056630411791048
 20
294.018111649011189
 30
0.0
 40
0.7158383389014349
 50
203.7191077473464986
 51
261.6720864663168982
  0
ARC
  5
BEAE
  8
0
 10
4710.5524791088901111
 20
285.784086682180714
 30
0.0
 40
8.8791487276081398
 50
67.3625880908981287
 51
70.0064193116743638
  0
ARC
  5
BEAF
  8
0
 10
4714.457932138239812
 20
295.3663634730646095
 30
0.0
 40
1.470481886107174
 50
250.6227609753995011
 51
267.1440929188856899
  0
ARC
  5
BEB0
  8
0
 10
4585.6206421108281575
 20
-2321.4085011749061778
 30
0.0
 40
2618.4741246240100736
 50
87.1723299929524842
 51
87.1813310097874279
  0
ARC
  5
BEB1
  8
0
 10
4714.7571196302124008
 20
293.1149980290459212
 30
0.0
 40
0.7634156603753804
 50
73.201902968724653
 51
87.116575270877135
  0
ARC
  5
BEB2
  8
0
 10
4715.050540664122309
 20
293.7718540193793046
 30
0.0
 40
0.1037910893225262
 50
134.5354358860203092
 51
176.401026474115298
  0
LINE
  5
BEB3
  8
0
 10
4714.9777467570265799
 20
293.8458380535518017
 30
0.0
 11
4715.0824853284530036
 21
293.8456780457635205
 31
0.0
  0
LINE
  5
BEB4
  8
0
 10
4714.9469542660672232
 20
293.7783692600145855
 30
0.0
 11
4714.9618306483644119
 21
293.3395146932281818
 31
0.0
  0
ARC
  5
BEB5
  8
0
 10
4714.9347466055187397
 20
293.3364396599297947
 30
0.0
 40
0.0272580484740473
 50
282.4400670031155869
 51
6.4774370648923352
  0
ARC
  5
BEB6
  8
0
 10
4715.6860694751949268
 20
293.3387538991037218
 30
0.0
 40
0.02896005786754
 50
272.5079038392632924
 51
1.954987351094309
  0
LINE
  5
BEB7
  8
0
 10
4715.7150126764627203
 20
293.3397418525282774
 30
0.0
 11
4715.7082582602743059
 21
293.7766178644525894
 31
0.0
  0
ARC
  5
BEB8
  8
0
 10
4715.7823745022951698
 20
293.7744603454760863
 30
0.0
 40
0.0741476379901631
 50
108.8550687915201962
 51
178.3325944648395875
  0
ARC
  5
BEB9
  8
0
 10
4716.3640646527010176
 20
294.8125069151371918
 30
0.0
 40
1.2349672826243061
 50
196.2908693330610106
 51
219.5927752040041128
  0
ARC
  5
BEBA
  8
0
 10
4715.7288188553056898
 20
294.2739120414760237
 30
0.0
 40
0.4023187455908325
 50
218.1430489606541983
 51
260.5460526127167782
  0
LINE
  5
BEBB
  8
0
 10
4715.7584118096629027
 20
293.8446291532283112
 30
0.0
 11
4716.4127775500637654
 21
293.8450051769282254
 31
0.0
  0
ARC
  5
BEBC
  8
0
 10
4714.7968036624997694
 20
294.3277345101616902
 30
0.0
 40
0.4061655435036485
 50
19.914501261307489
 51
33.2656577284485167
  0
ARC
  5
BEBD
  8
0
 10
4714.0355572126663901
 20
293.8288416550581132
 30
0.0
 40
1.316324971513859
 50
33.2474715125254505
 51
39.4222348241062406
  0
ARC
  5
BEBE
  8
0
 10
4713.386408784561354
 20
294.3484216164823124
 30
0.0
 40
1.6957575698583249
 50
1.31583636299008
 51
10.7509212687273195
  0
LINE
  5
BEBF
  8
0
 10
4715.0524013974627451
 20
294.6647479503282057
 30
0.0
 11
4714.9874046877639557
 21
294.6268849776283218
 31
0.0
  0
ARC
  5
BEC0
  8
0
 10
4708.6393845936981961
 20
294.2997379417824959
 30
0.0
 40
6.356444312485996
 50
0.561089932604447
 51
2.9501445250016318
  0
ARC
  5
BEC1
  8
0
 10
4717.7907911662123297
 20
294.5673130470773913
 30
0.0
 40
2.8027981707504419
 50
184.2011561214584106
 51
194.9199631502779937
  0
ARC
  5
BEC2
  8
0
 10
4716.2813008988159709
 20
294.1440144404871262
 30
0.0
 40
1.2353798514182559
 50
193.9747138203017869
 51
213.5303962232106869
  0
ARC
  5
BEC3
  8
0
 10
4715.5124714504172516
 20
293.6087341499667787
 30
0.0
 40
0.2995852822522251
 50
209.4110694019599919
 51
266.1596292263184864
  0
ARC
  5
BEC4
  8
0
 10
4716.5058953283269148
 20
293.3398216265921974
 30
0.0
 40
0.0300000472639486
 50
184.0133061123530069
 51
269.9999156592638201
  0
LINE
  5
BEC5
  8
0
 10
4716.4759688464773717
 20
293.3377219790356776
 30
0.0
 11
4716.2677100092905675
 21
297.0871080305475971
 31
0.0
  0
ARC
  5
BEC6
  8
0
 10
4716.4024487644574037
 20
293.7967051000787819
 30
0.0
 40
0.0493921171422344
 50
17.0487254063706715
 51
77.9293244318435256
  0
LINE
  5
BEC7
  8
0
 10
4716.2677100092905675
 20
297.0871080305475971
 30
0.0
 11
4716.3028426550627046
 21
298.0715420166282001
 31
0.0
  0
LINE
  5
BEC8
  8
0
 10
4716.3028426550627046
 20
298.0715420166282001
 30
0.0
 11
4716.3105721895781244
 21
298.3049743193067798
 31
0.0
  0
ARC
  5
BEC9
  8
0
 10
4716.3060015187347744
 20
297.5804170450912807
 30
0.0
 40
0.7365554351716054
 50
81.4127315124337088
 51
89.2630028497875827
  0
ARC
  5
BECA
  8
0
 10
4717.3145574903492161
 20
294.4536287290604832
 30
0.0
 40
2.2338214179687972
 50
181.6999287629222124
 51
203.2638529183577134
  0
ARC
  5
BECB
  8
0
 10
4715.6404243301731185
 20
293.6998974262427282
 30
0.0
 40
0.3993267866771706
 50
198.7792151988259093
 51
257.6431057712184156
  0
ARC
  5
BECC
  8
0
 10
4716.3306784930919093
 20
298.3036910325893132
 30
0.0
 40
0.0201472148399181
 50
138.9896291926548031
 51
176.3480450148724969
  0
ARC
  5
BECD
  8
0
 10
4716.3988643741176929
 20
298.2943293518246151
 30
0.0
 40
0.0223590841829252
 50
15.84288094867604
 51
40.0464919981664522
  0
ARC
  5
BECE
  8
0
 10
4714.3420579885505504
 20
297.9586186379182777
 30
0.0
 40
2.1062372341505942
 50
2.602191778419892
 51
9.3396621613112671
  0
LINE
  5
BECF
  8
0
 10
4716.4461233419642667
 20
298.054244341028209
 30
0.0
 11
4716.5492036034638659
 21
297.0725386965282269
 31
0.0
  0
LINE
  5
BED0
  8
0
 10
4716.5492036034638659
 20
297.0725386965282269
 30
0.0
 11
4716.6029960247633426
 21
293.3398216382282726
 31
0.0
  0
LINE
  5
BED1
  8
0
 10
4716.6029960247633426
 20
293.3398216382282726
 30
0.0
 11
4716.4461233419642667
 21
298.054244341028209
 31
0.0
  0
LINE
  5
BED2
  8
0
 10
4716.3028426550627046
 20
298.0715420166282001
 30
0.0
 11
4716.4759688464773717
 21
293.3377219790356776
 31
0.0
  0
ARC
  5
BED3
  8
0
 10
4716.5729959514073926
 20
293.3398216526846909
 30
0.0
 40
0.0300000733565371
 50
270.0001401003261776
 51
359.9999723902889741
  0
ARC
  5
BED4
  8
0
 10
4721.6326966060396444
 20
293.0493539588946987
 30
0.0
 40
0.9155688381542209
 50
92.606291326862447
 51
136.1722160725134074
  0
ARC
  5
BED5
  8
0
 10
4720.1318881153247276
 20
294.4355531815058953
 30
0.0
 40
1.1277681898139029
 50
266.5558394001200782
 51
318.1672785691113745
  0
LINE
  5
BED6
  8
0
 10
4720.0641365987639801
 20
293.3098219427283198
 30
0.0
 11
4719.8122351294641703
 21
293.3098215793282861
 31
0.0
  0
ARC
  5
BED7
  8
0
 10
4719.5189687692036387
 20
293.892155210528415
 30
0.0
 40
0.5921350046813502
 50
299.5568826063022811
 51
324.9767276540105172
  0
ARC
  5
BED8
  8
0
 10
4720.7506837840628577
 20
293.0400075889409095
 30
0.0
 40
0.9056403553529847
 50
92.8455549425850251
 51
145.5494537146281004
  0
ARC
  5
BED9
  8
0
 10
4723.4294101923624112
 20
203.0204381419553954
 30
0.0
 40
90.964878809110246
 50
91.7158164495809842
 51
92.2612400825870367
  0
ARC
  5
BEDA
  8
0
 10
4719.8662923855026747
 20
293.8563893613408027
 30
0.0
 40
0.0636383275193203
 50
114.0925501784369942
 51
183.3377869154001871
  0
ARC
  5
BEDB
  8
0
 10
4719.8736286045068482
 20
293.815715288548688
 30
0.0
 40
0.1042357223438625
 50
96.488368454626837
 51
108.6389671237871966
  0
ARC
  5
BEDC
  8
0
 10
4719.8616270068077938
 20
293.9219567558706103
 30
0.0
 40
0.0026826622224481
 50
274.7640907598189983
 51
309.8257216983279818
  0
ARC
  5
BEDD
  8
0
 10
4719.8614861419609952
 20
293.9165589814887198
 30
0.0
 40
0.0038203069020748
 50
60.8821881968488228
 51
86.2837754393642626
  0
ARC
  5
BEDE
  8
0
 10
4719.8276481076545679
 20
282.5311293835443962
 30
0.0
 40
11.3892928774384892
 50
89.828526085410715
 51
92.554477026446321
  0
LINE
  5
BEDF
  8
0
 10
4719.5195916899392614
 20
294.1069550327878233
 30
0.0
 11
4719.4698458208640659
 21
294.128484077528185
 31
0.0
  0
ARC
  5
BEE0
  8
0
 10
4720.1835141076971922
 20
293.2377456248989915
 30
0.0
 40
1.0937632154919059
 50
127.3734350660310071
 51
153.2018437026966069
  0
ARC
  5
BEE1
  8
0
 10
4718.5224648821968003
 20
294.0507252778194811
 30
0.0
 40
0.7557774460645259
 50
281.3858563139265812
 51
334.9621479128820738
  0
ARC
  5
BEE2
  8
0
 10
4725.2432338322923897
 20
278.4169234284494792
 30
0.0
 40
16.7387319460040906
 50
110.1764185382699992
 51
111.6058442043287044
  0
ARC
  5
BEE3
  8
0
 10
4718.5480987794708199
 20
295.5963676418688237
 30
0.0
 40
1.7019487718075681
 50
273.1696696723470268
 51
288.2011120323008981
  0
ARC
  5
BEE4
  8
0
 10
4750.9935421522695833
 20
-366.8096294145012166
 30
0.0
 40
661.4982154177797611
 50
92.8032347894254741
 51
92.8376921557901085
  0
ARC
  5
BEE5
  8
0
 10
4718.2760200359643932
 20
293.1616034632550054
 30
0.0
 40
0.7165213379888414
 50
92.492053708316007
 51
108.5873121935856034
  0
ARC
  5
BEE6
  8
0
 10
4717.9775864934699712
 20
293.7661629029486221
 30
0.0
 40
0.1023194867320353
 50
5.6038817857950347
 51
46.7997923584094124
  0
LINE
  5
BEE7
  8
0
 10
4718.0476292723005827
 20
293.8407503449136016
 30
0.0
 11
4717.9722578017635897
 21
293.8408862809282027
 31
0.0
  0
LINE
  5
BEE8
  8
0
 10
4718.079416973527259
 20
293.7761544341979061
 30
0.0
 11
4718.0952014584636345
 21
293.3380344905281731
 31
0.0
  0
ARC
  5
BEE9
  8
0
 10
4718.1247151782608853
 20
293.3381329069845833
 30
0.0
 40
0.0295138838866767
 50
180.191057810551797
 51
253.5879469559370136
  0
ARC
  5
BEEA
  8
0
 10
4717.3739401726297729
 20
293.3416474003377061
 30
0.0
 40
0.032104670577324
 50
186.8679749066427007
 51
262.4429304880882228
  0
LINE
  5
BEEB
  8
0
 10
4717.3420658743643799
 20
293.337808262028318
 30
0.0
 11
4717.3182592857956479
 21
293.7781996791921983
 31
0.0
  0
ARC
  5
BEEC
  8
0
 10
4717.2425516396988314
 20
293.7702606781094801
 30
0.0
 40
0.076122765422838
 50
5.9863814564801938
 51
70.8257628314110548
  0
ARC
  5
BEED
  8
0
 10
4716.2181195561943241
 20
295.1160787142791833
 30
0.0
 40
1.7716070564187709
 50
322.8721269817103234
 51
338.6340419637039076
  0
ARC
  5
BEEE
  8
0
 10
4717.2747448732779958
 20
294.3101148745619753
 30
0.0
 40
0.4427195177229224
 50
282.4562081633421258
 51
323.4949611115407038
  0
LINE
  5
BEEF
  8
0
 10
4717.2675535513626528
 20
293.8421604682953898
 30
0.0
 11
4716.6327185037644085
 21
293.8446281179282096
 31
0.0
  0
ARC
  5
BEF0
  8
0
 10
4718.1094815864607881
 20
294.3694399660449221
 30
0.0
 40
0.2618590989335959
 50
143.2208335340471876
 51
157.2649911414071084
  0
ARC
  5
BEF1
  8
0
 10
4719.6916854821492961
 20
294.3164204488425071
 30
0.0
 40
1.7234974834698169
 50
168.2858421891444038
 51
177.4343052869693906
  0
LINE
  5
BEF2
  8
0
 10
4718.0040838462427928
 20
294.6663408598109868
 30
0.0
 11
4718.0809223035630566
 21
294.62176608382822
 31
0.0
  0
ARC
  5
BEF3
  8
0
 10
4725.0067783852573484
 20
293.8154950239090795
 30
0.0
 40
6.9726290225704766
 50
173.3598213826008987
 51
175.4615700440253931
  0
ARC
  5
BEF4
  8
0
 10
4715.4558217959320245
 20
294.5111510549791092
 30
0.0
 40
2.6041707003269372
 50
345.0852672014318046
 51
356.831754806093727
  0
ARC
  5
BEF5
  8
0
 10
4716.7383643620278235
 20
294.1554493949707876
 30
0.0
 40
1.2733589334270621
 50
327.9752510217599024
 51
345.6979236873467016
  0
ARC
  5
BEF6
  8
0
 10
4717.5273379288537399
 20
293.638765518918774
 30
0.0
 40
0.3310471554605101
 50
276.4619684666511148
 51
331.382185458362585
  0
ARC
  5
BEF7
  8
0
 10
4716.6392318241469184
 20
293.8015325457183735
 30
0.0
 40
0.0435849938224345
 50
98.5944470988341664
 51
170.543798324299587
  0
ARC
  5
BEF8
  8
0
 10
4715.8266669066406394
 20
294.4204226763361021
 30
0.0
 40
2.1434169890175938
 50
336.7514749864186001
 51
359.2822496711679037
  0
ARC
  5
BEF9
  8
0
 10
4717.4167695312298747
 20
293.7000958523158261
 30
0.0
 40
0.3995665741909441
 50
282.3808359586325878
 51
341.6603830588805977
  0
ARC
  5
BEFA
  8
0
 10
4715.6318333774697749
 20
293.6285301023854117
 30
0.0
 40
0.2504414088602009
 50
59.6406742248293682
 51
82.9120430876897245
  0
ARC
  5
BEFB
  8
0
 10
4717.3962403177920351
 20
293.6372477187535992
 30
0.0
 40
0.2419700782715111
 50
96.1693167081334366
 51
122.1291337252623066
  0
ARC
  5
BEFC
  8
0
 10
4719.0785268719910164
 20
293.7573530706252996
 30
0.0
 40
1.4073686853381271
 50
139.7684995457250068
 51
146.8852433165162097
  0
LINE
  5
BEFD
  8
0
 10
4719.802762011771847
 20
293.8526841834687957
 30
0.0
 11
4719.8165977054641189
 21
293.0598215793282861
 31
0.0
  0
LINE
  5
BEFE
  8
0
 10
4719.2465361138738444
 20
293.8020063896652232
 30
0.0
 11
4719.2854359010625558
 21
293.0598215793282861
 31
0.0
  0
LINE
  5
BEFF
  8
0
 10
4720.57541037705505
 20
293.9285252792766983
 30
0.0
 11
4722.3788075164129623
 21
293.9914712129781833
 31
0.0
  0
LINE
  5
BF00
  8
0
 10
4722.5008654248640596
 20
293.0877005040283052
 30
0.0
 11
4722.4417306561135774
 21
293.9333670952377133
 31
0.0
  0
ARC
  5
BF01
  8
0
 10
4722.5307905101735741
 20
293.0898216705637083
 30
0.0
 40
0.0300001679713847
 50
184.0544899997049981
 51
269.8704088371799799
  0
LINE
  5
BF02
  8
0
 10
4722.6028758635638951
 20
293.0896276746282183
 30
0.0
 11
4722.6028767473626431
 21
293.9386630222282975
 31
0.0
  0
ARC
  5
BF03
  8
0
 10
4722.5728752868462834
 20
293.0898227149671129
 30
0.0
 40
0.030001210710233
 50
270.1281756424496052
 51
359.6275128001449275
  0
ARC
  5
BF04
  8
0
 10
4722.3782319042893505
 20
293.9277248819045099
 30
0.0
 40
0.0637489298316545
 50
5.0777098002472538
 51
89.4826486712140223
  0
ARC
  5
BF05
  8
0
 10
4722.6653771762576071
 20
293.9389922350644042
 30
0.0
 40
0.0625012959307932
 50
94.4530223781651159
 51
180.3017952349827908
  0
LINE
  5
BF06
  8
0
 10
4722.3788075164129623
 20
293.9914712129781833
 30
0.0
 11
4726.1228454751126264
 21
294.1221610688328951
 31
0.0
  0
ARC
  5
BF07
  8
0
 10
4726.1107126468587012
 20
295.9409513406878887
 30
0.0
 40
1.818830739380606
 50
270.3822043432352871
 51
280.5749497900559959
  0
ARC
  5
BF08
  8
0
 10
4727.4020343351130578
 20
292.3892996383946752
 30
0.0
 40
2.0068731764558132
 50
118.4977217671690966
 51
130.5758870157895046
  0
ARC
  5
BF09
  8
0
 10
4723.7846338428289528
 20
296.6169339233373989
 30
0.0
 40
3.5571614179032842
 50
269.699038042195923
 51
310.5387541552638027
  0
LINE
  5
BF0A
  8
0
 10
4722.2958281731644092
 20
293.0892547643281887
 30
0.0
 11
4722.2591098285638509
 21
293.949814380428279
 31
0.0
  0
LINE
  5
BF0B
  8
0
 10
4722.7839772565694147
 20
293.9661032271739032
 30
0.0
 11
4722.8078710416639296
 21
293.0872429274281785
 31
0.0
  0
ARC
  5
BF0C
  8
0
 10
4722.8559705026773372
 20
293.9681459446948111
 30
0.0
 40
0.0720222200426764
 50
148.3032578063098867
 51
181.6252593957420061
  0
ARC
  5
BF0D
  8
0
 10
4722.189525190443419
 20
293.9465428155389759
 30
0.0
 40
0.0696615029937144
 50
2.6918143627381199
 51
35.350816113723468
  0
ARC
  5
BF0E
  8
0
 10
4722.0627764014743661
 20
293.0794422808846775
 30
0.0
 40
0.2332582541280894
 50
355.1748189144125263
 51
2.4109750846594169
  0
ARC
  5
BF0F
  8
0
 10
4723.0368783893891305
 20
293.0929686086208221
 30
0.0
 40
0.2290789137769509
 50
181.432220576745209
 51
188.3197329484848126
  0
LINE
  5
BF11
  8
0
 10
4730.9211668314110284
 20
356.6098376710403954
 30
0.0
 11
4731.2961421537693241
 21
356.6188128553711749
 31
0.0
  0
LINE
  5
BF12
  8
0
 10
4730.9658276395948633
 20
328.4757000471175274
 30
0.0
 11
4731.2966284574577003
 21
328.4818374296260117
 31
0.0
  0
ARC
  5
BF13
  8
0
 10
4700.2616093472070133
 20
313.5044453803997726
 30
0.0
 40
0.6858901424712935
 50
250.2242220037134928
 51
266.0307714510379924
  0
ARC
  5
BF14
  8
0
 10
4699.9146258450100504
 20
293.4754407621553014
 30
0.0
 40
0.0345055749724666
 50
94.8736904621697335
 51
173.8801927543210866
  0
LINE
  5
BF15
  8
0
 10
4699.9116942719147119
 20
293.5098215792393717
 30
0.0
 11
4700.5658920343148566
 21
293.5110569838395236
 31
0.0
  0
ARC
  5
BF16
  8
0
 10
4700.4679059978043369
 20
297.3308969440413989
 30
0.0
 40
3.8210965160418571
 50
271.4694216184599895
 51
276.5604637806196138
  0
ARC
  5
BF17
  8
0
 10
4701.3373049463943971
 20
289.7937697485212993
 30
0.0
 40
3.7660075184205528
 50
89.6184346783236379
 51
96.5996655027182953
  0
LINE
  5
BF18
  8
0
 10
4701.3623847561184448
 20
293.5596937561667232
 30
0.0
 11
4708.2870309742793324
 21
293.5597764540995058
 31
0.0
  0
ARC
  5
BF19
  8
0
 10
4708.2677445459976298
 20
289.7303968434184753
 30
0.0
 40
3.8294281778113288
 50
83.4654909371003839
 51
89.7114358690873246
  0
ARC
  5
BF1A
  8
0
 10
4709.1379833186920223
 20
297.2783356124223815
 30
0.0
 40
3.768514125854336
 50
263.3800817593569832
 51
267.0748717766055051
  0
ARC
  5
BF1B
  8
0
 10
4699.9191065308314137
 20
293.1539607260743878
 30
0.0
 40
0.0447571878645472
 50
183.9579739147357031
 51
260.4673002647523958
  0
LINE
  5
BF1C
  8
0
 10
4699.9116942719147119
 20
293.1098215792395081
 30
0.0
 11
4700.5658920343148566
 21
293.1085861746395835
 31
0.0
  0
ARC
  5
BF1D
  8
0
 10
4700.4679059978043369
 20
289.2887462144375945
 30
0.0
 40
3.8210965160418571
 50
83.4395362193803862
 51
88.5305783815399536
  0
ARC
  5
BF1E
  8
0
 10
4701.3399831197375534
 20
296.8574081046619995
 30
0.0
 40
3.7976411748780321
 50
263.4148770334605274
 51
270.3073792200798948
  0
LINE
  5
BF1F
  8
0
 10
4701.360356529308774
 20
293.0598215794170187
 30
0.0
 11
4708.2870309742793324
 21
293.0598215792394967
 31
0.0
  0
ARC
  5
BF20
  8
0
 10
4708.2664218308091222
 20
296.9044474500581146
 30
0.0
 40
3.8446811081495951
 50
270.3071314790656743
 51
276.5283126831815252
  0
ARC
  5
BF21
  8
0
 10
4709.1379833186920223
 20
289.341307546056612
 30
0.0
 40
3.768514125854336
 50
90.1109528800286625
 51
96.6199182406430737
  0
LINE
  5
BF22
  8
0
 10
4709.1306856217606764
 20
293.1098146059388796
 30
0.0
 11
4709.7713288035183723
 21
293.1098200237410083
 31
0.0
  0
LINE
  5
BF23
  8
0
 10
4700.2249011801641245
 20
331.0574127250329752
 30
0.0
 11
4700.2249011801641245
 21
325.5574127250329752
 31
0.0
  0
LINE
  5
BF24
  8
0
 10
4700.2249011801641245
 20
325.5574127250329752
 30
0.0
 11
4724.2295451877644155
 21
325.5574127250329752
 31
0.0
  0
LINE
  5
BF25
  8
0
 10
4724.2295451877644155
 20
325.5574127250329752
 30
0.0
 11
4724.2295451877644155
 21
331.0574127250329752
 31
0.0
  0
LINE
  5
BF26
  8
0
 10
4724.2295451877644155
 20
331.0574127250329752
 30
0.0
 11
4700.2249011801641245
 21
331.0574127250329752
 31
0.0
  0
LINE
  5
BF27
  8
0
 10
4700.2248509516639388
 20
336.8824127250330775
 30
0.0
 11
4700.2248509516639388
 21
331.3824127250330775
 31
0.0
  0
LINE
  5
BF28
  8
0
 10
4700.2248509516639388
 20
331.3824127250330775
 30
0.0
 11
4711.9797924455642715
 21
331.3824127250330775
 31
0.0
  0
LINE
  5
BF29
  8
0
 10
4711.9797924455642715
 20
331.3824127250330775
 30
0.0
 11
4711.9797924455642715
 21
336.8824127250330775
 31
0.0
  0
LINE
  5
BF2A
  8
0
 10
4711.9797924455642715
 20
336.8824127250330775
 30
0.0
 11
4700.2248509516639388
 21
336.8824127250330775
 31
0.0
  0
LINE
  5
BF2B
  8
0
 10
4700.2248509516639388
 20
354.1324127250330775
 30
0.0
 11
4700.2248509516639388
 21
348.6324127250330775
 31
0.0
  0
LINE
  5
BF2C
  8
0
 10
4700.2248509516639388
 20
348.6324127250330775
 30
0.0
 11
4711.9797924455642715
 21
348.6324127250330775
 31
0.0
  0
LINE
  5
BF2D
  8
0
 10
4711.9797924455642715
 20
348.6324127250330775
 30
0.0
 11
4711.9797924455642715
 21
354.1324127250330775
 31
0.0
  0
LINE
  5
BF2E
  8
0
 10
4711.9797924455642715
 20
354.1324127250330775
 30
0.0
 11
4700.2248509516639388
 21
354.1324127250330775
 31
0.0
  0
ENDSEC
  0
EOF
