  0
SECTION
  2
HEADER
  9
$ACADVER
  1
AC1009
  9
$INSBASE
 10
4706.4104869479078843
 20
151.3207454022088996
 30
0.0
  9
$EXTMIN
 10
4673.0770869418611255
 20
151.3109725371089098
 30
0.0
  9
$EXTMAX
 10
4706.4175507839263446
 20
231.6514365479123967
 30
0.0
  9
$LIMMIN
 10
0.0
 20
0.0
  9
$LIMMAX
 10
11.6929133858000007
 20
8.2677165353999982
  9
$ORTHOMODE
 70
     1
  9
$REGENMODE
 70
     1
  9
$FILLMODE
 70
     1
  9
$QTEXTMODE
 70
     0
  9
$MIRRTEXT
 70
     0
  9
$DRAGMODE
 70
     2
  9
$LTSCALE
 40
0.6431102362
  9
$OSMODE
 70
  4095
  9
$ATTMODE
 70
     1
  9
$TEXTSIZE
 40
0.2
  9
$TRACEWID
 40
0.05
  9
$TEXTSTYLE
  7
STANDARD
  9
$CLAYER
  8
0
  9
$CELTYPE
  6
BYLAYER
  9
$CECOLOR
 62
   256
  9
$DIMSCALE
 40
1.0
  9
$DIMASZ
 40
0.1875
  9
$DIMEXO
 40
0.0625
  9
$DIMDLI
 40
0.4443307087
  9
$DIMRND
 40
0.0
  9
$DIMDLE
 40
0.0
  9
$DIMEXE
 40
0.125
  9
$DIMTP
 40
0.01
  9
$DIMTM
 40
0.01
  9
$DIMTXT
 40
2.0
  9
$DIMCEN
 40
0.1052362205
  9
$DIMTSZ
 40
0.0
  9
$DIMTOL
 70
     1
  9
$DIMLIM
 70
     0
  9
$DIMTIH
 70
     1
  9
$DIMTOH
 70
     1
  9
$DIMSE1
 70
     0
  9
$DIMSE2
 70
     0
  9
$DIMTAD
 70
     0
  9
$DIMZIN
 70
     0
  9
$DIMBLK
  1

  9
$DIMASO
 70
     1
  9
$DIMSHO
 70
     1
  9
$DIMPOST
  1
\X
  9
$DIMAPOST
  1

  9
$DIMALT
 70
     1
  9
$DIMALTD
 70
     2
  9
$DIMALTF
 40
25.3999999999999986
  9
$DIMLFAC
 40
1.0
  9
$DIMTOFL
 70
     0
  9
$DIMTVP
 40
0.0
  9
$DIMTIX
 70
     0
  9
$DIMSOXD
 70
     0
  9
$DIMSAH
 70
     0
  9
$DIMBLK1
  1

  9
$DIMBLK2
  1

  9
$DIMSTYLE
  2
STANDARD
  9
$DIMCLRD
 70
     0
  9
$DIMCLRE
 70
     0
  9
$DIMCLRT
 70
     0
  9
$DIMTFAC
 40
1.0
  9
$DIMGAP
 40
0.09
  9
$LUNITS
 70
     2
  9
$LUPREC
 70
     4
  9
$SKETCHINC
 40
0.1
  9
$FILLETRAD
 40
0.0
  9
$AUNITS
 70
     0
  9
$AUPREC
 70
     0
  9
$MENU
  1
.
  9
$ELEVATION
 40
0.0
  9
$PELEVATION
 40
0.0
  9
$THICKNESS
 40
0.0
  9
$LIMCHECK
 70
     0
  9
$BLIPMODE
 70
     0
  9
$CHAMFERA
 40
0.0
  9
$CHAMFERB
 40
0.0
  9
$SKPOLY
 70
     0
  9
$TDCREATE
 40
2458060.468368056230247
  9
$TDUPDATE
 40
2459179.4417939819395542
  9
$TDINDWG
 40
0.3466042824
  9
$TDUSRTIMER
 40
0.3466042824
  9
$USRTIMER
 70
     1
  9
$ANGBASE
 50
0.0
  9
$ANGDIR
 70
     0
  9
$PDMODE
 70
     0
  9
$PDSIZE
 40
0.3125
  9
$PLINEWID
 40
0.0
  9
$COORDS
 70
     1
  9
$SPLFRAME
 70
     0
  9
$SPLINETYPE
 70
     6
  9
$SPLINESEGS
 70
     8
  9
$ATTDIA
 70
     1
  9
$ATTREQ
 70
     1
  9
$HANDLING
 70
     1
  9
$HANDSEED
  5
D833
  9
$SURFTAB1
 70
     6
  9
$SURFTAB2
 70
     6
  9
$SURFTYPE
 70
     6
  9
$SURFU
 70
     6
  9
$SURFV
 70
     6
  9
$UCSNAME
  2

  9
$UCSORG
 10
0.0
 20
0.0
 30
0.0
  9
$UCSXDIR
 10
1.0
 20
0.0
 30
0.0
  9
$UCSYDIR
 10
0.0
 20
1.0
 30
0.0
  9
$PUCSNAME
  2

  9
$PUCSORG
 10
0.0
 20
0.0
 30
0.0
  9
$PUCSXDIR
 10
1.0
 20
0.0
 30
0.0
  9
$PUCSYDIR
 10
0.0
 20
1.0
 30
0.0
  9
$USERI1
 70
     0
  9
$USERI2
 70
     0
  9
$USERI3
 70
     0
  9
$USERI4
 70
     0
  9
$USERI5
 70
     0
  9
$USERR1
 40
0.0
  9
$USERR2
 40
0.0
  9
$USERR3
 40
0.0
  9
$USERR4
 40
0.0
  9
$USERR5
 40
0.0
  9
$WORLDVIEW
 70
     1
  9
$SHADEDGE
 70
     3
  9
$SHADEDIF
 70
    70
  9
$TILEMODE
 70
     1
  9
$MAXACTVP
 70
    64
  9
$PLIMCHECK
 70
     0
  9
$PEXTMIN
 10
1.0000000000000000E+20
 20
1.0000000000000000E+20
 30
1.0000000000000000E+20
  9
$PEXTMAX
 10
-1.0000000000000000E+20
 20
-1.0000000000000000E+20
 30
-1.0000000000000000E+20
  9
$PLIMMIN
 10
0.0
 20
0.0
  9
$PLIMMAX
 10
12.0
 20
9.0
  9
$UNITMODE
 70
     0
  9
$VISRETAIN
 70
     1
  9
$PLINEGEN
 70
     0
  9
$PSLTSCALE
 70
     1
  0
ENDSEC
  0
SECTION
  2
TABLES
  0
TABLE
  2
VPORT
 70
     1
  0
VPORT
  2
*ACTIVE
 70
     0
 10
0.0
 20
0.0
 11
1.0
 21
1.0
 12
0.0
 22
0.0
 13
0.0
 23
0.0
 14
1.0
 24
1.0
 15
0.0
 25
0.0
 16
0.0
 26
0.0
 36
246.4664359429098113
 17
4689.7473496108714244
 27
191.4812088012695028
 37
0.0
 40
86.9882884069804447
 41
2.1186252771618621
 42
50.0
 43
0.0
 44
0.0
 50
0.0
 51
0.0
 71
     0
 72
   100
 73
     1
 74
     1
 75
     0
 76
     0
 77
     0
 78
     0
  0
ENDTAB
  0
TABLE
  2
LTYPE
 70
     2
  0
LTYPE
  2
CONTINUOUS
 70
     0
  3
Solid line
 72
    65
 73
     0
 40
0.0
  0
LTYPE
  2
PHANTOM2
 70
     0
  3
___ _ _ ___ _ _ ___ _ _ ___ _ _
 72
    65
 73
     6
 40
1.25
 49
0.625
 49
-0.125
 49
0.125
 49
-0.125
 49
0.125
 49
-0.125
  0
ENDTAB
  0
TABLE
  2
LAYER
 70
     2
  0
LAYER
  2
0
 70
     0
 62
   255
  6
CONTINUOUS
  0
LAYER
  2
DEFPOINTS
 70
     0
 62
     7
  6
CONTINUOUS
  0
ENDTAB
  0
TABLE
  2
STYLE
 70
     1
  0
STYLE
  2
STANDARD
 70
     0
 40
0.0
 41
0.8
 50
0.0
 71
     0
 42
0.2
  3
txt
  4

  0
ENDTAB
  0
TABLE
  2
VIEW
 70
     0
  0
ENDTAB
  0
TABLE
  2
UCS
 70
     0
  0
ENDTAB
  0
TABLE
  2
APPID
 70
     9
  0
APPID
  2
ACAD
 70
     0
  0
APPID
  2
ACAD_MLEADERVER
 70
     0
  0
APPID
  2
ACAD_EXEMPT_FROM_CAD_STANDARDS
 70
     0
  0
APPID
  2
ACAD_NAV_VCDISPLAY
 70
     0
  0
APPID
  2
ACAECLAYERSTANDARD
 70
     0
  0
APPID
  2
ACCMTRANSPARENCY
 70
     0
  0
APPID
  2
ACAD_DSTYLE_DIMJAG
 70
     0
  0
APPID
  2
ACAD_DSTYLE_DIMTALN
 70
     0
  0
APPID
  2
ACDBATTR
 70
     0
  0
ENDTAB
  0
TABLE
  2
DIMSTYLE
 70
     1
  0
DIMSTYLE
  2
STANDARD
 70
     0
  3

  4

  5

  6

  7

 40
1.0
 41
0.1875
 42
0.0625
 43
0.38
 44
0.125
 45
0.0
 46
0.0
 47
0.01
 48
0.01
140
0.15625
141
0.09
142
0.0
143
25.3999999999999986
144
1.0
145
0.0
146
1.0
147
0.09
 71
     1
 72
     0
 73
     1
 74
     1
 75
     0
 76
     0
 77
     0
 78
     4
170
     0
171
     2
172
     0
173
     0
174
     0
175
     0
176
     0
177
     0
178
     0
  0
ENDTAB
  0
ENDSEC
  0
SECTION
  2
BLOCKS
  0
BLOCK
  8
0
  2
$MODEL_SPACE
 70
     0
 10
0.0
 20
0.0
 30
0.0
  3
$MODEL_SPACE
  1

  0
ENDBLK
  5
21
  8
0
  0
BLOCK
 67
     1
  8
0
  2
$PAPER_SPACE
 70
     0
 10
0.0
 20
0.0
 30
0.0
  3
$PAPER_SPACE
  1

  0
ENDBLK
  5
1D
 67
     1
  8
0
  0
ENDSEC
  0
SECTION
  2
ENTITIES
  0
ATTDEF
  5
3930
  8
DEFPOINTS
 10
4706.4068841172565953
 20
151.3321038958764007
 30
0.0
 40
0.001
  1
71520118
  3

  2
MODELNUMBER
 70
     0
1001
ACDBATTR
1070
     0
1070
     1
  0
ATTDEF
  5
3931
  8
DEFPOINTS
 10
4706.4068841172565953
 20
151.3304372292097071
 30
0.0
 40
0.001
  1
TRAVERSE
  3

  2
TRADENAME
 70
     0
1001
ACDBATTR
1070
     0
1070
     1
  0
ATTDEF
  5
3932
  8
DEFPOINTS
 10
4706.4068841172565953
 20
151.3287705625430988
 30
0.0
 40
0.001
  1
BATH AND WALL SURROUND
  3

  2
PRODUCT
 70
     0
1001
ACDBATTR
1070
     0
1070
     1
  0
LINE
  5
D1A1
  8
0
 10
4682.36394580369506
 20
151.8160396037089015
 30
0.0
 11
4682.4637022086953948
 21
151.8230152510089113
 31
0.0
  0
LINE
  5
D1A2
  8
0
 10
4674.6322881616952145
 20
151.8258677746088949
 30
0.0
 11
4674.5604869470953417
 21
151.8215454022088977
 31
0.0
  0
LINE
  5
D1A3
  8
0
 10
4674.660458297695186
 20
151.5253454022090125
 30
0.0
 11
4675.0172665861946371
 21
151.5462631328088889
 31
0.0
  0
LINE
  5
D1A4
  8
0
 10
4674.2554869470950507
 20
151.3207454022088996
 30
0.0
 11
4674.5604869470953417
 21
151.3207454022088996
 31
0.0
  0
LINE
  5
D1A5
  8
0
 10
4682.1980917685950772
 20
151.3207454022088996
 30
0.0
 11
4682.6993524840945611
 21
151.3207454022088996
 31
0.0
  0
LINE
  5
D1A6
  8
0
 10
4684.6213189076952403
 20
151.3207454022088996
 30
0.0
 11
4685.6784204105706522
 21
151.3207454022088996
 31
0.0
  0
LINE
  5
D1A7
  8
0
 10
4690.631506969277325
 20
151.3207454022088996
 30
0.0
 11
4691.6867819921953924
 21
151.3207454022088996
 31
0.0
  0
LINE
  5
D1A8
  8
0
 10
4696.6162906939798631
 20
151.3207454022088996
 30
0.0
 11
4697.6928853651952522
 21
151.3207454022088996
 31
0.0
  0
LINE
  5
D1A9
  8
0
 10
4683.165570260694949
 20
151.8207454022088996
 30
0.0
 11
4682.6682317359945955
 21
151.8207454022088996
 31
0.0
  0
LINE
  5
D1AA
  8
0
 10
4702.7346800556952076
 20
163.8062314168089131
 30
0.0
 11
4702.8675659811760852
 21
163.810875725034208
 31
0.0
  0
LINE
  5
D1AB
  8
0
 10
4704.7033651224955975
 20
171.134394585308911
 30
0.0
 11
4704.1409544924908914
 21
171.1098396165089071
 31
0.0
  0
LINE
  5
D1AC
  8
0
 10
4677.591852970293985
 20
171.0315867198087005
 30
0.0
 11
4674.6227565118952043
 21
171.1446923387090067
 31
0.0
  0
LINE
  5
D1AD
  8
0
 10
4674.660458297695186
 20
151.5253454022090125
 30
0.0
 11
4674.6322881616952145
 21
151.8258677746088949
 31
0.0
  0
LINE
  5
D1AE
  8
0
 10
4684.6213189076897834
 20
151.3207454022088996
 30
0.0
 11
4684.2132839798950954
 21
152.5057648790088933
 31
0.0
  0
LINE
  5
D1AF
  8
0
 10
4684.6475293716148371
 20
151.3207454022088996
 30
0.0
 11
4684.0825098186951436
 21
152.9616813340090005
 31
0.0
  0
LINE
  5
D1B0
  8
0
 10
4684.6785036499341004
 20
151.3207454022088996
 30
0.0
 11
4683.9104110056950958
 21
153.5441148870089023
 31
0.0
  0
LINE
  5
D1B1
  8
0
 10
4675.0172665861946371
 20
151.5462631328088889
 30
0.0
 11
4674.5604869470953417
 21
160.2621702994090072
 31
0.0
  0
LINE
  5
D1B2
  8
0
 10
4674.9831487833953361
 20
157.3297850180090052
 30
0.0
 11
4674.5604869470953417
 21
168.9551685668089078
 31
0.0
  0
LINE
  5
D1B3
  8
0
 10
4674.2554869470950507
 20
151.3913669350089037
 30
0.0
 11
4674.2554869470950507
 21
151.3207454022088996
 31
0.0
  0
LINE
  5
D1B4
  8
0
 10
4674.5604869470953417
 20
173.0900955004435957
 30
0.0
 11
4674.5604869470953417
 21
151.3207454022088996
 31
0.0
  0
LINE
  5
D1B5
  8
0
 10
4690.631506969277325
 20
151.3207454022088996
 30
0.0
 11
4690.2794773085952329
 21
152.3431137719090032
 31
0.0
  0
LINE
  5
D1B6
  8
0
 10
4690.6565582899202127
 20
151.3207454022088996
 30
0.0
 11
4690.1635229416951915
 21
152.7526240236090018
 31
0.0
  0
LINE
  5
D1B7
  8
0
 10
4690.6843400941597793
 20
151.3207454022088996
 30
0.0
 11
4690.0480305741948541
 21
153.1687224317089999
 31
0.0
  0
LINE
  5
D1B8
  8
0
 10
4681.7908527731451613
 20
155.975508418856208
 30
0.0
 11
4682.1980917685950772
 21
151.3207454022088996
 31
0.0
  0
LINE
  5
D1B9
  8
0
 10
4682.0053247094001563
 20
155.9150974681365938
 30
0.0
 11
4682.36394580369506
 21
151.8160396036089139
 31
0.0
  0
LINE
  5
D1BA
  8
0
 10
4683.165570260694949
 20
151.8207454022088996
 30
0.0
 11
4682.9272159172833199
 21
155.2293713177377015
 31
0.0
  0
LINE
  5
D1BB
  8
0
 10
4683.5009336690964119
 20
153.5460405718089021
 30
0.0
 11
4683.3843369498954416
 21
155.213451338808909
 31
0.0
  0
LINE
  5
D1BC
  8
0
 10
4682.2492803637942416
 20
155.4900476586088871
 30
0.0
 11
4682.2390499779958191
 21
155.6810477907089023
 31
0.0
  0
LINE
  5
D1BD
  8
0
 10
4682.2723323298414471
 20
155.4745700684034944
 30
0.0
 11
4682.4637022086953948
 21
151.8230152510089113
 31
0.0
  0
LINE
  5
D1BE
  8
0
 10
4682.6993127175956033
 20
151.3207454022088996
 30
0.0
 11
4682.4878509988739097
 21
155.3556753677565894
 31
0.0
  0
LINE
  5
D1BF
  8
0
 10
4686.0922262547946957
 20
153.4640228244089997
 30
0.0
 11
4685.971016330195198
 21
155.1974055035088895
 31
0.0
  0
LINE
  5
D1C0
  8
0
 10
4696.6162906939798631
 20
151.3207454022088996
 30
0.0
 11
4696.3341109188950213
 21
152.1402549751088884
 31
0.0
  0
LINE
  5
D1C1
  8
0
 10
4696.6439814714949534
 20
151.3109725371089098
 30
0.0
 11
4696.2207360630964104
 21
152.540166455209004
 31
0.0
  0
LINE
  5
D1C2
  8
0
 10
4696.6721453639947867
 20
151.3109736413090047
 30
0.0
 11
4696.1057127030953779
 21
152.9560135339089015
 31
0.0
  0
LINE
  5
D1C3
  8
0
 10
4696.6938078632956604
 20
151.3109744862090054
 30
0.0
 11
4696.0195190724953136
 21
153.2692513270089023
 31
0.0
  0
LINE
  5
D1C4
  8
0
 10
4683.5009336690964119
 20
153.5460405718089021
 30
0.0
 11
4683.165570260694949
 21
151.8207454022088996
 31
0.0
  0
LINE
  5
D1C5
  8
0
 10
4695.8247232300946052
 20
156.05496165740891
 30
0.0
 11
4696.0195190724953136
 21
153.2692513270089023
 31
0.0
  0
LINE
  5
D1C6
  8
0
 10
4698.1590540883953508
 20
153.7189755793089034
 30
0.0
 11
4697.994876229795409
 21
156.0668283416090105
 31
0.0
  0
LINE
  5
D1C7
  8
0
 10
4686.0922262547946957
 20
153.4640228244089997
 30
0.0
 11
4685.6784204105706522
 21
151.3207454022088996
 31
0.0
  0
LINE
  5
D1C8
  8
0
 10
4692.0460480910951446
 20
153.1690092541088859
 30
0.0
 11
4691.6867819921953924
 21
151.3207454022088996
 31
0.0
  0
LINE
  5
D1C9
  8
0
 10
4705.3490571594948051
 20
171.8106158598089053
 30
0.0
 11
4705.3711596212278891
 21
173.0797398705011858
 31
0.0
  0
LINE
  5
D1CA
  8
0
 10
4698.1590540883953508
 20
153.7189755793089034
 30
0.0
 11
4697.6928853651952522
 21
151.3207454022088996
 31
0.0
  0
LINE
  5
D1CB
  8
0
 10
4674.3027487731951624
 20
151.4516297021089031
 30
0.0
 11
4674.2901298513952497
 21
151.4457454022088996
 31
0.0
  0
ARC
  5
D1CC
  8
0
 10
4674.2603665188707964
 20
151.5423978028792078
 30
0.0
 40
0.1001753642664184
 50
295.0292327364335279
 51
358.1023954947381753
  0
ARC
  5
D1CD
  8
0
 10
4674.3154869470954509
 20
151.3913669350089037
 30
0.0
 40
0.06
 50
114.9999999969902973
 51
180.0
  0
ARC
  5
D1CE
  8
0
 10
4674.6170758288599245
 20
171.088042512215992
 30
0.0
 40
0.0569339354113187
 50
84.2736851066907349
 51
173.6887567008095914
  0
ARC
  5
D1CF
  8
0
 10
4681.0738552783950581
 20
152.5674104252090046
 30
0.0
 40
3.0
 50
18.9999999693081882
 51
29.8425835284470296
  0
ARC
  5
D1D0
  8
0
 10
4681.376728252895191
 20
151.5290604164090098
 30
0.0
 40
3.0
 50
18.9999999844017005
 51
40.877159348468652
  0
ARC
  5
D1D1
  8
0
 10
4681.2459540918944185
 20
151.9849768707088913
 30
0.0
 40
3.0
 50
18.9999999999949409
 51
38.6570085756048698
  0
ARC
  5
D1D2
  8
0
 10
4682.530467464510366
 20
156.2672521220567035
 30
0.0
 40
1.9951611085252281
 50
188.4470962838177002
 51
252.5315202784005919
  0
ARC
  5
D1D3
  8
0
 10
4682.5255980871943393
 20
156.1566556689089111
 30
0.0
 40
1.839110744799999
 50
184.637568767000289
 51
250.9941129400068007
  0
ARC
  5
D1D4
  8
0
 10
4682.5872886024953914
 20
156.1896689291089046
 30
0.0
 40
1.815259916999999
 50
184.6639432256006899
 51
248.3977794417830864
  0
ARC
  5
D1D5
  8
0
 10
4682.698227682894867
 20
156.292324531009001
 30
0.0
 40
1.759187716699999
 50
184.7148437247979018
 51
242.9981074876814091
  0
ARC
  5
D1D6
  8
0
 10
4682.7517287254941039
 20
156.3524653758090039
 30
0.0
 40
1.7287228627
 50
184.7329453476997116
 51
240.0356854610909068
  0
ARC
  5
D1D7
  8
0
 10
4682.1337151686911966
 20
156.5365213618945859
 30
0.0
 40
1.1521046858962321
 50
196.4730416507121902
 51
216.1535524718530894
  0
ARC
  5
D1D8
  8
0
 10
4682.625266591469881
 20
157.1236419359771901
 30
0.0
 40
1.15365426237736
 50
203.8631166311245124
 51
220.4384305743683967
  0
ARC
  5
D1D9
  8
0
 10
4682.2112506026869596
 20
156.6295350817368046
 30
0.0
 40
1.152410952851618
 50
197.8846096629353895
 51
216.6825885321794942
  0
ARC
  5
D1DA
  8
0
 10
4682.2903936885541043
 20
156.725413874892098
 30
0.0
 40
1.1527425731839089
 50
199.2763852553651986
 51
217.2964881264950066
  0
ARC
  5
D1DB
  8
0
 10
4682.4544498086961539
 20
156.9224487196628104
 30
0.0
 40
1.153298273971183
 50
201.8049696467608101
 51
218.5442990348049932
  0
ARC
  5
D1DC
  8
0
 10
4682.371369493875136
 20
156.823195701793793
 30
0.0
 40
1.1529516149321399
 50
200.5941833039680091
 51
217.9354829595712886
  0
ARC
  5
D1DD
  8
0
 10
4682.539299722296164
 20
157.0227300669751003
 30
0.0
 40
1.153628537102255
 50
202.8895156434105047
 51
219.0899558118387915
  0
ARC
  5
D1DE
  8
0
 10
4681.8199171260166622
 20
156.2414126089680906
 30
0.0
 40
1.151325724991388
 50
191.6989530903462082
 51
215.0521119661970886
  0
ARC
  5
D1DF
  8
0
 10
4682.0567941958333904
 20
156.4476961172559015
 30
0.0
 40
1.1515575871251531
 50
195.0992310789214912
 51
215.7705253479842895
  0
ARC
  5
D1E0
  8
0
 10
4681.9002369468917095
 20
156.294291588959311
 30
0.0
 40
1.150193049777523
 50
192.6672309695609897
 51
231.6668390276047944
  0
ARC
  5
D1E1
  8
0
 10
4682.8066808344947276
 20
156.4161292218090011
 30
0.0
 40
1.697976066699999
 50
184.7464223132994903
 51
236.7726527944072075
  0
ARC
  5
D1E2
  8
0
 10
4682.8646842856960575
 20
156.4831874133089968
 30
0.0
 40
1.668151838799999
 50
184.7564259331020082
 51
233.0729613940096101
  0
ARC
  5
D1E3
  8
0
 10
4682.9267742780957633
 20
156.5538715104088965
 30
0.0
 40
1.6403434183000001
 50
184.7636253170998089
 51
228.8581779687112885
  0
ARC
  5
D1E4
  8
0
 10
4682.9930023680954037
 20
156.6283185194089072
 30
0.0
 40
1.6149272100000001
 50
184.7689163472992959
 51
224.0290576431906118
  0
ARC
  5
D1E5
  8
0
 10
4683.0634842652962107
 20
156.7065401447090096
 30
0.0
 40
1.5924958726999989
 50
184.7734083855002893
 51
218.1847617421836958
  0
ARC
  5
D1E6
  8
0
 10
4683.2531094297428353
 20
156.9173551609752053
 30
0.0
 40
1.600464679764585
 50
186.9872592823826096
 51
270.1372112238502154
  0
ARC
  5
D1E7
  8
0
 10
4683.1374089093951625
 20
156.7879005105089902
 30
0.0
 40
1.5726392907001321
 50
184.7772506761023976
 51
225.0490319275378965
  0
ARC
  5
D1E8
  8
0
 10
4683.1374089093951625
 20
156.787900510508905
 30
0.0
 40
1.5726392906999991
 50
235.615927925415491
 51
268.8966745375740857
  0
ARC
  5
D1E9
  8
0
 10
4687.4429215817954173
 20
151.3664093085089917
 30
0.0
 40
3.0
 50
18.9999999999949409
 51
89.3709340924994535
  0
ARC
  5
D1EA
  8
0
 10
4687.2114744614518713
 20
152.1920176806661118
 30
0.0
 40
3.0000004585635471
 50
19.0000027945282213
 51
89.788481710185394
  0
ARC
  5
D1EB
  8
0
 10
4687.3269672148962854
 20
151.7759195602089051
 30
0.0
 40
3.0
 50
18.9999999999949409
 51
89.687151171890406
  0
ARC
  5
D1EC
  8
0
 10
4685.4641880359949937
 20
153.1644225810088926
 30
0.0
 40
2.0
 50
107.0750992520744944
 51
168.9999999998003943
  0
ARC
  5
D1ED
  8
0
 10
4685.3109903298945937
 20
152.3857105644090097
 30
0.0
 40
1.9999999999999121
 50
141.2870482172801019
 51
166.5704666865676984
  0
ARC
  5
D1EE
  8
0
 10
4688.0559604479949485
 20
153.0848816655089024
 30
0.0
 40
2.0
 50
91.3705393030153061
 51
169.0722752275042922
  0
ARC
  5
D1EF
  8
0
 10
4687.8444160185954388
 20
152.2633399651089121
 30
0.0
 40
1.9999999999999989
 50
89.1942639770063153
 51
155.9823511643510869
  0
ARC
  5
D1F0
  8
0
 10
4687.9494942264946076
 20
152.6690793406089028
 30
0.0
 40
2.0
 50
83.9626331405320059
 51
159.9879771784052878
  0
ARC
  5
D1F1
  8
0
 10
4693.4590111613351837
 20
151.1344936631710141
 30
0.0
 40
3.0459406481553541
 50
19.2807499149676786
 51
92.274399730166337
  0
ARC
  5
D1F2
  8
0
 10
4693.1829695816923049
 20
152.2925515255168989
 30
0.0
 40
2.9999925859816972
 50
18.9999545899676185
 51
90.1243789828544379
  0
ARC
  5
D1F3
  8
0
 10
4693.2657835500813235
 20
151.9768805145583883
 30
0.0
 40
3.0039805365468268
 50
19.022849122410129
 51
85.9540875893913068
  0
ARC
  5
D1F4
  8
0
 10
4693.3810008365935573
 20
151.5610884349322873
 30
0.0
 40
3.0037792739325222
 50
19.0230630219457915
 51
89.9179252371186948
  0
ARC
  5
D1F5
  8
0
 10
4694.5001160496940429
 20
152.6919867656089025
 30
0.0
 40
2.5000000000000111
 50
99.7646229658796102
 51
169.0000000000021885
  0
ARC
  5
D1F6
  8
0
 10
4694.2979601689776246
 20
151.8297121646911876
 30
0.0
 40
2.5369054707941472
 50
90.8735857449297271
 51
155.4302749746505015
  0
ARC
  5
D1F7
  8
0
 10
4694.3946317483159874
 20
152.2735340752907121
 30
0.0
 40
2.5037849069193432
 50
90.9391813962064219
 51
160.5023672572972089
  0
ARC
  5
D1F8
  8
0
 10
4695.7489421688769653
 20
30.4161950890715502
 30
0.0
 40
123.9590788906401997
 50
90.6007070763497637
 51
90.6885604393911251
  0
ARC
  5
D1F9
  8
0
 10
4697.0512394640400089
 20
1001.102158581581989
 30
0.0
 40
846.790070334950542
 50
269.3132717229053128
 51
269.3520937302486118
  0
ARC
  5
D1FA
  8
0
 10
4684.1883041624951147
 20
718.1846002151089579
 30
0.0
 40
564.0088621881000108
 50
271.5034172205022855
 51
271.5241664404099993
  0
ARC
  5
D1FB
  8
0
 10
4672.5061694784726569
 20
-2464.5117244140487855
 30
0.0
 40
2619.3296221481709836
 50
89.6754466333139817
 51
89.6831513122414066
  0
ARC
  5
D1FC
  8
0
 10
4690.8609613839962549
 20
1232.1486166093079646
 30
0.0
 40
1076.8585689958999865
 50
269.5954140683995206
 51
269.6807901462979089
  0
ARC
  5
D1FD
  8
0
 10
4690.8609613839962549
 20
1232.1486166093079646
 30
0.0
 40
1076.8585689958999865
 50
269.686135569239184
 51
269.8402093520832068
  0
ARC
  5
D1FE
  8
0
 10
4690.8609613839962549
 20
1232.1486166093079646
 30
0.0
 40
1076.8585689958999865
 50
269.8455409060122747
 51
270.0003051176174154
  0
ARC
  5
D1FF
  8
0
 10
4690.8609613839962549
 20
1232.1486166093079646
 30
0.0
 40
1076.8585689958999865
 50
270.0055483440879129
 51
270.123199313279315
  0
ARC
  5
D200
  8
0
 10
4691.0018419307953081
 20
1174.9030101552089036
 30
0.0
 40
1019.718015914700004
 50
269.5564083827115951
 51
269.6553749765039925
  0
ARC
  5
D201
  8
0
 10
4691.0018419307953081
 20
1174.9030101552089036
 30
0.0
 40
1019.718015914700004
 50
269.6610201687437893
 51
269.7876491366756113
  0
ARC
  5
D202
  8
0
 10
4699.2648012253921479
 20
156.1462878984318934
 30
0.0
 40
1.8574972264183309
 50
277.2040784571252061
 51
355.0105857556554838
  0
ARC
  5
D203
  8
0
 10
4699.1953758049949101
 20
156.1566556713088971
 30
0.0
 40
1.839110747199999
 50
288.3935001076129083
 51
355.362917808299926
  0
ARC
  5
D204
  8
0
 10
4699.1336852863951208
 20
156.1896689340090063
 30
0.0
 40
1.8152599221000001
 50
271.5117715870241
 51
355.3360633991990198
  0
ARC
  5
D205
  8
0
 10
4699.0768335614957323
 20
156.2369689465089095
 30
0.0
 40
1.788319521
 50
270.4776905485803127
 51
355.3085655341005236
  0
ARC
  5
D206
  8
0
 10
4699.0227461531958397
 20
156.2923246064088971
 30
0.0
 40
1.7591877930999991
 50
277.0100061785004186
 51
355.2851647060990103
  0
ARC
  5
D207
  8
0
 10
4699.8204348950994245
 20
156.2943194518898906
 30
0.0
 40
1.150493830327399
 50
324.5981374705115172
 51
347.3347244139484928
  0
ARC
  5
D208
  8
0
 10
4699.9019541176812709
 20
156.2409490278801911
 30
0.0
 40
1.1503511322893769
 50
324.9363887128848774
 51
348.3153663824209048
  0
ARC
  5
D209
  8
0
 10
4699.9649057085280219
 20
156.2268250160242076
 30
0.0
 40
1.175551356646541
 50
325.7824575654116757
 51
348.1157804844414727
  0
ARC
  5
D20A
  8
0
 10
4700.8550465010848711
 20
151.9733234285598087
 30
0.0
 40
3.0392080198825342
 50
113.3513620507834929
 51
157.6284153351001862
  0
ARC
  5
D20B
  8
0
 10
4701.0194391857567098
 20
152.544673259702904
 30
0.0
 40
3.0677072270821628
 50
119.3784968692659021
 51
160.2371748283669888
  0
ARC
  5
D20C
  8
0
 10
4700.7223155371957546
 20
151.5647663131088905
 30
0.0
 40
3.0000000000000271
 50
108.3935001075041953
 51
156.3527516840763099
  0
ARC
  5
D20D
  8
0
 10
4701.1039356386945656
 20
153.1465485931090029
 30
0.0
 40
3.0
 50
124.9890904837075993
 51
169.0000000001955982
  0
ARC
  5
D20E
  8
0
 10
4698.9692452569952366
 20
156.3524652895090128
 30
0.0
 40
1.728722775
 50
293.2049778615116225
 51
355.2670653661984943
  0
ARC
  5
D20F
  8
0
 10
4698.9142928354949618
 20
156.4161295629089068
 30
0.0
 40
1.6979764107999999
 50
268.0175853319955763
 51
355.2535793161985112
  0
ARC
  5
D210
  8
0
 10
4698.8562962841951958
 20
156.4831874133089968
 30
0.0
 40
1.6681454215
 50
273.5614984339298985
 51
355.243592859400394
  0
ARC
  5
D211
  8
0
 10
4698.7941996779964029
 20
156.5538720262090067
 30
0.0
 40
1.6403434183000001
 50
281.0126731799217055
 51
355.2363657134014829
  0
ARC
  5
D212
  8
0
 10
4698.7279714905953369
 20
156.6283186040089106
 30
0.0
 40
1.6149272100000001
 50
299.1457146255984867
 51
355.2310908812985986
  0
ARC
  5
D213
  8
0
 10
4698.6574896414949762
 20
156.7065401458089013
 30
0.0
 40
1.5924958736999999
 50
276.9194514989022196
 51
355.2266570407978179
  0
ARC
  5
D214
  8
0
 10
4698.5835647095946115
 20
156.787900510508905
 30
0.0
 40
1.5726395522000001
 50
284.6413291672494097
 51
355.2227644894019249
  0
ARC
  5
D215
  8
0
 10
4698.3963350932335743
 20
156.9762456595545075
 30
0.0
 40
1.690261777203748
 50
305.7418267427893284
 51
352.0955403880919903
  0
ARC
  5
D216
  8
0
 10
4699.5108462050602611
 20
156.6287650498302071
 30
0.0
 40
1.151105895867325
 50
323.3061026679897054
 51
342.1347205200016788
  0
ARC
  5
D217
  8
0
 10
4699.4318301948451335
 20
156.7245295378041874
 30
0.0
 40
1.151270749615531
 50
322.6921547788081739
 51
340.7446778109651859
  0
ARC
  5
D218
  8
0
 10
4699.5885847229692445
 20
156.5356926268748907
 30
0.0
 40
1.150598150517383
 50
323.8321408507981118
 51
343.547820784576686
  0
ARC
  5
D219
  8
0
 10
4699.6650991330407123
 20
156.4471026019784858
 30
0.0
 40
1.150515290361753
 50
324.2180417416150249
 51
344.9173944822101134
  0
ARC
  5
D21A
  8
0
 10
4699.0971409433286681
 20
157.1224686947313103
 30
0.0
 40
1.1518685039118071
 50
319.887127671459325
 51
336.16142240215828
  0
ARC
  5
D21B
  8
0
 10
4699.2681359246844295
 20
156.9212586659768931
 30
0.0
 40
1.151359699866596
 50
321.4434087097296242
 51
338.220233356130791
  0
ARC
  5
D21C
  8
0
 10
4699.1834071709808995
 20
157.02141918039149
 30
0.0
 40
1.151521695001148
 50
320.8978289993398221
 51
337.137120952242185
  0
ARC
  5
D21D
  8
0
 10
4699.3510766713807243
 20
156.8221389614963073
 30
0.0
 40
1.1512017673181221
 50
322.0523132852576964
 51
339.4292884582857255
  0
ARC
  5
D21E
  8
0
 10
4699.7419042714118405
 20
156.3652711592685876
 30
0.0
 40
1.150500496818702
 50
324.4408788543527749
 51
346.1930700296853161
  0
ARC
  5
D21F
  8
0
 10
4704.648424996612448
 20
171.8332355253691048
 30
0.0
 40
0.7009972018033634
 50
274.4951233491735252
 51
358.1508679681044214
  0
LINE
  5
D220
  8
0
 10
4687.8643696294948313
 20
155.1896122307088888
 30
0.0
 11
4687.9641255584956525
 21
155.1966144696089032
 31
0.0
  0
LINE
  5
D221
  8
0
 10
4674.3604869471755592
 20
173.7997431992284874
 30
0.0
 11
4674.3604869470946142
 21
151.5390806567658899
 31
0.0
  0
LINE
  5
D222
  8
0
 10
4706.3604869470946142
 20
174.3297454021655994
 30
0.0
 11
4706.3604869470946142
 21
172.9847454021656858
 31
0.0
  0
ARC
  5
D223
  8
0
 10
4706.2054869470939593
 20
172.9847454021656858
 30
0.0
 40
0.1550000000000011
 50
270.0
 51
0.0
  0
LINE
  5
D224
  8
0
 10
4706.2054869470939593
 20
172.8297454021655994
 30
0.0
 11
4706.0346990684947741
 21
172.8297454021655142
 31
0.0
  0
ARC
  5
D225
  8
0
 10
4706.0361401014661169
 20
172.9863458314372906
 30
0.0
 40
0.156607059304955
 50
186.5272193712335991
 51
269.472780646454396
  0
LINE
  5
D226
  8
0
 10
4705.8805481746985606
 20
172.9685434903283863
 30
0.0
 11
4705.8688606477026042
 21
173.0797428815347985
 31
0.0
  0
LINE
  5
D227
  8
0
 10
4706.2854858974387753
 20
173.0797454020693067
 30
0.0
 11
4692.3138377634950302
 21
173.0796608752156089
 31
0.0
  0
LINE
  5
D228
  8
0
 10
4691.0672900551953717
 20
173.0796237742154915
 30
0.0
 11
4681.4828993255950991
 21
173.0795762867653877
 31
0.0
  0
LINE
  5
D229
  8
0
 10
4680.238466449894986
 20
173.0795021716656095
 30
0.0
 11
4674.5450733046936875
 21
173.0901242574655896
 31
0.0
  0
ARC
  5
D22A
  8
0
 10
4680.6095143149850628
 20
173.2301109130829957
 30
0.0
 40
0.4004491368193213
 50
202.0922882461024983
 51
268.8290403909413158
  0
LINE
  5
D22B
  8
0
 10
4680.6013308653937202
 20
172.8297454021655142
 30
0.0
 11
4681.1196430288937336
 21
172.8297454021655994
 31
0.0
  0
ARC
  5
D22C
  8
0
 10
4681.1111172443052055
 20
173.2311463302110042
 30
0.0
 40
0.4014914619747889
 50
271.2167835207898747
 51
337.8200060507110152
  0
ARC
  5
D22D
  8
0
 10
4691.4404223865958556
 20
173.2331102074992089
 30
0.0
 40
0.4034672501449623
 50
202.3596120901187021
 51
268.7088174159144955
  0
LINE
  5
D22E
  8
0
 10
4691.4313308653945569
 20
172.8297454021655994
 30
0.0
 11
4691.9496430288963893
 21
172.8297454021655142
 31
0.0
  0
ARC
  5
D22F
  8
0
 10
4691.9403387873262545
 20
173.233627277694211
 30
0.0
 40
0.4039890323904669
 50
271.3196915500017212
 51
337.5972157883145996
  0
ARC
  5
D230
  8
0
 10
4706.2854869466882519
 20
173.1547454027709136
 30
0.0
 40
0.0750000007088541
 50
269.9991984323402221
 51
359.9948589916057244
  0
ARC
  5
D231
  8
0
 10
4674.5518423615731081
 20
173.0592098196387099
 30
0.0
 40
0.0316468418197908
 50
102.3506252618337982
 51
179.9723733456299897
  0
LINE
  5
D232
  8
0
 10
4673.1136401774538172
 20
230.4273331477257045
 30
0.0
 11
4674.2912937922837955
 21
231.6058843127813986
 31
0.0
  0
LINE
  5
D233
  8
0
 10
4674.3795882918966527
 20
231.6424654022075913
 30
0.0
 11
4700.4178071356218425
 21
231.6424654022054881
 31
0.0
  0
ARC
  5
D234
  8
0
 10
4700.4178275238518836
 20
231.5176674058251933
 30
0.0
 40
0.1247979980458078
 50
44.9814232772692435
 51
90.0093604029617893
  0
LINE
  5
D235
  8
0
 10
4700.5061016413083053
 20
231.6058843004855134
 30
0.0
 11
4701.6737489349434327
 21
230.4373468660500919
 31
0.0
  0
ARC
  5
D236
  8
0
 10
4701.5853124442355693
 20
230.3490212176533021
 30
0.0
 40
0.1249897317923691
 50
359.9834206826391778
 51
44.9640715153119501
  0
LINE
  5
D237
  8
0
 10
4701.7103021707944208
 20
230.3489850501655951
 30
0.0
 11
4701.7084981487951154
 21
230.1370327361657075
 31
0.0
  0
LINE
  5
D238
  8
0
 10
4673.0770869470952675
 20
230.3389713542655954
 30
0.0
 11
4673.0770869470952675
 21
175.1161366004656088
 31
0.0
  0
LINE
  5
D239
  8
0
 10
4673.1091043458309287
 20
175.032526649991695
 30
0.0
 11
4674.2759352553939607
 21
173.8654358651656082
 31
0.0
  0
LINE
  5
D23A
  8
0
 10
4706.3604869470964331
 20
231.6514365479123967
 30
0.0
 11
4702.7761944560943448
 21
231.4440379544656992
 31
0.0
  0
ARC
  5
D23B
  8
0
 10
4702.7848430117128373
 20
231.3193945854173137
 30
0.0
 40
0.1249430548769929
 50
93.9691866240704172
 51
136.6912678067729985
  0
LINE
  5
D23C
  8
0
 10
4702.6939259205319104
 20
231.4050966827848015
 30
0.0
 11
4701.7571517183951073
 21
230.4113122985656901
 31
0.0
  0
ARC
  5
D23D
  8
0
 10
4701.8022852313833937
 20
230.368773810029893
 30
0.0
 40
0.0620206175520695
 50
136.6954164118756125
 51
180.0026106773966035
  0
LINE
  5
D23E
  8
0
 10
4701.740264613895306
 20
230.3687709840656055
 30
0.0
 11
4701.7397003827936715
 21
230.131522082365791
 31
0.0
  0
ARC
  5
D23F
  8
0
 10
4701.6143531403640736
 20
230.1316880603772006
 30
0.0
 40
0.1253473523204327
 50
315.0514666536153072
 51
359.9241320844935785
  0
LINE
  5
D240
  8
0
 10
4701.7030666839964397
 20
230.0431337498656887
 30
0.0
 11
4701.2315775791948909
 21
229.5713570545655955
 31
0.0
  0
ARC
  5
D241
  8
0
 10
4701.3200431410677993
 20
229.4829692676831883
 30
0.0
 40
0.1250542142728963
 50
135.0251970258599101
 51
179.9998839083773134
  0
LINE
  5
D242
  8
0
 10
4701.194988926795304
 20
229.4829695210657121
 30
0.0
 11
4701.1949882448952849
 21
203.9624286421656052
 31
0.0
  0
LINE
  5
D243
  8
0
 10
4706.3604869470964331
 20
231.6514365479123967
 30
0.0
 11
4706.3604869470964331
 21
230.4352750325975023
 31
0.0
  0
ARC
  5
D244
  8
0
 10
4706.1972517239064473
 20
230.445162967282414
 30
0.0
 40
0.1635344286132404
 50
273.5711171042196952
 51
356.5335574980800857
  0
ARC
  5
D245
  8
0
 10
4706.2037457573069332
 20
229.9553261276450939
 30
0.0
 40
0.3266408203123929
 50
89.3523578854889564
 51
179.9857521271991061
  0
LINE
  5
D246
  8
0
 10
4705.8771049470951766
 20
229.9554073541534081
 30
0.0
 11
4705.877585647676824
 21
204.7731182500182001
 31
0.0
  0
ARC
  5
D247
  8
0
 10
4702.3349231836509716
 20
223.8001124513228035
 30
0.0
 40
6.486184761162658
 50
90.1440507548398244
 51
94.1599351705063015
  0
ARC
  5
D248
  8
0
 10
4701.8661706994244014
 20
230.2393289092561872
 30
0.0
 40
0.029931919145401
 50
93.3719167967932577
 51
127.531538370895106
  0
LINE
  5
D249
  8
0
 10
4701.8479362330408549
 20
230.2630654637549128
 30
0.0
 11
4701.8474082585953511
 21
204.0025146401656002
 31
0.0
  0
LINE
  5
D24A
  8
0
 10
4701.8473874448945935
 20
202.0310607372655909
 30
0.0
 11
4701.8473874463943503
 21
179.2250617284657039
 31
0.0
  0
LINE
  5
D24B
  8
0
 10
4701.8473874463943503
 20
177.3537514347655986
 30
0.0
 11
4701.8409475912658309
 21
174.3297454021655994
 31
0.0
  0
LINE
  5
D24C
  8
0
 10
4702.2904761257041173
 20
229.1789871881200895
 30
0.0
 11
4702.2904760974952296
 21
203.9597384119014123
 31
0.0
  0
LINE
  5
D24D
  8
0
 10
4702.2904935947954073
 20
201.1194846423657054
 30
0.0
 11
4702.2939861139993809
 21
174.3297454021655994
 31
0.0
  0
ARC
  5
D24E
  8
0
 10
4702.679239926338596
 20
229.1234040116214032
 30
0.0
 40
0.3927171783783896
 50
143.0453960309382921
 51
171.8633274497319974
  0
LINE
  5
D24F
  8
0
 10
4702.3654148836940294
 20
229.3594985367656136
 30
0.0
 11
4703.0055602452130188
 21
230.1937522141772945
 31
0.0
  0
ARC
  5
D250
  8
0
 10
4703.307048440883591
 20
229.9593376662915034
 30
0.0
 40
0.3818969918569545
 50
99.8452781953936466
 51
142.1340488182219133
  0
LINE
  5
D251
  8
0
 10
4703.2417485738569667
 20
230.3356104925167926
 30
0.0
 11
4706.2074242206954295
 21
230.5146194864045128
 31
0.0
  0
ARC
  5
D252
  8
0
 10
4706.197585147020618
 20
230.6772255182318929
 30
0.0
 40
0.1629034344556114
 50
273.462669209612784
 51
359.7433451640387148
  0
LINE
  5
D253
  8
0
 10
4701.1949882448952849
 20
203.9624286421656052
 30
0.0
 11
4701.8474082585953511
 21
204.0025146401656002
 31
0.0
  0
ARC
  5
D254
  8
0
 10
4706.877584324948657
 20
204.7743433983764874
 30
0.0
 40
0.9999994277670353
 50
180.0701958879284916
 51
189.5388152829359001
  0
ARC
  5
D255
  8
0
 10
4704.7317172467037381
 20
204.4137537962886881
 30
0.0
 40
1.1759533241639799
 50
0.6916129163445277
 51
9.5388152829439772
  0
LINE
  5
D256
  8
0
 10
4705.9075848994907574
 20
204.4279482930622862
 30
0.0
 11
4705.9075848994907574
 21
204.1493030516203078
 31
0.0
  0
LINE
  5
D257
  8
0
 10
4706.3604869470964331
 20
204.1730386421656931
 30
0.0
 11
4701.313377816510183
 21
203.9085308608586899
 31
0.0
  0
ARC
  5
D258
  8
0
 10
4701.3199549609589667
 20
203.7837371324201001
 30
0.0
 40
0.124966929572255
 50
93.0169326740334554
 51
180.0162218643590961
  0
LINE
  5
D259
  8
0
 10
4701.1949880363954435
 20
203.7837017511656086
 30
0.0
 11
4701.1946371343929059
 21
174.3297454021655994
 31
0.0
  0
LINE
  5
D25A
  8
0
 10
4706.3604869470964331
 20
204.1730386421656931
 30
0.0
 11
4706.360487036376071
 21
203.889788628080197
 31
0.0
  0
LINE
  5
D25B
  8
0
 10
4706.3604869470964331
 20
203.764788648097209
 30
0.0
 11
4706.3604869470964331
 21
203.5772900786560058
 31
0.0
  0
LINE
  5
D25C
  8
0
 10
4706.3604869470964331
 20
203.4522883029698903
 30
0.0
 11
4706.3604869470964331
 21
203.2250576863658011
 31
0.0
  0
ARC
  5
D25D
  8
0
 10
4706.3604975062689846
 20
203.8391744043300946
 30
0.0
 40
0.0499894416392977
 50
359.9999999999902229
 51
81.0103364369900447
  0
LINE
  5
D25E
  8
0
 10
4706.4104869479078843
 20
203.8391744043300946
 30
0.0
 11
4706.4104869479078843
 21
203.8157255740657092
 31
0.0
  0
ARC
  5
D25F
  8
0
 10
4706.3605007360129093
 20
203.815713111320008
 30
0.0
 40
0.0499862134491261
 50
280.9869709178009884
 51
0.014285193595514
  0
LINE
  5
D260
  8
0
 10
4706.3505268767949019
 20
203.8913661623656992
 30
0.0
 11
4706.3683086703949812
 21
203.8885498029655992
 31
0.0
  0
ARC
  5
D261
  8
0
 10
4706.1890074560669746
 20
203.22482563703349
 30
0.0
 40
0.1714796480340971
 50
324.047856189320612
 51
0.0775336990868022
  0
LINE
  5
D262
  8
0
 10
4706.3700273968961483
 20
203.7666431177655966
 30
0.0
 11
4706.3496368513951893
 21
203.7626796098656996
 31
0.0
  0
ARC
  5
D263
  8
0
 10
4706.188564363428668
 20
203.2249597572941866
 30
0.0
 40
0.1719171449906369
 50
273.1483424402719038
 51
324.0983715821910209
  0
ARC
  5
D264
  8
0
 10
4706.1980905550472016
 20
202.7323162101482978
 30
0.0
 40
0.3209858900472875
 50
90.0150438559138308
 51
179.9240386569188104
  0
LINE
  5
D265
  8
0
 10
4705.8771049470951766
 20
202.7327417652657005
 30
0.0
 11
4705.8771049470951766
 21
174.3297454021655994
 31
0.0
  0
ARC
  5
D266
  8
0
 10
4706.8181376523325525
 20
202.7825805596679913
 30
0.0
 40
0.597560400955746
 50
145.1378625713944928
 51
157.5532382469972958
  0
LINE
  5
D267
  8
0
 10
4706.265851584592383
 20
203.0107439488621992
 30
0.0
 11
4705.8771049470951766
 21
201.941714573366113
 31
0.0
  0
ARC
  5
D268
  8
0
 10
4704.2939526301379374
 20
201.0752036739444009
 30
0.0
 40
2.0039483302873569
 50
162.9500114451039963
 51
178.7338400512360863
  0
ARC
  5
D269
  8
0
 10
4702.3980011126141108
 20
202.8490232676718108
 30
0.0
 40
0.1398524052215226
 50
359.9366292383464838
 51
59.8994839984174874
  0
ARC
  5
D26A
  8
0
 10
4702.4833945343580126
 20
202.9966380165469957
 30
0.0
 40
0.0306828058296222
 50
180.1889623605320878
 51
240.1864555657716096
  0
LINE
  5
D26B
  8
0
 10
4702.4527118953956233
 20
202.9965368243657053
 30
0.0
 11
4702.4527119037938974
 21
203.1162902055656048
 31
0.0
  0
ARC
  5
D26C
  8
0
 10
4702.4825481070038222
 20
203.1158068413915032
 30
0.0
 40
0.029840118344294
 50
94.0413487603872085
 51
179.0718556104959021
  0
ARC
  5
D26D
  8
0
 10
4703.4012082266608559
 20
193.2195708253738076
 30
0.0
 40
9.9592253022588384
 50
87.2871874591017587
 51
93.6724483537743708
  0
ARC
  5
D26E
  8
0
 10
4703.8173056805808301
 20
201.5415096733744065
 30
0.0
 40
1.6270643492166741
 50
69.5712814699184037
 51
88.0533042613547963
  0
LINE
  5
D26F
  8
0
 10
4702.4684173427949645
 20
201.9839445865700043
 30
0.0
 11
4704.8015304852951886
 21
202.0054365077656087
 31
0.0
  0
ARC
  5
D270
  8
0
 10
4701.5491574719289929
 20
230.2465325172530015
 30
0.0
 40
0.0275678112598619
 50
1.9282278232794881
 51
79.6815483133793521
  0
LINE
  5
D271
  8
0
 10
4702.2904761238633
 20
227.533333347667508
 30
0.0
 11
4705.2970986302871097
 21
227.5331991117359109
 31
0.0
  0
LINE
  5
D272
  8
0
 10
4702.2904761238478386
 20
227.5201019649161083
 30
0.0
 11
4705.2970986343425466
 21
227.5201002659692051
 31
0.0
  0
LINE
  5
D273
  8
0
 10
4702.2904761210129436
 20
224.9852825108474974
 30
0.0
 11
4705.2970994193447041
 21
224.9852673611935927
 31
0.0
  0
LINE
  5
D274
  8
0
 10
4702.2904761209993012
 20
224.9720524613640862
 30
0.0
 11
4705.2971049470952494
 21
224.9720354872164023
 31
0.0
  0
LINE
  5
D275
  8
0
 10
4702.2904761181644062
 20
222.4372333580934935
 30
0.0
 11
4705.2971049470952494
 21
222.4370991114494984
 31
0.0
  0
LINE
  5
D276
  8
0
 10
4702.2904761181480353
 20
222.4240019649161013
 30
0.0
 11
4705.2971002125323139
 21
222.4240002659682887
 31
0.0
  0
LINE
  5
D277
  8
0
 10
4702.2904761153131403
 20
219.8891825108474904
 30
0.0
 11
4705.2971009975317429
 21
219.8891673611855992
 31
0.0
  0
LINE
  5
D278
  8
0
 10
4702.2904761152976789
 20
219.8759524616743875
 30
0.0
 11
4705.297101001629926
 21
219.8759344153793052
 31
0.0
  0
LINE
  5
D279
  8
0
 10
4702.2904761124618744
 20
217.3411333767955114
 30
0.0
 11
4705.2971017866630064
 21
217.3409991116419064
 31
0.0
  0
LINE
  5
D27A
  8
0
 10
4702.2904761124473225
 20
217.3273351753402949
 30
0.0
 11
4705.2971017908948852
 21
217.3273338547670903
 31
0.0
  0
LINE
  5
D27B
  8
0
 10
4702.290476109613337
 20
214.7936518672001966
 30
0.0
 11
4705.2971025755450682
 21
214.7936337911799001
 31
0.0
  0
LINE
  5
D27C
  8
0
 10
4702.2904761095978756
 20
214.7798524607341903
 30
0.0
 11
4705.2971025798169649
 21
214.7798375295216999
 31
0.0
  0
LINE
  5
D27D
  8
0
 10
4702.2904761067629806
 20
212.2450333913641032
 30
0.0
 11
4705.2971049470952494
 21
212.2448991114351884
 31
0.0
  0
LINE
  5
D27E
  8
0
 10
4702.2904761067466097
 20
212.2312351753402027
 30
0.0
 11
4705.297103369081924
 21
212.2312338547662875
 31
0.0
  0
LINE
  5
D27F
  8
0
 10
4702.2904761039144432
 20
209.6975518672001897
 30
0.0
 11
4705.2971041537330166
 21
209.6975337911702866
 31
0.0
  0
LINE
  5
D280
  8
0
 10
4702.2904761038980723
 20
209.6837524600643121
 30
0.0
 11
4705.2971041580049132
 21
209.683738845584088
 31
0.0
  0
LINE
  5
D281
  8
0
 10
4702.2904761010622678
 20
207.1489334064208094
 30
0.0
 11
4705.2971049470952494
 21
207.1487980780867133
 31
0.0
  0
LINE
  5
D282
  8
0
 10
4702.2904761010477159
 20
207.1357019649159952
 30
0.0
 11
4705.2971049470952494
 21
207.1357002659655961
 31
0.0
  0
LINE
  5
D283
  8
0
 10
4702.2904760982219159
 20
204.6008825080276097
 30
0.0
 11
4705.0659909994210466
 21
204.6008853725305983
 31
0.0
  0
LINE
  5
D284
  8
0
 10
4705.2026542306812189
 20
204.600885513575605
 30
0.0
 11
4705.2971049461857547
 21
204.6008856110545935
 31
0.0
  0
LINE
  5
D285
  8
0
 10
4702.29047609819645
 20
204.5857426085937902
 30
0.0
 11
4705.0643178091759182
 21
204.5930969774491075
 31
0.0
  0
LINE
  5
D286
  8
0
 10
4705.1905573221329178
 20
204.5933694758221009
 30
0.0
 11
4705.2971049460566064
 21
204.5934652185578955
 31
0.0
  0
LINE
  5
D287
  8
0
 10
4705.2970979002939202
 20
229.890404454465596
 30
0.0
 11
4705.2971017908948852
 21
217.3273338547670903
 31
0.0
  0
LINE
  5
D288
  8
0
 10
4705.2971022707806696
 20
215.7777429351556009
 30
0.0
 11
4705.2971049470952494
 21
207.1357002659655961
 31
0.0
  0
LINE
  5
D289
  8
0
 10
4705.2958596813095937
 20
201.0605877924068068
 30
0.0
 11
4705.2964664206374437
 21
192.8470797801809908
 31
0.0
  0
LINE
  5
D28A
  8
0
 10
4705.2964792677594232
 20
192.6731666492821944
 30
0.0
 11
4705.297104948193919
 21
184.203250414665689
 31
0.0
  0
LINE
  5
D28B
  8
0
 10
4705.297104948193919
 20
184.203250414665689
 30
0.0
 11
4705.2971049467741977
 21
174.3297454021655994
 31
0.0
  0
LINE
  5
D28C
  8
0
 10
4702.9091929732949211
 20
230.0681639403655936
 30
0.0
 11
4705.2936125342339437
 21
230.0681163252091892
 31
0.0
  0
LINE
  5
D28D
  8
0
 10
4702.2907040999498349
 20
199.5047825096000906
 30
0.0
 11
4705.2959746111837376
 21
199.5047673674608859
 31
0.0
  0
LINE
  5
D28E
  8
0
 10
4702.2907058247210443
 20
199.49155246016511
 30
0.0
 11
4705.2959755883866819
 21
199.4915388509922991
 31
0.0
  0
LINE
  5
D28F
  8
0
 10
4702.2910362834982152
 20
196.956733342965606
 30
0.0
 11
4705.2961628466937327
 21
196.9565991535725971
 31
0.0
  0
LINE
  5
D290
  8
0
 10
4702.2910381562987823
 20
196.9423678335043064
 30
0.0
 11
4705.2961638980459611
 21
196.9423668516589032
 31
0.0
  0
LINE
  5
D291
  8
0
 10
4702.2913683191181917
 20
194.4098188814423054
 30
0.0
 11
4705.2963509810097094
 21
194.4098008180978923
 31
0.0
  0
LINE
  5
D292
  8
0
 10
4702.2913701920369931
 20
194.3954524564076962
 30
0.0
 11
4705.2963520419407359
 21
194.3954388492873022
 31
0.0
  0
LINE
  5
D293
  8
0
 10
4702.2917006508132545
 20
191.860633342965599
 30
0.0
 11
4705.2965393002486962
 21
191.8604991366960917
 31
0.0
  0
LINE
  5
D294
  8
0
 10
4702.2917023757590869
 20
191.8474019642231951
 30
0.0
 11
4705.2965402678737519
 21
191.8474002662846942
 31
0.0
  0
LINE
  5
D295
  8
0
 10
4702.2920328345799135
 20
189.3125825028054976
 30
0.0
 11
4705.2967275182927551
 21
189.3125673636673127
 31
0.0
  0
LINE
  5
D296
  8
0
 10
4702.2920345593511229
 20
189.2993524526503109
 30
0.0
 11
4705.2967284954956995
 21
189.2993388475823053
 31
0.0
  0
LINE
  5
D297
  8
0
 10
4702.2926972018885863
 20
184.2164825471747918
 30
0.0
 11
4705.297103970506214
 21
184.2164855100876935
 31
0.0
  0
LINE
  5
D298
  8
0
 10
4702.2926989266670716
 20
184.2032524488926981
 30
0.0
 11
4705.297104948193919
 21
184.203250414665689
 31
0.0
  0
LINE
  5
D299
  8
0
 10
4702.2930293854424235
 20
181.6684333429656135
 30
0.0
 11
4705.2971049470952494
 21
181.6682991114662116
 31
0.0
  0
LINE
  5
D29A
  8
0
 10
4702.2930312582420811
 20
181.6540678328532863
 30
0.0
 11
4705.2971049470952494
 21
181.6540678328532863
 31
0.0
  0
LINE
  5
D29B
  8
0
 10
4702.2933632939821109
 20
179.1071524451351991
 30
0.0
 11
4705.2971049470952494
 21
179.1071394934203909
 31
0.0
  0
LINE
  5
D29C
  8
0
 10
4702.2933614210633095
 20
179.1215188694615108
 30
0.0
 11
4705.2971049470952494
 21
179.1215008135656888
 31
0.0
  0
LINE
  5
D29D
  8
0
 10
4702.2936937527556438
 20
176.5723333429656066
 30
0.0
 11
4705.2971049470952494
 21
176.572198195540409
 31
0.0
  0
LINE
  5
D29E
  8
0
 10
4702.2936954777051142
 20
176.5591019346003918
 30
0.0
 11
4705.2971049470952494
 21
176.5591002659656112
 31
0.0
  0
ARC
  5
D29F
  8
0
 10
4705.4743191699899398
 20
218.20219420951139
 30
0.0
 40
0.2708809545637405
 50
229.1389503750417873
 51
253.427320855317106
  0
ARC
  5
D2A0
  8
0
 10
4705.3343417974119802
 20
217.6555820877572955
 30
0.0
 40
0.293756305671194
 50
4.8112325871257129
 51
77.6731272161688224
  0
LINE
  5
D2A1
  8
0
 10
4705.6270630337712646
 20
217.6802203690731119
 30
0.0
 11
4705.6271049291954114
 21
216.092068458665608
 31
0.0
  0
ARC
  5
D2A2
  8
0
 10
4705.3300861952120613
 20
216.1236597320242083
 30
0.0
 40
0.2986940523166927
 50
283.0359709084873998
 51
353.9287766231893784
  0
ARC
  5
D2A3
  8
0
 10
4705.4282472128852532
 20
215.6572513968000919
 30
0.0
 40
0.1780932526925861
 50
99.9546608362212936
 51
171.403840474939301
  0
ARC
  5
D2A4
  8
0
 10
4704.9538768566826548
 20
205.078047135750495
 30
0.0
 40
0.356307273561579
 50
95.5050089794695367
 51
121.2225577280628954
  0
LINE
  5
D2A5
  8
0
 10
4704.9196953119399041
 20
205.4327110544001016
 30
0.0
 11
4705.8271049470949947
 21
205.4338403948657117
 31
0.0
  0
ARC
  5
D2A6
  8
0
 10
4705.8262772619882526
 20
205.3830120237086874
 30
0.0
 40
0.0508351096892452
 50
270.9388555065812056
 51
89.0670825890512532
  0
ARC
  5
D2A7
  8
0
 10
4704.9989837601142426
 20
205.7735053304533892
 30
0.0
 40
0.4533231065456237
 50
239.5403595580341118
 51
258.4840858314573779
  0
ARC
  5
D2A8
  8
0
 10
4708.2238812038858669
 20
199.6492367472760066
 30
0.0
 40
5.7971294121605217
 50
117.3588333972427051
 51
120.322488681473601
  0
ARC
  5
D2A9
  8
0
 10
4705.2884619688338717
 20
205.3253228349846893
 30
0.0
 40
0.5930708509724213
 50
297.220496749005008
 51
353.378192022349424
  0
ARC
  5
D2AA
  8
0
 10
4705.4765088185367858
 20
204.3516948543218064
 30
0.0
 40
0.2455025143308777
 50
123.2871966988142987
 51
140.4367758691358858
  0
ARC
  5
D2AB
  8
0
 10
-10424.3912364960997365
 20
22968.6352337360804086
 30
0.0
 40
27333.3511002265295247
 50
303.6092806934482837
 51
303.6099257676601724
  0
ARC
  5
D2AC
  8
0
 10
4705.2433590269083652
 20
205.2560837011968999
 30
0.0
 40
0.6367634897037642
 50
303.8511979166833044
 51
354.8756661506971
  0
ARC
  5
D2AD
  8
0
 10
4705.5005135060901011
 20
193.5098587424934067
 30
0.0
 40
0.2468952354800694
 50
214.2480575788976012
 51
246.5122248246825052
  0
ARC
  5
D2AE
  8
0
 10
4705.2519512928156473
 20
192.9396295373599912
 30
0.0
 40
0.3751536721685303
 50
0.0176947470543373
 51
66.4051882304988368
  0
LINE
  5
D2AF
  8
0
 10
4705.6271049470951766
 20
192.939745396665586
 30
0.0
 11
4705.6271049470951766
 21
192.8497559856656096
 31
0.0
  0
LINE
  5
D2B0
  8
0
 10
4705.6271049470951766
 20
192.6820398972656108
 30
0.0
 11
4705.6271049470951766
 21
191.589745402165704
 31
0.0
  0
ARC
  5
D2B1
  8
0
 10
4705.2519751557238123
 20
191.5898303743263114
 30
0.0
 40
0.3751298009947541
 50
293.5874504767465965
 51
359.987021702332413
  0
ARC
  5
D2B2
  8
0
 10
4705.5021127836844244
 20
191.0169177180522126
 30
0.0
 40
0.2500083795961958
 50
113.5848599171573028
 51
145.2914598632875993
  0
ARC
  5
D2B3
  8
0
 10
4705.4731999422556328
 20
190.0626235566419098
 30
0.0
 40
0.2656501374875244
 50
228.359297685839806
 51
253.3981774255346977
  0
ARC
  5
D2B4
  8
0
 10
4705.331069395088889
 20
189.5172073607041057
 30
0.0
 40
0.2982855602699285
 50
6.2968317537612011
 51
77.1715197496561984
  0
LINE
  5
D2B5
  8
0
 10
4705.6275554050889696
 20
189.5499231266308868
 30
0.0
 11
4705.6275848254472294
 21
187.9645407127976
 31
0.0
  0
ARC
  5
D2B6
  8
0
 10
4705.3363731797826404
 20
187.9832983204009906
 30
0.0
 40
0.2918151305420178
 50
282.1336273624702926
 51
356.3145391981905163
  0
ARC
  5
D2B7
  8
0
 10
4705.4564697340510975
 20
187.4715678664844063
 30
0.0
 40
0.2339342059220689
 50
104.5472581465654969
 51
133.0254930120333086
  0
LINE
  5
D2B8
  8
0
 10
4702.2904761257041173
 20
229.1789871881200895
 30
0.0
 11
4702.2904667205948499
 21
230.256373237265592
 31
0.0
  0
ARC
  5
D2B9
  8
0
 10
4702.3205063459727171
 20
230.2562965332766112
 30
0.0
 40
0.0300397233077207
 50
93.6081056875037234
 51
179.853699730160514
  0
ARC
  5
D2BA
  8
0
 10
4704.333972242922755
 20
201.2364566140792022
 30
0.0
 40
29.1196447262713498
 50
92.1495622600333206
 51
93.9685853709746652
  0
LINE
  5
D2BB
  8
0
 10
4705.4260141347949684
 20
230.2349736340657103
 30
0.0
 11
4706.06160712089968
 21
230.2738979565187094
 31
0.0
  0
ARC
  5
D2BC
  8
0
 10
4705.4339679753156815
 20
230.0936965457183021
 30
0.0
 40
0.1415008101423805
 50
93.2223265664516845
 51
183.6268726227519039
  0
ARC
  5
D2BD
  8
0
 10
4708.885708065230574
 20
184.0526364543875104
 30
0.0
 40
46.3074568616347833
 50
93.3563820411839771
 51
93.4964030931797936
  0
LINE
  5
D2BE
  8
0
 10
4705.2927505673942505
 20
230.0847454021657086
 30
0.0
 11
4705.2936125342339437
 21
230.0681163252091892
 31
0.0
  0
ARC
  5
D2BF
  8
0
 10
4706.0315350244463843
 20
229.9936986831511092
 30
0.0
 40
0.741665414462972
 50
174.2413332221015025
 51
188.0058004793166049
  0
LINE
  5
D2C0
  8
0
 10
4701.5540953923346024
 20
230.2736544854654994
 30
0.0
 11
4674.5823562700961702
 21
230.2736544852656095
 31
0.0
  0
LINE
  5
D2C1
  8
0
 10
4701.7084981487951154
 20
230.1370327361657075
 30
0.0
 11
4701.6888089264002701
 21
230.1078814226061979
 31
0.0
  0
ARC
  5
D2C2
  8
0
 10
4701.6405297380060802
 20
230.1718719624433902
 30
0.0
 40
0.0639834495963385
 50
184.0954541727199114
 51
271.2002304771796162
  0
LINE
  5
D2C3
  8
0
 10
4701.7236198013952162
 20
230.1078657534656031
 30
0.0
 11
4701.6418699635942176
 21
230.1079025508657026
 31
0.0
  0
LINE
  5
D2C4
  8
0
 10
4701.5767096731951824
 20
230.2474601071658924
 30
0.0
 11
4701.5767096731951824
 21
229.9166996660738107
 31
0.0
  0
LINE
  5
D2C5
  8
0
 10
4701.7236198014061301
 20
230.3087021517150959
 30
0.0
 11
4701.7236198013952162
 21
230.0702517427068017
 31
0.0
  0
ARC
  5
D2C6
  8
0
 10
4701.7854592656422028
 20
230.3087909191278868
 30
0.0
 40
0.0618395279455783
 50
137.0142074590434049
 51
180.0822451273498928
  0
ARC
  5
D2C7
  8
0
 10
4674.3795678973810936
 20
231.5176674060085134
 30
0.0
 40
0.1247979978655223
 50
89.9906367044526263
 51
135.0185687901405913
  0
ARC
  5
D2C8
  8
0
 10
4673.2020766263949554
 20
230.3390075243839874
 30
0.0
 40
0.1249896845339332
 50
135.0359230809480096
 51
180.0165805184360011
  0
ARC
  5
D2C9
  8
0
 10
4673.2023090151687938
 20
175.116153537015407
 30
0.0
 40
0.1252220692203022
 50
180.0077493604277095
 51
221.8997003394883052
  0
ARC
  5
D2CA
  8
0
 10
4701.7696418591949623
 20
230.2841346489657042
 30
0.0
 40
0.0610248623998456
 50
135.0784719334000954
 51
168.4428160146991047
  0
ARC
  5
D2CB
  8
0
 10
4674.5821045352386136
 20
230.1341598900160079
 30
0.0
 40
0.1394948218918591
 50
89.8966030766038386
 51
180.2338448853489012
  0
LINE
  5
D2CC
  8
0
 10
4674.4426108751649735
 20
230.1335905625655869
 30
0.0
 11
4674.4426120447951689
 21
173.8920088571655924
 31
0.0
  0
LINE
  5
D2CD
  8
0
 10
4676.628967187994931
 20
227.6099487116078137
 30
0.0
 11
4676.6289407738950104
 21
229.9915055246655982
 31
0.0
  0
ARC
  5
D2CE
  8
0
 10
4676.7039186770853121
 20
229.9925508361033053
 30
0.0
 40
0.0749851894896967
 50
89.8423838846955221
 51
180.7987427121757946
  0
LINE
  5
D2CF
  8
0
 10
4676.7041249550948123
 20
230.067535741865612
 30
0.0
 11
4681.1952578255877597
 21
230.067470624733005
 31
0.0
  0
LINE
  5
D2D0
  8
0
 10
4681.2984834315202534
 20
230.0674691280605089
 30
0.0
 11
4683.6805799887461035
 21
230.0674345899379887
 31
0.0
  0
ARC
  5
D2D1
  8
0
 10
4683.6809552764689215
 20
229.9976144202651085
 30
0.0
 40
0.0698211782628243
 50
359.1012283022021165
 51
90.3079653869218362
  0
LINE
  5
D2D2
  8
0
 10
4683.750767864561567
 20
229.996519213499397
 30
0.0
 11
4683.7507364396378762
 21
227.6049267768050015
 31
0.0
  0
ARC
  5
D2D3
  8
0
 10
4683.6808119131273997
 20
227.6039181473811936
 30
0.0
 40
0.0699318006415093
 50
269.8212492376430873
 51
0.8264081913678596
  0
LINE
  5
D2D4
  8
0
 10
4683.6805937409953913
 20
227.5339866870656067
 30
0.0
 11
4676.7041145228949972
 21
227.5339635809656045
 31
0.0
  0
ARC
  5
D2D5
  8
0
 10
4676.7039083870422473
 20
227.6089116715010903
 30
0.0
 40
0.0749483740110528
 50
179.2071887051679937
 51
270.1575848626621905
  0
LINE
  5
D2D6
  8
0
 10
4674.6267691045950414
 20
225.0569224381655999
 30
0.0
 11
4674.6267442947973905
 21
227.4484218158843021
 31
0.0
  0
ARC
  5
D2D7
  8
0
 10
4674.69673075294304
 20
227.4494820368960859
 30
0.0
 40
0.0699944882993229
 50
89.8322680948244283
 51
180.8679042300443029
  0
LINE
  5
D2D8
  8
0
 10
4674.6969356596946454
 20
227.5194762252656062
 30
0.0
 11
4680.1132210948462671
 21
227.5193845899379994
 31
0.0
  0
ARC
  5
D2D9
  8
0
 10
4680.1135963825690851
 20
227.4495644202652045
 30
0.0
 40
0.0698211782628243
 50
359.1012283022021165
 51
90.3079653869218362
  0
LINE
  5
D2DA
  8
0
 10
4680.1834089706608211
 20
227.448469213499493
 30
0.0
 11
4680.1833775457380398
 21
225.0568767768050975
 31
0.0
  0
ARC
  5
D2DB
  8
0
 10
4680.1134530192266539
 20
225.0558681473812896
 30
0.0
 40
0.0699318006415093
 50
269.8212492376430873
 51
0.8264081913678596
  0
LINE
  5
D2DC
  8
0
 10
4680.1132348470946454
 20
224.985936687065788
 30
0.0
 11
4674.6969289556964213
 21
224.9859228642656035
 31
0.0
  0
ARC
  5
D2DD
  8
0
 10
4674.6967153200102985
 20
225.0558765721478949
 30
0.0
 40
0.0699540340986673
 50
179.1433526005693011
 51
270.1749783590756806
  0
LINE
  5
D2DE
  8
0
 10
4680.1971483076940785
 20
225.0569102622656885
 30
0.0
 11
4680.1971175214948744
 21
227.448438112665599
 31
0.0
  0
ARC
  5
D2DF
  8
0
 10
4680.2670870909560108
 20
227.4494968292835892
 30
0.0
 40
0.0699775787764331
 50
89.8713110402284769
 51
180.8668820694859107
  0
LINE
  5
D2E0
  8
0
 10
4680.267244263687644
 20
227.5194742315514134
 30
0.0
 11
4687.2479327958953945
 21
227.5194735365656982
 31
0.0
  0
ARC
  5
D2E1
  8
0
 10
4687.2481641880558527
 20
227.4495033309877101
 30
0.0
 40
0.0699705881849908
 50
359.13413443658402
 51
90.1894770176523792
  0
LINE
  5
D2E2
  8
0
 10
4687.3181267864947586
 20
227.4484459613657066
 30
0.0
 11
4687.3180953631936063
 21
225.0569121712655942
 31
0.0
  0
ARC
  5
D2E3
  8
0
 10
4687.2481739825580007
 20
225.0558676761937988
 30
0.0
 40
0.0699291816069565
 50
269.8186353982289916
 51
0.8558284741055247
  0
LINE
  5
D2E4
  8
0
 10
4687.2479526284341773
 20
224.9859388449254141
 30
0.0
 11
4680.2673044558941911
 21
224.9859265477657004
 31
0.0
  0
ARC
  5
D2E5
  8
0
 10
4680.2670794065161317
 20
225.0558650944392127
 30
0.0
 40
0.0699389087564662
 50
179.143739364404496
 51
270.1843666436164995
  0
LINE
  5
D2E6
  8
0
 10
4687.3318660953946164
 20
225.0569102622656885
 30
0.0
 11
4687.3318353091954123
 21
227.448438112665599
 31
0.0
  0
ARC
  5
D2E7
  8
0
 10
4687.4018048786556392
 20
227.4494968292835892
 30
0.0
 40
0.0699775787764331
 50
89.8713110402284769
 51
180.8668820694859107
  0
LINE
  5
D2E8
  8
0
 10
4687.4019620513890914
 20
227.5194742315514134
 30
0.0
 11
4694.3826505835950229
 21
227.5194735365656982
 31
0.0
  0
ARC
  5
D2E9
  8
0
 10
4694.3828819757545716
 20
227.4495033309877101
 30
0.0
 40
0.0699705881849908
 50
359.13413443658402
 51
90.1894770176523792
  0
LINE
  5
D2EA
  8
0
 10
4694.4528445741952964
 20
227.4484459613657066
 30
0.0
 11
4694.4528131508950537
 21
225.0569121712655942
 31
0.0
  0
ARC
  5
D2EB
  8
0
 10
4694.3828917702567196
 20
225.0558676761937988
 30
0.0
 40
0.0699291816069565
 50
269.8186353982289916
 51
0.8558284741055247
  0
LINE
  5
D2EC
  8
0
 10
4694.3826704161347152
 20
224.9859388449254141
 30
0.0
 11
4687.6125904184909814
 21
224.9859269187041093
 31
0.0
  0
LINE
  5
D2ED
  8
0
 10
4687.5100957720569568
 20
224.9859267381486916
 30
0.0
 11
4687.4020222435947289
 21
224.9859265477657004
 31
0.0
  0
ARC
  5
D2EE
  8
0
 10
4687.4017971942148506
 20
225.0558650944392127
 30
0.0
 40
0.0699389087564662
 50
179.143739364404496
 51
270.1843666436164995
  0
LINE
  5
D2EF
  8
0
 10
4694.4665838831951987
 20
225.0569102621655873
 30
0.0
 11
4694.4665530969950851
 21
227.4484381125656114
 31
0.0
  0
ARC
  5
D2F0
  8
0
 10
4694.5365226664562215
 20
227.4494968291836869
 30
0.0
 40
0.0699775787764331
 50
89.8713110402284769
 51
180.8668820694859107
  0
LINE
  5
D2F1
  8
0
 10
4694.5366798391878547
 20
227.5194742314513121
 30
0.0
 11
4701.1949888743301926
 21
227.5194735685612102
 31
0.0
  0
LINE
  5
D2F2
  8
0
 10
4701.194988806634683
 20
224.9859382768842977
 30
0.0
 11
4694.5367400313953112
 21
224.9859265476655992
 31
0.0
  0
ARC
  5
D2F3
  8
0
 10
4694.5365149820154329
 20
225.0558650943393104
 30
0.0
 40
0.0699389087564662
 50
179.143739364404496
 51
270.1843666436164995
  0
LINE
  5
D2F4
  8
0
 10
4683.7645072015948244
 20
227.6049602622657062
 30
0.0
 11
4683.7644764153947108
 21
229.9964881126655882
 31
0.0
  0
ARC
  5
D2F5
  8
0
 10
4683.8344459848558472
 20
229.9975468292836922
 30
0.0
 40
0.0699775787764331
 50
89.8713110402284769
 51
180.8668820694859107
  0
LINE
  5
D2F6
  8
0
 10
4683.8346031575892994
 20
230.0675242315514026
 30
0.0
 11
4687.9679572417908275
 21
230.0675238200414867
 31
0.0
  0
LINE
  5
D2F7
  8
0
 10
4688.0711758649185867
 20
230.067523809765305
 30
0.0
 11
4690.8152916897952309
 21
230.0675235365656874
 31
0.0
  0
ARC
  5
D2F8
  8
0
 10
4690.8155230819556891
 20
229.9975533309876994
 30
0.0
 40
0.0699705881849908
 50
359.13413443658402
 51
90.1894770176523792
  0
LINE
  5
D2F9
  8
0
 10
4690.885485680396414
 20
229.9964959613656958
 30
0.0
 11
4690.8854542570952617
 21
227.6049621712656972
 31
0.0
  0
ARC
  5
D2FA
  8
0
 10
4690.8155328764578371
 20
227.6039176761937028
 30
0.0
 40
0.0699291816069565
 50
269.8186353982289916
 51
0.8558284741055247
  0
LINE
  5
D2FB
  8
0
 10
4690.8153115223340137
 20
227.5339888449254033
 30
0.0
 11
4683.8346633497940275
 21
227.5339765477656897
 31
0.0
  0
ARC
  5
D2FC
  8
0
 10
4683.8344383004159681
 20
227.6039150944392873
 30
0.0
 40
0.0699389087564662
 50
179.143739364404496
 51
270.1843666436164995
  0
LINE
  5
D2FD
  8
0
 10
4690.8992249892953623
 20
227.6049602622657062
 30
0.0
 11
4690.8991942030952487
 21
229.9964881126655882
 31
0.0
  0
ARC
  5
D2FE
  8
0
 10
4690.9691637725563851
 20
229.9975468292836922
 30
0.0
 40
0.0699775787764331
 50
89.8713110402284769
 51
180.8668820694859107
  0
LINE
  5
D2FF
  8
0
 10
4690.9693209452880183
 20
230.0675242315514026
 30
0.0
 11
4694.7406565278115522
 21
230.0675238560833975
 31
0.0
  0
LINE
  5
D300
  8
0
 10
4694.8438772007502848
 20
230.0675238458071021
 30
0.0
 11
4697.9500094774939498
 21
230.0675235365656874
 31
0.0
  0
ARC
  5
D301
  8
0
 10
4697.9502408696553175
 20
229.9975533309876994
 30
0.0
 40
0.0699705881849908
 50
359.13413443658402
 51
90.1894770176523792
  0
LINE
  5
D302
  8
0
 10
4698.0202034680951328
 20
229.9964959613656958
 30
0.0
 11
4698.0201720447939806
 21
227.6049621712656972
 31
0.0
  0
ARC
  5
D303
  8
0
 10
4697.950250664156556
 20
227.6039176761937028
 30
0.0
 40
0.0699291816069565
 50
269.8186353982289916
 51
0.8558284741055247
  0
LINE
  5
D304
  8
0
 10
4697.9500293100345516
 20
227.5339888449254033
 30
0.0
 11
4690.9693811374945653
 21
227.5339765477656897
 31
0.0
  0
ARC
  5
D305
  8
0
 10
4690.969156088114687
 20
227.6039150944392873
 30
0.0
 40
0.0699389087564662
 50
179.143739364404496
 51
270.1843666436164995
  0
LINE
  5
D306
  8
0
 10
4698.0339427770950351
 20
227.6049602622657062
 30
0.0
 11
4698.033911990894012
 21
229.9964881126655882
 31
0.0
  0
ARC
  5
D307
  8
0
 10
4698.1038815603551484
 20
229.9975468292836922
 30
0.0
 40
0.0699775787764331
 50
89.8713110402284769
 51
180.8668820694859107
  0
LINE
  5
D308
  8
0
 10
4698.1040387330876911
 20
230.0675242315514026
 30
0.0
 11
4701.5767096731951824
 21
230.0675238858179057
 31
0.0
  0
LINE
  5
D309
  8
0
 10
4701.1949888747185469
 20
227.5339819926994096
 30
0.0
 11
4698.1040989252951476
 21
227.5339765477656897
 31
0.0
  0
ARC
  5
D30A
  8
0
 10
4698.1038738759161788
 20
227.6039150944392873
 30
0.0
 40
0.0699389087564662
 50
179.143739364404496
 51
270.1843666436164995
  0
LINE
  5
D30B
  8
0
 10
4698.0339427770950351
 20
222.5088602622656992
 30
0.0
 11
4698.033911990894012
 21
224.9003881126656097
 31
0.0
  0
ARC
  5
D30C
  8
0
 10
4698.1038815603551484
 20
224.9014468292837137
 30
0.0
 40
0.0699775787764331
 50
89.8713110402284769
 51
180.8668820694859107
  0
LINE
  5
D30D
  8
0
 10
4698.1040387330876911
 20
224.9714242315513957
 30
0.0
 11
4701.1949882448952849
 21
224.9714239238215896
 31
0.0
  0
LINE
  5
D30E
  8
0
 10
4701.1949882448952849
 20
222.4378819926982942
 30
0.0
 11
4698.1040989252951476
 21
222.4378765477657112
 31
0.0
  0
ARC
  5
D30F
  8
0
 10
4698.1038738759161788
 20
222.507815094439394
 30
0.0
 40
0.0699389087564662
 50
179.143739364404496
 51
270.1843666436164995
  0
LINE
  5
D310
  8
0
 10
4690.8992249892953623
 20
222.5088602622656992
 30
0.0
 11
4690.8991942030952487
 21
224.9003881126656097
 31
0.0
  0
ARC
  5
D311
  8
0
 10
4690.9691637725563851
 20
224.9014468292837137
 30
0.0
 40
0.0699775787764331
 50
89.8713110402284769
 51
180.8668820694859107
  0
LINE
  5
D312
  8
0
 10
4690.9693209452880183
 20
224.9714242315513957
 30
0.0
 11
4697.9500094774939498
 21
224.9714235365657089
 31
0.0
  0
ARC
  5
D313
  8
0
 10
4697.9502408696553175
 20
224.9014533309876072
 30
0.0
 40
0.0699705881849908
 50
359.13413443658402
 51
90.1894770176523792
  0
LINE
  5
D314
  8
0
 10
4698.0202034680951328
 20
224.9003959613656036
 30
0.0
 11
4698.0201720447939806
 21
222.508862171265605
 31
0.0
  0
ARC
  5
D315
  8
0
 10
4697.950250664156556
 20
222.5078176761938096
 30
0.0
 40
0.0699291816069565
 50
269.8186353982289916
 51
0.8558284741055247
  0
LINE
  5
D316
  8
0
 10
4697.9500293100345516
 20
222.4378888449253964
 30
0.0
 11
4690.9693811374945653
 21
222.4378765477657112
 31
0.0
  0
ARC
  5
D317
  8
0
 10
4690.969156088114687
 20
222.507815094439394
 30
0.0
 40
0.0699389087564662
 50
179.143739364404496
 51
270.1843666436164995
  0
LINE
  5
D318
  8
0
 10
4683.7645072015948244
 20
222.5088602622656992
 30
0.0
 11
4683.7644764153947108
 21
224.9003881126656097
 31
0.0
  0
ARC
  5
D319
  8
0
 10
4683.8344459848558472
 20
224.9014468292837137
 30
0.0
 40
0.0699775787764331
 50
89.8713110402284769
 51
180.8668820694859107
  0
LINE
  5
D31A
  8
0
 10
4683.8346031575892994
 20
224.9714242315513957
 30
0.0
 11
4687.5100956202386442
 21
224.9714238656254111
 31
0.0
  0
LINE
  5
D31B
  8
0
 10
4687.6125910595837922
 20
224.9714238554211931
 30
0.0
 11
4690.8152916897952309
 21
224.9714235365657089
 31
0.0
  0
ARC
  5
D31C
  8
0
 10
4690.8155230819556891
 20
224.9014533309876072
 30
0.0
 40
0.0699705881849908
 50
359.13413443658402
 51
90.1894770176523792
  0
LINE
  5
D31D
  8
0
 10
4690.885485680396414
 20
224.9003959613656036
 30
0.0
 11
4690.8854542570952617
 21
222.508862171265605
 31
0.0
  0
ARC
  5
D31E
  8
0
 10
4690.8155328764578371
 20
222.5078176761938096
 30
0.0
 40
0.0699291816069565
 50
269.8186353982289916
 51
0.8558284741055247
  0
LINE
  5
D31F
  8
0
 10
4690.8153115223340137
 20
222.4378888449253964
 30
0.0
 11
4683.8346633497940275
 21
222.4378765477657112
 31
0.0
  0
ARC
  5
D320
  8
0
 10
4683.8344383004159681
 20
222.507815094439394
 30
0.0
 40
0.0699389087564662
 50
179.143739364404496
 51
270.1843666436164995
  0
LINE
  5
D321
  8
0
 10
4680.1971234870952685
 20
219.9608102048657088
 30
0.0
 11
4680.1970927008951548
 21
222.3523380552655908
 31
0.0
  0
ARC
  5
D322
  8
0
 10
4680.2670622703562913
 20
222.3533967718836948
 30
0.0
 40
0.0699775787764331
 50
89.8713110402284769
 51
180.8668820694859107
  0
LINE
  5
D323
  8
0
 10
4680.2672194430888339
 20
222.4233741741514052
 30
0.0
 11
4687.2479079752947655
 21
222.42337347916569
 31
0.0
  0
ARC
  5
D324
  8
0
 10
4687.2481393674552237
 20
222.353403273587702
 30
0.0
 40
0.0699705881849908
 50
359.13413443658402
 51
90.1894770176523792
  0
LINE
  5
D325
  8
0
 10
4687.318101965895039
 20
222.3523459039656984
 30
0.0
 11
4687.3180705425947963
 21
219.9608121138655861
 31
0.0
  0
ARC
  5
D326
  8
0
 10
4687.2481491619573717
 20
219.9597676187937907
 30
0.0
 40
0.0699291816069565
 50
269.8186353982289916
 51
0.8558284741055247
  0
LINE
  5
D327
  8
0
 10
4687.2479278078353673
 20
219.8898387875254059
 30
0.0
 11
4680.267279635295381
 21
219.8898264903656923
 31
0.0
  0
ARC
  5
D328
  8
0
 10
4680.2670545859145932
 20
219.9597650370392046
 30
0.0
 40
0.0699389087564662
 50
179.143739364404496
 51
270.1843666436164995
  0
LINE
  5
D329
  8
0
 10
4687.3318660953946164
 20
219.96081026226571
 30
0.0
 11
4687.3318353091954123
 21
222.352338112665592
 31
0.0
  0
ARC
  5
D32A
  8
0
 10
4687.4018048786556392
 20
222.3533968292836107
 30
0.0
 40
0.0699775787764331
 50
89.8713110402284769
 51
180.8668820694859107
  0
LINE
  5
D32B
  8
0
 10
4687.4019620513890914
 20
222.4233742315514064
 30
0.0
 11
4694.3826505835950229
 21
222.4233735365656059
 31
0.0
  0
ARC
  5
D32C
  8
0
 10
4694.3828819757545716
 20
222.3534033309877032
 30
0.0
 40
0.0699705881849908
 50
359.13413443658402
 51
90.1894770176523792
  0
LINE
  5
D32D
  8
0
 10
4694.4528445741952964
 20
222.3523459613656996
 30
0.0
 11
4694.4528131508950537
 21
219.9608121712655873
 31
0.0
  0
ARC
  5
D32E
  8
0
 10
4694.3828917702567196
 20
219.9597676761937066
 30
0.0
 40
0.0699291816069565
 50
269.8186353982289916
 51
0.8558284741055247
  0
LINE
  5
D32F
  8
0
 10
4694.3826704161347152
 20
219.8898388449254071
 30
0.0
 11
4687.4020222435947289
 21
219.8898265477656082
 31
0.0
  0
ARC
  5
D330
  8
0
 10
4687.4017971942148506
 20
219.959765094439291
 30
0.0
 40
0.0699389087564662
 50
179.143739364404496
 51
270.1843666436164995
  0
LINE
  5
D331
  8
0
 10
4694.4665590589911517
 20
219.960811564789708
 30
0.0
 11
4694.466528272791038
 21
222.3523394151897037
 31
0.0
  0
ARC
  5
D332
  8
0
 10
4694.5364978422530839
 20
222.353398131807694
 30
0.0
 40
0.0699775787764331
 50
89.8713110402284769
 51
180.8668820694859107
  0
LINE
  5
D333
  8
0
 10
4694.5366550149838076
 20
222.4233755340754044
 30
0.0
 11
4701.1949882448952849
 21
222.4233748711828866
 31
0.0
  0
LINE
  5
D334
  8
0
 10
4701.1949882448952849
 20
219.8898395795511078
 30
0.0
 11
4700.4643972642770677
 21
219.8898382925368082
 31
0.0
  0
LINE
  5
D335
  8
0
 10
4700.3625655077312331
 20
219.8898381131492954
 30
0.0
 11
4697.4643969197641127
 21
219.8898330077147989
 31
0.0
  0
LINE
  5
D336
  8
0
 10
4697.3625654522529658
 20
219.8898328283277124
 30
0.0
 11
4694.5367152071912642
 21
219.8898278502896915
 31
0.0
  0
ARC
  5
D337
  8
0
 10
4694.5364901578122954
 20
219.959766396963289
 30
0.0
 40
0.0699389087564662
 50
179.143739364404496
 51
270.1843666436164995
  0
LINE
  5
D338
  8
0
 10
4698.0339427770950351
 20
217.4127602622656923
 30
0.0
 11
4698.033911990894012
 21
219.804288112665688
 31
0.0
  0
ARC
  5
D339
  8
0
 10
4698.1038815603551484
 20
219.805346829283593
 30
0.0
 40
0.0699775787764331
 50
89.8713110402284769
 51
180.8668820694859107
  0
LINE
  5
D33A
  8
0
 10
4698.1040387330876911
 20
219.8753242315513035
 30
0.0
 11
4700.3625655839059618
 21
219.8753240066963031
 31
0.0
  0
LINE
  5
D33B
  8
0
 10
4700.4643971935593072
 20
219.8753239965579951
 30
0.0
 11
4701.1949882448952849
 21
219.8753239238216111
 31
0.0
  0
ARC
  5
D33C
  8
0
 10
4698.1038738759161788
 20
217.4117150944393018
 30
0.0
 40
0.0699389087564662
 50
179.143739364404496
 51
270.1843666436164995
  0
LINE
  5
D33D
  8
0
 10
4690.8992249892953623
 20
217.4127602622656923
 30
0.0
 11
4690.8991942030952487
 21
219.804288112665688
 31
0.0
  0
ARC
  5
D33E
  8
0
 10
4690.9691637725563851
 20
219.805346829283593
 30
0.0
 40
0.0699775787764331
 50
89.8713110402284769
 51
180.8668820694859107
  0
LINE
  5
D33F
  8
0
 10
4690.9693209452880183
 20
219.8753242315513035
 30
0.0
 11
4697.3625655284740787
 21
219.8753235950505029
 31
0.0
  0
LINE
  5
D340
  8
0
 10
4697.4643968465243233
 20
219.8753235849123939
 30
0.0
 11
4697.9500094774939498
 21
219.8753235365657019
 31
0.0
  0
ARC
  5
D341
  8
0
 10
4697.9502408696553175
 20
219.8053533309876002
 30
0.0
 40
0.0699705881849908
 50
359.13413443658402
 51
90.1894770176523792
  0
LINE
  5
D342
  8
0
 10
4698.0202034680951328
 20
219.8042959613655967
 30
0.0
 11
4698.0201720447939806
 21
217.412762171265598
 31
0.0
  0
ARC
  5
D343
  8
0
 10
4697.950250664156556
 20
217.4117176761938026
 30
0.0
 40
0.0699291816069565
 50
269.8186353982289916
 51
0.8558284741055247
  0
LINE
  5
D344
  8
0
 10
4697.9500293100345516
 20
217.3417888449253894
 30
0.0
 11
4697.4643840580056349
 21
217.3417879894091982
 31
0.0
  0
LINE
  5
D345
  8
0
 10
4697.3625788379176811
 20
217.3417878100684959
 30
0.0
 11
4690.9693811374945653
 21
217.3417765477657042
 31
0.0
  0
ARC
  5
D346
  8
0
 10
4690.969156088114687
 20
217.4117150944393018
 30
0.0
 40
0.0699389087564662
 50
179.143739364404496
 51
270.1843666436164995
  0
LINE
  5
D347
  8
0
 10
4683.7644823772461677
 20
217.412761564792703
 30
0.0
 11
4683.7644515910460541
 21
219.8042894151926987
 31
0.0
  0
ARC
  5
D348
  8
0
 10
4683.834421160506281
 20
219.8053481318106037
 30
0.0
 40
0.0699775787764331
 50
89.8713110402284769
 51
180.8668820694859107
  0
LINE
  5
D349
  8
0
 10
4683.8345783332397332
 20
219.8753255340783994
 30
0.0
 11
4690.8152668654447552
 21
219.8753248390927126
 31
0.0
  0
ARC
  5
D34A
  8
0
 10
4690.8154982576061229
 20
219.8053546335148098
 30
0.0
 40
0.0699705881849908
 50
359.13413443658402
 51
90.1894770176523792
  0
LINE
  5
D34B
  8
0
 10
4690.8854608560459383
 20
219.8042972638928063
 30
0.0
 11
4690.8854294327456955
 21
217.412763473792694
 31
0.0
  0
ARC
  5
D34C
  8
0
 10
4690.8155080521082709
 20
217.4117189787206996
 30
0.0
 40
0.0699291816069565
 50
269.8186353982289916
 51
0.8558284741055247
  0
LINE
  5
D34D
  8
0
 10
4690.815286697985357
 20
217.3417901474524001
 30
0.0
 11
4683.8346385254453708
 21
217.3417778502926865
 31
0.0
  0
ARC
  5
D34E
  8
0
 10
4683.8344134760664019
 20
217.4117163969663125
 30
0.0
 40
0.0699389087564662
 50
179.143739364404496
 51
270.1843666436164995
  0
LINE
  5
D34F
  8
0
 10
4680.1971483076940785
 20
214.8647102622655893
 30
0.0
 11
4680.1971175214948744
 21
217.2562381126656987
 31
0.0
  0
ARC
  5
D350
  8
0
 10
4680.2670870909560108
 20
217.2572968292836038
 30
0.0
 40
0.0699775787764331
 50
89.8713110402284769
 51
180.8668820694859107
  0
LINE
  5
D351
  8
0
 10
4680.267244263687644
 20
217.3272742315513995
 30
0.0
 11
4687.2479327958953945
 21
217.327273536565599
 31
0.0
  0
ARC
  5
D352
  8
0
 10
4687.2481641880558527
 20
217.2573033309876109
 30
0.0
 40
0.0699705881849908
 50
359.13413443658402
 51
90.1894770176523792
  0
LINE
  5
D353
  8
0
 10
4687.3181267864947586
 20
217.2562459613656074
 30
0.0
 11
4687.3180953631936063
 21
214.8647121712656087
 31
0.0
  0
ARC
  5
D354
  8
0
 10
4687.2481739825580007
 20
214.8636676761936997
 30
0.0
 40
0.0699291816069565
 50
269.8186353982289916
 51
0.8558284741055247
  0
LINE
  5
D355
  8
0
 10
4687.2479526284341773
 20
214.7937388449254001
 30
0.0
 11
4686.5716615310484485
 21
214.7937376535660974
 31
0.0
  0
LINE
  5
D356
  8
0
 10
4686.4684045814456113
 20
214.7937374716680097
 30
0.0
 11
4680.2673044558941911
 21
214.7937265477656013
 31
0.0
  0
ARC
  5
D357
  8
0
 10
4680.2670794065161317
 20
214.8636650944393125
 30
0.0
 40
0.0699389087564662
 50
179.143739364404496
 51
270.1843666436164995
  0
LINE
  5
D358
  8
0
 10
4687.3318660953946164
 20
214.8647102622655893
 30
0.0
 11
4687.3318353091954123
 21
217.2562381126656987
 31
0.0
  0
ARC
  5
D359
  8
0
 10
4687.4018048786556392
 20
217.2572968292836038
 30
0.0
 40
0.0699775787764331
 50
89.8713110402284769
 51
180.8668820694859107
  0
LINE
  5
D35A
  8
0
 10
4687.4019620513890914
 20
217.3272742315513995
 30
0.0
 11
4694.3826505835950229
 21
217.327273536565599
 31
0.0
  0
ARC
  5
D35B
  8
0
 10
4694.3828819757545716
 20
217.2573033309876109
 30
0.0
 40
0.0699705881849908
 50
359.13413443658402
 51
90.1894770176523792
  0
LINE
  5
D35C
  8
0
 10
4694.4528445741952964
 20
217.2562459613656074
 30
0.0
 11
4694.4528131508950537
 21
214.8647121712656087
 31
0.0
  0
ARC
  5
D35D
  8
0
 10
4694.3828917702567196
 20
214.8636676761936997
 30
0.0
 40
0.0699291816069565
 50
269.8186353982289916
 51
0.8558284741055247
  0
LINE
  5
D35E
  8
0
 10
4694.3826704161347152
 20
214.7937388449254001
 30
0.0
 11
4687.4020222435947289
 21
214.7937265477656013
 31
0.0
  0
ARC
  5
D35F
  8
0
 10
4687.4017971942148506
 20
214.8636650944393125
 30
0.0
 40
0.0699389087564662
 50
179.143739364404496
 51
270.1843666436164995
  0
LINE
  5
D360
  8
0
 10
4694.4665838831951987
 20
214.8647102622655893
 30
0.0
 11
4694.4665530969950851
 21
217.2562381126656987
 31
0.0
  0
ARC
  5
D361
  8
0
 10
4694.5365226664562215
 20
217.2572968292836038
 30
0.0
 40
0.0699775787764331
 50
89.8713110402284769
 51
180.8668820694859107
  0
LINE
  5
D362
  8
0
 10
4694.5366798391878547
 20
217.3272742315513995
 30
0.0
 11
4697.3625789141633504
 21
217.3272739502095874
 31
0.0
  0
LINE
  5
D363
  8
0
 10
4697.4643839847431082
 20
217.3272739400740079
 30
0.0
 11
4700.3625789568714026
 21
217.3272736515345969
 31
0.0
  0
LINE
  5
D364
  8
0
 10
4700.4643847786019251
 20
217.327273641398989
 30
0.0
 11
4701.1949882448952849
 21
217.3272735686612123
 31
0.0
  0
LINE
  5
D365
  8
0
 10
4701.1949882448952849
 20
214.793738276983305
 30
0.0
 11
4700.464372434361394
 21
214.7937369899252928
 31
0.0
  0
LINE
  5
D366
  8
0
 10
4700.3625922536648432
 20
214.7937368106285874
 30
0.0
 11
4697.4643711961916779
 21
214.7937317051016919
 31
0.0
  0
LINE
  5
D367
  8
0
 10
4697.3625922236406041
 20
214.7937315258070043
 30
0.0
 11
4694.5367400313953112
 21
214.7937265477656013
 31
0.0
  0
ARC
  5
D368
  8
0
 10
4694.5365149820154329
 20
214.8636650944393125
 30
0.0
 40
0.0699389087564662
 50
179.143739364404496
 51
270.1843666436164995
  0
LINE
  5
D369
  8
0
 10
4698.0339179526927182
 20
212.3166615648563038
 30
0.0
 11
4698.0338871664916951
 21
214.7081894152562995
 31
0.0
  0
ARC
  5
D36A
  8
0
 10
4698.1038567359528315
 20
214.7092481318742898
 30
0.0
 40
0.0699775787764331
 50
89.8713110402284769
 51
180.8668820694859107
  0
LINE
  5
D36B
  8
0
 10
4698.1040139086862837
 20
214.7792255341420002
 30
0.0
 11
4700.362592329826839
 21
214.7792253092817134
 31
0.0
  0
LINE
  5
D36C
  8
0
 10
4700.4643723636545474
 20
214.7792252991486919
 30
0.0
 11
4701.1949882448952849
 21
214.7792252264098067
 31
0.0
  0
LINE
  5
D36D
  8
0
 10
4701.1949882448952849
 20
212.2456832953328103
 30
0.0
 11
4700.464360019382184
 21
212.2456820082529134
 31
0.0
  0
LINE
  5
D36E
  8
0
 10
4700.3626056266557498
 20
212.2456818290015974
 30
0.0
 11
4698.1040741008928308
 21
212.2456778503562873
 31
0.0
  0
ARC
  5
D36F
  8
0
 10
4698.1038490515138619
 20
212.3156163970299986
 30
0.0
 40
0.0699389087564662
 50
179.143739364404496
 51
270.1843666436164995
  0
LINE
  5
D370
  8
0
 10
4690.8992001687947777
 20
212.3166602048657126
 30
0.0
 11
4690.8991693825937546
 21
214.7081880552655946
 31
0.0
  0
ARC
  5
D371
  8
0
 10
4690.9691389520558005
 20
214.7092467718836986
 30
0.0
 40
0.0699775787764331
 50
89.8713110402284769
 51
180.8668820694859107
  0
LINE
  5
D372
  8
0
 10
4690.9692961247892526
 20
214.779224174151409
 30
0.0
 11
4697.3625922998571696
 21
214.7792235376454926
 31
0.0
  0
LINE
  5
D373
  8
0
 10
4697.4643711229591645
 20
214.7792235275124995
 30
0.0
 11
4697.9499846569951842
 21
214.7792234791656938
 31
0.0
  0
ARC
  5
D374
  8
0
 10
4697.9502160491547329
 20
214.709253273587592
 30
0.0
 40
0.0699705881849908
 50
359.13413443658402
 51
90.1894770176523792
  0
LINE
  5
D375
  8
0
 10
4698.0201786475945482
 20
214.7081959039655885
 30
0.0
 11
4698.020147224295215
 21
212.3166621138655898
 31
0.0
  0
ARC
  5
D376
  8
0
 10
4697.9502258436577904
 20
212.3156176187937945
 30
0.0
 40
0.0699291816069565
 50
269.8186353982289916
 51
0.8558284741055247
  0
LINE
  5
D377
  8
0
 10
4697.9500044895348765
 20
212.2456887875254097
 30
0.0
 11
4697.4643583344395665
 21
212.2456879320075984
 31
0.0
  0
LINE
  5
D378
  8
0
 10
4697.3626056092989529
 20
212.2456877527592951
 30
0.0
 11
4690.9693563169948902
 21
212.2456764903656108
 31
0.0
  0
ARC
  5
D379
  8
0
 10
4690.9691312676159214
 20
212.3156150370392936
 30
0.0
 40
0.0699389087564662
 50
179.143739364404496
 51
270.1843666436164995
  0
LINE
  5
D37A
  8
0
 10
4683.7644803526300166
 20
214.4023365479123981
 30
0.0
 11
4683.7644784554895523
 21
214.5497097909785111
 31
0.0
  0
LINE
  5
D37B
  8
0
 10
4683.7644777731156864
 20
214.6027178376317863
 30
0.0
 11
4683.7644764153947108
 21
214.7081881126655958
 31
0.0
  0
ARC
  5
D37C
  8
0
 10
4683.8344459848558472
 20
214.7092468292835861
 30
0.0
 40
0.0699775787764331
 50
89.8713110402284769
 51
180.8668820694859107
  0
LINE
  5
D37D
  8
0
 10
4683.8346031575892994
 20
214.7792242315512965
 30
0.0
 11
4686.4684007796104197
 21
214.7792239693349075
 31
0.0
  0
LINE
  5
D37E
  8
0
 10
4686.5716656658023567
 20
214.7792239590540078
 30
0.0
 11
4690.8152916897952309
 21
214.7792235365656097
 31
0.0
  0
ARC
  5
D37F
  8
0
 10
4690.8155230819556891
 20
214.7092533309875932
 30
0.0
 40
0.0699705881849908
 50
359.13413443658402
 51
90.1894770176523792
  0
LINE
  5
D380
  8
0
 10
4690.885485680396414
 20
214.7081959613655897
 30
0.0
 11
4690.8854542570952617
 21
212.316662171265591
 31
0.0
  0
ARC
  5
D381
  8
0
 10
4690.8155328764578371
 20
212.3156176761937104
 30
0.0
 40
0.0699291816069565
 50
269.8186353982289916
 51
0.8558284741055247
  0
LINE
  5
D382
  8
0
 10
4690.8153115223340137
 20
212.2456888449252972
 30
0.0
 11
4686.5460042904260263
 21
212.2456813240831934
 31
0.0
  0
LINE
  5
D383
  8
0
 10
4686.4929340596054317
 20
212.2456812305943004
 30
0.0
 11
4686.3107342048951978
 21
212.2456809096296979
 31
0.0
  0
LINE
  5
D384
  8
0
 10
4686.3107342048951978
 20
212.2311735724690891
 30
0.0
 11
4686.4929340599228453
 21
212.2311735543295015
 31
0.0
  0
LINE
  5
D385
  8
0
 10
4686.5460042861250258
 20
212.2311735490459057
 30
0.0
 11
4687.2479079752947655
 21
212.2311734791655908
 31
0.0
  0
ARC
  5
D386
  8
0
 10
4687.2481393674552237
 20
212.1612032735876028
 30
0.0
 40
0.0699705881849908
 50
359.13413443658402
 51
90.1894770176523792
  0
LINE
  5
D387
  8
0
 10
4687.318101965895039
 20
212.1601459039657129
 30
0.0
 11
4687.3180705425947963
 21
209.7686121138656006
 31
0.0
  0
ARC
  5
D388
  8
0
 10
4687.2481491619573717
 20
209.7675676187936915
 30
0.0
 40
0.0699291816069565
 50
269.8186353982289916
 51
0.8558284741055247
  0
LINE
  5
D389
  8
0
 10
4687.2479278078353673
 20
209.697638787525392
 30
0.0
 11
4686.5460035350442922
 21
209.6976375510105868
 31
0.0
  0
LINE
  5
D38A
  8
0
 10
4686.4929341153838322
 20
209.6976374575230864
 30
0.0
 11
4686.3107342048951978
 21
209.6976371365585123
 31
0.0
  0
LINE
  5
D38B
  8
0
 10
4687.3318412748949413
 20
209.7686102048656096
 30
0.0
 11
4687.3318104886948277
 21
212.1601380552656906
 31
0.0
  0
ARC
  5
D38C
  8
0
 10
4687.4017800581559641
 20
212.1611967718835956
 30
0.0
 40
0.0699775787764331
 50
89.8713110402284769
 51
180.8668820694859107
  0
LINE
  5
D38D
  8
0
 10
4687.4019372308875973
 20
212.2311741741513913
 30
0.0
 11
4694.3826257630953478
 21
212.2311734791655908
 31
0.0
  0
ARC
  5
D38E
  8
0
 10
4694.382857155255806
 20
212.1612032735876028
 30
0.0
 40
0.0699705881849908
 50
359.13413443658402
 51
90.1894770176523792
  0
LINE
  5
D38F
  8
0
 10
4694.4528197536947118
 20
212.1601459039657129
 30
0.0
 11
4694.4527883303953786
 21
209.7686121138656006
 31
0.0
  0
ARC
  5
D390
  8
0
 10
4694.382866949757954
 20
209.7675676187936915
 30
0.0
 40
0.0699291816069565
 50
269.8186353982289916
 51
0.8558284741055247
  0
LINE
  5
D391
  8
0
 10
4694.3826455956341306
 20
209.697638787525392
 30
0.0
 11
4687.4019974230950538
 21
209.6976264903655931
 31
0.0
  0
ARC
  5
D392
  8
0
 10
4687.401772373716085
 20
209.7675650370393043
 30
0.0
 40
0.0699389087564662
 50
179.143739364404496
 51
270.1843666436164995
  0
LINE
  5
D393
  8
0
 10
4694.4665838831951987
 20
209.7686102622656108
 30
0.0
 11
4694.4665530969950851
 21
212.1601381126656065
 31
0.0
  0
ARC
  5
D394
  8
0
 10
4694.5365226664562215
 20
212.1611968292837105
 30
0.0
 40
0.0699775787764331
 50
89.8713110402284769
 51
180.8668820694859107
  0
LINE
  5
D395
  8
0
 10
4694.5366798391878547
 20
212.2311742315513072
 30
0.0
 11
4697.3626056855464412
 21
212.2311739502069088
 31
0.0
  0
LINE
  5
D396
  8
0
 10
4697.4643582611779493
 20
212.2311739400765873
 30
0.0
 11
4700.3626057027986462
 21
212.2311736515318898
 31
0.0
  0
LINE
  5
D397
  8
0
 10
4700.4643599486917083
 20
212.2311736414015115
 30
0.0
 11
4701.1949882448952849
 21
212.2311735686612053
 31
0.0
  0
LINE
  5
D398
  8
0
 10
4701.1949882448952849
 20
209.6976382769832981
 30
0.0
 11
4700.4643476044520867
 21
209.697636989881488
 31
0.0
  0
LINE
  5
D399
  8
0
 10
4700.3626189995929963
 20
209.6976368106757036
 30
0.0
 11
4697.4643454726274285
 21
209.6976317050562955
 31
0.0
  0
LINE
  5
D39A
  8
0
 10
4697.3626189950236949
 20
209.6976315258542058
 30
0.0
 11
4694.5367400313953112
 21
209.6976265477655943
 31
0.0
  0
ARC
  5
D39B
  8
0
 10
4694.5365149820154329
 20
209.7675650944393055
 30
0.0
 40
0.0699389087564662
 50
179.143739364404496
 51
270.1843666436164995
  0
LINE
  5
D39C
  8
0
 10
4700.4643475337388736
 20
209.6831239391605095
 30
0.0
 11
4701.1949882448952849
 21
209.6831238664190948
 31
0.0
  0
LINE
  5
D39D
  8
0
 10
4701.1949882448952849
 20
207.1495819353420984
 30
0.0
 11
4700.4643393120622932
 21
207.149580648225708
 31
0.0
  0
LINE
  5
D39E
  8
0
 10
4690.8992249892953623
 20
207.2205602622655931
 30
0.0
 11
4690.8992062631541557
 21
208.675240849286098
 31
0.0
  0
LINE
  5
D39F
  8
0
 10
4690.8992049500466237
 20
208.7772454021655903
 30
0.0
 11
4690.8991942030952487
 21
209.6120881126655888
 31
0.0
  0
ARC
  5
D3A0
  8
0
 10
4690.9691637725563851
 20
209.6131468292836928
 30
0.0
 40
0.0699775787764331
 50
89.8713110402284769
 51
180.8668820694859107
  0
LINE
  5
D3A1
  8
0
 10
4690.9693209452880183
 20
209.6831242315512895
 30
0.0
 11
4697.3626190712384414
 21
209.6831235950452026
 31
0.0
  0
LINE
  5
D3A2
  8
0
 10
4697.3626238300948899
 20
207.1495878101476933
 30
0.0
 11
4690.9693811374945653
 21
207.149576547765605
 31
0.0
  0
ARC
  5
D3A3
  8
0
 10
4690.969156088114687
 20
207.2195150944392879
 30
0.0
 40
0.0699389087564662
 50
179.143739364404496
 51
270.1843666436164995
  0
LINE
  5
D3A4
  8
0
 10
4683.7644823811951937
 20
207.2205602048657056
 30
0.0
 11
4683.7644636585400804
 21
208.6749699213370093
 31
0.0
  0
LINE
  5
D3A5
  8
0
 10
4683.7644623419455456
 20
208.7772454021655903
 30
0.0
 11
4683.7644607316451584
 21
208.9023365479123981
 31
0.0
  0
LINE
  5
D3A6
  8
0
 10
4686.3107342048951978
 20
209.6831239276293957
 30
0.0
 11
4686.4929341157021554
 21
209.6831239094898933
 31
0.0
  0
LINE
  5
D3A7
  8
0
 10
4686.5460035307396538
 20
209.6831239042064112
 30
0.0
 11
4690.8152668693946907
 21
209.6831234791656868
 31
0.0
  0
ARC
  5
D3A8
  8
0
 10
4690.8154982615551489
 20
209.6131532735876135
 30
0.0
 40
0.0699705881849908
 50
359.13413443658402
 51
90.1894770176523792
  0
LINE
  5
D3A9
  8
0
 10
4690.8854608599949643
 20
209.61209590396561
 30
0.0
 11
4690.8854498905684522
 21
208.7772454021655903
 31
0.0
  0
LINE
  5
D3AA
  8
0
 10
4690.8854485502815805
 20
208.6752403268637863
 30
0.0
 11
4690.885429436693812
 21
207.2205621138656113
 31
0.0
  0
ARC
  5
D3AB
  8
0
 10
4690.8155080560572969
 20
207.2195176187937022
 30
0.0
 40
0.0699291816069565
 50
269.8186353982289916
 51
0.8558284741055247
  0
LINE
  5
D3AC
  8
0
 10
4690.8152867019352925
 20
207.149588787525289
 30
0.0
 11
4683.8346385293953063
 21
207.1495764903656891
 31
0.0
  0
ARC
  5
D3AD
  8
0
 10
4683.8344134800154279
 20
207.2195150370392867
 30
0.0
 40
0.0699389087564662
 50
179.143739364404496
 51
270.1843666436164995
  0
LINE
  5
D3AE
  8
0
 10
4680.1971234836746589
 20
204.6725115648426936
 30
0.0
 11
4680.1970926974745453
 21
207.064039415242604
 31
0.0
  0
ARC
  5
D3AF
  8
0
 10
4680.2670622669356817
 20
207.0650981318605943
 30
0.0
 40
0.0699775787764331
 50
89.8713110402284769
 51
180.8668820694859107
  0
LINE
  5
D3B0
  8
0
 10
4680.2672194396682244
 20
207.13507553412839
 30
0.0
 11
4687.2479079718741559
 21
207.1350748391427032
 31
0.0
  0
ARC
  5
D3B1
  8
0
 10
4687.2481393640346141
 20
207.0651046335646868
 30
0.0
 40
0.0699705881849908
 50
359.13413443658402
 51
90.1894770176523792
  0
LINE
  5
D3B2
  8
0
 10
4687.3181019624744295
 20
207.0640472639427117
 30
0.0
 11
4687.3180705391732772
 21
204.6725134738425993
 31
0.0
  0
ARC
  5
D3B3
  8
0
 10
4687.2481491585367621
 20
204.6714689787706902
 30
0.0
 40
0.0699291816069565
 50
269.8186353982289916
 51
0.8558284741055247
  0
LINE
  5
D3B4
  8
0
 10
4687.2479278044138482
 20
204.6015401475023907
 30
0.0
 11
4680.2672796318738619
 21
204.6015278503427055
 31
0.0
  0
ARC
  5
D3B5
  8
0
 10
4680.2670545824948931
 20
204.6714663970163031
 30
0.0
 40
0.0699389087564662
 50
179.143739364404496
 51
270.1843666436164995
  0
LINE
  5
D3B6
  8
0
 10
4687.3318412747948969
 20
204.6725102048656026
 30
0.0
 11
4687.3318104885938737
 21
207.0640380552655984
 31
0.0
  0
ARC
  5
D3B7
  8
0
 10
4687.4017800580550102
 20
207.0650967718835886
 30
0.0
 40
0.0699775787764331
 50
89.8713110402284769
 51
180.8668820694859107
  0
LINE
  5
D3B8
  8
0
 10
4687.4019372307875528
 20
207.1350741741514128
 30
0.0
 11
4694.3826257629953034
 21
207.1350734791656123
 31
0.0
  0
ARC
  5
D3B9
  8
0
 10
4694.3828571551548521
 20
207.0651032735875958
 30
0.0
 40
0.0699705881849908
 50
359.13413443658402
 51
90.1894770176523792
  0
LINE
  5
D3BA
  8
0
 10
4694.4528197535946674
 20
207.0640459039655923
 30
0.0
 11
4694.4527883302953342
 21
204.6725121138655936
 31
0.0
  0
ARC
  5
D3BB
  8
0
 10
4694.3828669496579096
 20
204.671467618793713
 30
0.0
 40
0.0699291816069565
 50
269.8186353982289916
 51
0.8558284741055247
  0
LINE
  5
D3BC
  8
0
 10
4694.3826455955349957
 20
204.6015387875254135
 30
0.0
 11
4687.4019974229950094
 21
204.6015264903655861
 31
0.0
  0
ARC
  5
D3BD
  8
0
 10
4687.4017723736160406
 20
204.6714650370392974
 30
0.0
 40
0.0699389087564662
 50
179.143739364404496
 51
270.1843666436164995
  0
LINE
  5
D3BE
  8
0
 10
4694.4665838831951987
 20
204.6725102622656038
 30
0.0
 11
4694.4665530969950851
 21
207.0640381126655996
 31
0.0
  0
ARC
  5
D3BF
  8
0
 10
4694.5365226664562215
 20
207.0650968292837035
 30
0.0
 40
0.0699775787764331
 50
89.8713110402284769
 51
180.8668820694859107
  0
LINE
  5
D3C0
  8
0
 10
4694.5366798391878547
 20
207.135074231551414
 30
0.0
 11
4697.3626238300948899
 21
207.1350739502051113
 31
0.0
  0
LINE
  5
D3C1
  8
0
 10
4697.464332537611881
 20
207.1350739400791099
 30
0.0
 11
4700.3626324487267993
 21
207.1350736515292965
 31
0.0
  0
LINE
  5
D3C2
  8
0
 10
4700.4643393134711005
 20
207.1350736414034088
 30
0.0
 11
4701.1949882448952849
 21
207.135073568661312
 31
0.0
  0
LINE
  5
D3C3
  8
0
 10
4701.1949882448952849
 20
204.6015382769832911
 30
0.0
 11
4700.4643395595539914
 21
204.6015369898672986
 31
0.0
  0
LINE
  5
D3C4
  8
0
 10
4700.3626457455202399
 20
204.6015368107227062
 30
0.0
 11
4697.4643197490613602
 21
204.601531705010899
 31
0.0
  0
LINE
  5
D3C5
  8
0
 10
4697.3626238300948899
 20
204.601531525862697
 30
0.0
 11
4694.5367400313953112
 21
204.6015265477655873
 31
0.0
  0
ARC
  5
D3C6
  8
0
 10
4694.5365149820154329
 20
204.6714650944392986
 30
0.0
 40
0.0699389087564662
 50
179.143739364404496
 51
270.1843666436164995
  0
LINE
  5
D3C7
  8
0
 10
4700.4643395609646177
 20
204.587023996563687
 30
0.0
 11
4701.1949882448952849
 21
204.5870239238215902
 31
0.0
  0
LINE
  5
D3C8
  8
0
 10
4701.1949674232873804
 20
202.0534819926616024
 30
0.0
 11
4700.4643398070484182
 21
202.0534807055828139
 31
0.0
  0
LINE
  5
D3C9
  8
0
 10
4690.8992001650840393
 20
202.1244615649397076
 30
0.0
 11
4690.8991693788839257
 21
204.5159894153395896
 31
0.0
  0
ARC
  5
D3CA
  8
0
 10
4690.9691389483450621
 20
204.5170481319576083
 30
0.0
 40
0.0699775787764331
 50
89.8713110402284769
 51
180.8668820694859107
  0
LINE
  5
D3CB
  8
0
 10
4690.9692961210766953
 20
204.587025534225404
 30
0.0
 11
4697.3626238300948899
 21
204.5870248977163044
 31
0.0
  0
LINE
  5
D3CC
  8
0
 10
4697.3626238300948899
 20
202.0534891128654067
 30
0.0
 11
4690.9693563132841518
 21
202.0534778504396058
 31
0.0
  0
ARC
  5
D3CD
  8
0
 10
4690.9691312639042735
 20
202.1234163971132034
 30
0.0
 40
0.0699389087564662
 50
179.143739364404496
 51
270.1843666436164995
  0
LINE
  5
D3CE
  8
0
 10
4683.7645072015948244
 20
202.1244602622655862
 30
0.0
 11
4683.7644764153947108
 21
204.5159881126656103
 31
0.0
  0
ARC
  5
D3CF
  8
0
 10
4683.8344459848558472
 20
204.5170468292836858
 30
0.0
 40
0.0699775787764331
 50
89.8713110402284769
 51
180.8668820694859107
  0
LINE
  5
D3D0
  8
0
 10
4683.8346031575892994
 20
204.5870242315513963
 30
0.0
 11
4690.8152916897952309
 21
204.5870235365657095
 31
0.0
  0
ARC
  5
D3D1
  8
0
 10
4690.8155230819556891
 20
204.517053330987693
 30
0.0
 40
0.0699705881849908
 50
359.13413443658402
 51
90.1894770176523792
  0
LINE
  5
D3D2
  8
0
 10
4690.885485680396414
 20
204.5159959613656042
 30
0.0
 11
4690.8854542570952617
 21
202.1244621712656055
 31
0.0
  0
ARC
  5
D3D3
  8
0
 10
4690.8155328764578371
 20
202.1234176761938102
 30
0.0
 40
0.0699291816069565
 50
269.8186353982289916
 51
0.8558284741055247
  0
LINE
  5
D3D4
  8
0
 10
4690.8153115223340137
 20
202.053488844925397
 30
0.0
 11
4683.8346633497940275
 21
202.0534765477655981
 31
0.0
  0
ARC
  5
D3D5
  8
0
 10
4683.8344383004159681
 20
202.1234150944391956
 30
0.0
 40
0.0699389087564662
 50
179.143739364404496
 51
270.1843666436164995
  0
LINE
  5
D3D6
  8
0
 10
4680.1971483076940785
 20
199.5764102622655969
 30
0.0
 11
4680.1971175214948744
 21
201.9679381126655926
 31
0.0
  0
ARC
  5
D3D7
  8
0
 10
4680.2670870909560108
 20
201.9689968292836966
 30
0.0
 40
0.0699775787764331
 50
89.8713110402284769
 51
180.8668820694859107
  0
LINE
  5
D3D8
  8
0
 10
4680.267244263687644
 20
202.038974231551407
 30
0.0
 11
4687.2479327958953945
 21
202.0389735365656918
 31
0.0
  0
ARC
  5
D3D9
  8
0
 10
4687.2481641880558527
 20
201.9690033309877037
 30
0.0
 40
0.0699705881849908
 50
359.13413443658402
 51
90.1894770176523792
  0
LINE
  5
D3DA
  8
0
 10
4687.3181267864947586
 20
201.9679459613657002
 30
0.0
 11
4687.3180953631936063
 21
199.5764121712657015
 31
0.0
  0
ARC
  5
D3DB
  8
0
 10
4687.2481739825580007
 20
199.5753676761937072
 30
0.0
 40
0.0699291816069565
 50
269.8186353982289916
 51
0.8558284741055247
  0
LINE
  5
D3DC
  8
0
 10
4687.2479526284341773
 20
199.505438844925294
 30
0.0
 11
4680.2673044558941911
 21
199.5054265477656088
 31
0.0
  0
ARC
  5
D3DD
  8
0
 10
4680.2670794065161317
 20
199.5753650944392916
 30
0.0
 40
0.0699389087564662
 50
179.143739364404496
 51
270.1843666436164995
  0
LINE
  5
D3DE
  8
0
 10
4687.3318412747948969
 20
199.5764102048655957
 30
0.0
 11
4687.3318104885938737
 21
201.9679380552655914
 31
0.0
  0
ARC
  5
D3DF
  8
0
 10
4687.4017800580550102
 20
201.9689967718836954
 30
0.0
 40
0.0699775787764331
 50
89.8713110402284769
 51
180.8668820694859107
  0
LINE
  5
D3E0
  8
0
 10
4687.4019372307875528
 20
202.0389741741512921
 30
0.0
 11
4694.3826257629953034
 21
202.0389734791656053
 31
0.0
  0
ARC
  5
D3E1
  8
0
 10
4694.3828571551548521
 20
201.9690032735875889
 30
0.0
 40
0.0699705881849908
 50
359.13413443658402
 51
90.1894770176523792
  0
LINE
  5
D3E2
  8
0
 10
4694.4528197535946674
 20
201.9679459039656138
 30
0.0
 11
4694.4527883302953342
 21
199.5764121138655867
 31
0.0
  0
ARC
  5
D3E3
  8
0
 10
4694.3828669496579096
 20
199.575367618793706
 30
0.0
 40
0.0699291816069565
 50
269.8186353982289916
 51
0.8558284741055247
  0
LINE
  5
D3E4
  8
0
 10
4694.3826455955349957
 20
199.5054387875252928
 30
0.0
 11
4690.9418837347484441
 21
199.505432726254611
 31
0.0
  0
LINE
  5
D3E5
  8
0
 10
4690.8897849295399283
 20
199.5054326344769891
 30
0.0
 11
4690.8316637523048485
 21
199.5054325320903104
 31
0.0
  0
LINE
  5
D3E6
  8
0
 10
4690.7795469560687707
 20
199.5054324402809982
 30
0.0
 11
4687.4019974229950094
 21
199.5054264903656076
 31
0.0
  0
ARC
  5
D3E7
  8
0
 10
4687.4017723736160406
 20
199.5753650370392904
 30
0.0
 40
0.0699389087564662
 50
179.143739364404496
 51
270.1843666436164995
  0
LINE
  5
D3E8
  8
0
 10
4694.4665590586873805
 20
199.5764115648734105
 30
0.0
 11
4694.4665282724881763
 21
201.9679394152734062
 31
0.0
  0
ARC
  5
D3E9
  8
0
 10
4694.5364978419484032
 20
201.9689981318915102
 30
0.0
 40
0.0699775787764331
 50
89.8713110402284769
 51
180.8668820694859107
  0
LINE
  5
D3EA
  8
0
 10
4694.5366550146800364
 20
202.0389755341591069
 30
0.0
 11
4697.3626238300948899
 21
202.0389752528103884
 31
0.0
  0
LINE
  5
D3EB
  8
0
 10
4697.4643068140539981
 20
202.0389752426870018
 30
0.0
 11
4700.362659194646767
 21
202.0389749541317883
 31
0.0
  0
LINE
  5
D3EC
  8
0
 10
4700.4643398084581349
 20
202.038974944008686
 30
0.0
 11
4701.1949672504542832
 21
202.0389748712686924
 31
0.0
  0
LINE
  5
D3ED
  8
0
 10
4701.1949370669854034
 20
199.5054395795445998
 30
0.0
 11
4700.4643400545410259
 21
199.5054382925198126
 31
0.0
  0
LINE
  5
D3EE
  8
0
 10
4700.362672491441117
 20
199.5054381134214054
 30
0.0
 11
4697.4642940255007488
 21
199.5054330076171993
 31
0.0
  0
LINE
  5
D3EF
  8
0
 10
4697.3626238300948899
 20
199.5054328285141878
 30
0.0
 11
4694.5367152068865835
 21
199.505427850373394
 31
0.0
  0
ARC
  5
D3F0
  8
0
 10
4694.5364901575067051
 20
199.5753663970471052
 30
0.0
 40
0.0699389087564662
 50
179.143739364404496
 51
270.1843666436164995
  0
LINE
  5
D3F1
  8
0
 10
4700.4643400559498332
 20
199.4909239965635948
 30
0.0
 11
4701.1949368940522618
 21
199.4909239238266991
 31
0.0
  0
LINE
  5
D3F2
  8
0
 10
4701.1949067105042559
 20
196.9573819925547014
 30
0.0
 11
4700.4643403020336336
 21
196.957380705583688
 31
0.0
  0
ARC
  5
D3F3
  8
0
 10
4690.9691637626701777
 20
199.4209505905928097
 30
0.0
 40
0.0699775787764331
 50
89.8713110402284769
 51
112.9446795081561987
  0
LINE
  5
D3F4
  8
0
 10
4690.9693209354036298
 20
199.4909279928606054
 30
0.0
 11
4697.3626238300948899
 21
199.4909273563540921
 31
0.0
  0
LINE
  5
D3F5
  8
0
 10
4697.3626238300948899
 20
196.9573915714568955
 30
0.0
 11
4690.9693811276101769
 21
196.9573803090748925
 31
0.0
  0
ARC
  5
D3F6
  8
0
 10
4690.9691560782312081
 20
197.02731885574849
 30
0.0
 40
0.0699389087564662
 50
247.0281760269245979
 51
270.1843666436164995
  0
LINE
  5
D3F7
  8
0
 10
4683.7644807851447695
 20
197.1523365479123981
 30
0.0
 11
4683.7644785333786785
 21
197.3272577887784109
 31
0.0
  0
LINE
  5
D3F8
  8
0
 10
4683.7644778531257543
 20
197.3801009933594059
 30
0.0
 11
4683.7644515948950357
 21
199.4198880552654884
 31
0.0
  0
ARC
  5
D3F9
  8
0
 10
4683.8344211643561721
 20
199.4209467718837061
 30
0.0
 40
0.0699775787764331
 50
89.8713110402284769
 51
180.8668820694859107
  0
LINE
  5
D3FA
  8
0
 10
4683.8345783370887148
 20
199.4909241741513029
 30
0.0
 11
4690.7795468235090084
 21
199.4909234827219109
 31
0.0
  0
ARC
  5
D3FB
  8
0
 10
4690.8154982614551045
 20
199.4209532735875996
 30
0.0
 40
0.0699705881849908
 50
359.13413443658402
 51
76.6422542437650804
  0
LINE
  5
D3FC
  8
0
 10
4690.8854608598940104
 20
199.4198959039655961
 30
0.0
 11
4690.8854294365937676
 21
197.0283621138655121
 31
0.0
  0
ARC
  5
D3FD
  8
0
 10
4690.8155080559572525
 20
197.0273176187936883
 30
0.0
 40
0.0699291816069565
 50
283.3374301414020806
 51
0.8558284741055247
  0
LINE
  5
D3FE
  8
0
 10
4690.7795236758665851
 20
196.9573887245248898
 30
0.0
 11
4686.5710679235116913
 21
196.9573813108792137
 31
0.0
  0
LINE
  5
D3FF
  8
0
 10
4686.4674759501658627
 20
196.9573811283908071
 30
0.0
 11
4686.3107342048951978
 21
196.9573808522733884
 31
0.0
  0
LINE
  5
D400
  8
0
 10
4686.3107342048951978
 20
196.9428735724690114
 30
0.0
 11
4686.4674721498840881
 21
196.9428735568644981
 31
0.0
  0
LINE
  5
D401
  8
0
 10
4686.5710720565775773
 20
196.9428735465502882
 30
0.0
 11
4687.2479079752947655
 21
196.9428734791655984
 31
0.0
  0
ARC
  5
D402
  8
0
 10
4687.2481393674552237
 20
196.8729032735876103
 30
0.0
 40
0.0699705881849908
 50
359.13413443658402
 51
90.1894770176523792
  0
LINE
  5
D403
  8
0
 10
4687.318101965895039
 20
196.8718459039656068
 30
0.0
 11
4687.3180705425947963
 21
194.4803121138656934
 31
0.0
  0
ARC
  5
D404
  8
0
 10
4687.2481491619573717
 20
194.4792676187936991
 30
0.0
 40
0.0699291816069565
 50
269.8186353982289916
 51
0.8558284741055247
  0
LINE
  5
D405
  8
0
 10
4687.2479278078353673
 20
194.4093387875253995
 30
0.0
 11
4686.5460380698350491
 21
194.4093375510713884
 31
0.0
  0
LINE
  5
D406
  8
0
 10
4686.4929396590378019
 20
194.4093374575328141
 30
0.0
 11
4686.3107342048951978
 21
194.4093371365584062
 31
0.0
  0
LINE
  5
D407
  8
0
 10
4687.3318412712533245
 20
194.4803115647912932
 30
0.0
 11
4687.3318104850532109
 21
196.8718394151912889
 31
0.0
  0
ARC
  5
D408
  8
0
 10
4687.4017800545134378
 20
196.8728981318093076
 30
0.0
 40
0.0699775787764331
 50
89.8713110402284769
 51
180.8668820694859107
  0
LINE
  5
D409
  8
0
 10
4687.40193722724689
 20
196.9428755340769897
 30
0.0
 11
4690.7795235432640766
 21
196.9428751978101957
 31
0.0
  0
LINE
  5
D40A
  8
0
 10
4690.8316395454612575
 20
196.9428751926216137
 30
0.0
 11
4690.88976079553413
 21
196.9428751868352094
 31
0.0
  0
LINE
  5
D40B
  8
0
 10
4690.9418602483710856
 20
196.9428751816481906
 30
0.0
 11
4694.3826257594528215
 21
196.9428748390913029
 31
0.0
  0
ARC
  5
D40C
  8
0
 10
4694.3828571516132797
 20
196.8729046335132864
 30
0.0
 40
0.0699705881849908
 50
359.13413443658402
 51
90.1894770176523792
  0
LINE
  5
D40D
  8
0
 10
4694.452819750053095
 20
196.8718472638913113
 30
0.0
 11
4694.4527883267528523
 21
194.4803134737913126
 31
0.0
  0
ARC
  5
D40E
  8
0
 10
4694.3828669461154277
 20
194.4792689787192899
 30
0.0
 40
0.0699291816069565
 50
269.8186353982289916
 51
0.8558284741055247
  0
LINE
  5
D40F
  8
0
 10
4694.3826455919916043
 20
194.409340147451104
 30
0.0
 11
4690.9418370279363444
 21
194.4093340860981129
 31
0.0
  0
LINE
  5
D410
  8
0
 10
4690.8897369348023858
 20
194.4093339943181888
 30
0.0
 11
4690.8316156127129943
 21
194.4093338919313112
 31
0.0
  0
LINE
  5
D411
  8
0
 10
4690.7795003955634456
 20
194.4093338001246991
 30
0.0
 11
4687.401997419453437
 21
194.4093278502913051
 31
0.0
  0
ARC
  5
D412
  8
0
 10
4687.4017723700735587
 20
194.4792663969649027
 30
0.0
 40
0.0699389087564662
 50
179.143739364404496
 51
270.1843666436164995
  0
LINE
  5
D413
  8
0
 10
4694.4665590590357169
 20
194.4803115648595906
 30
0.0
 11
4694.4665282728356033
 21
196.8718394152597
 31
0.0
  0
ARC
  5
D414
  8
0
 10
4694.5364978422958302
 20
196.8728981318776903
 30
0.0
 40
0.0699775787764331
 50
89.8713110402284769
 51
180.8668820694859107
  0
LINE
  5
D415
  8
0
 10
4694.5366550150301919
 20
196.942875534145486
 30
0.0
 11
4697.3626238300948899
 21
196.9428752527967106
 31
0.0
  0
LINE
  5
D416
  8
0
 10
4697.4642810904879298
 20
196.9428752426759104
 30
0.0
 11
4700.3626859405740106
 21
196.9428749541154957
 31
0.0
  0
LINE
  5
D417
  8
0
 10
4700.4643403034442599
 20
196.9428749439950082
 30
0.0
 11
4701.1949065376711587
 21
196.9428748712610115
 31
0.0
  0
LINE
  5
D418
  8
0
 10
4701.1948763542013694
 20
194.4093395794239996
 30
0.0
 11
4700.4643405495271509
 21
194.4093382925069022
 31
0.0
  0
LINE
  5
D419
  8
0
 10
4700.3626992373683606
 20
194.409338113454794
 30
0.0
 11
4697.464268301937409
 21
194.4093330075581036
 31
0.0
  0
LINE
  5
D41A
  8
0
 10
4697.3626238300948899
 20
194.40933282850051
 30
0.0
 11
4694.5367152072349199
 21
194.4093278503596025
 31
0.0
  0
ARC
  5
D41B
  8
0
 10
4694.5364901578550416
 20
194.4792663970333138
 30
0.0
 40
0.0699389087564662
 50
179.143739364404496
 51
270.1843666436164995
  0
LINE
  5
D41C
  8
0
 10
4686.3107342048951978
 20
194.3948239850319055
 30
0.0
 11
4686.4929397234536737
 21
194.3948239668918063
 31
0.0
  0
LINE
  5
D41D
  8
0
 10
4686.5460380684608026
 20
194.3948239616053968
 30
0.0
 11
4690.7795002629891314
 21
194.3948235401288969
 31
0.0
  0
ARC
  5
D41E
  8
0
 10
4690.8155230819556891
 20
194.3248533309877075
 30
0.0
 40
0.0699705881849908
 50
359.13413443658402
 51
76.7036512864443552
  0
LINE
  5
D41F
  8
0
 10
4690.885485680396414
 20
194.323795961365704
 30
0.0
 11
4690.8854542570952617
 21
191.9322621712655916
 31
0.0
  0
ARC
  5
D420
  8
0
 10
4690.8155328764578371
 20
191.931217676193711
 30
0.0
 40
0.0699291816069565
 50
283.2760016292298246
 51
0.8558284741055247
  0
LINE
  5
D421
  8
0
 10
4690.7794771153476177
 20
191.8612887817992032
 30
0.0
 11
4686.5460378285297338
 21
191.8612813241423112
 31
0.0
  0
LINE
  5
D422
  8
0
 10
4686.4929509681942363
 20
191.8612812306240869
 30
0.0
 11
4686.3107342048951978
 21
191.8612809096296985
 31
0.0
  0
ARC
  5
D423
  8
0
 10
4690.9691637725563851
 20
194.3248468292835867
 30
0.0
 40
0.0699775787764331
 50
89.8713110402284769
 51
112.9862227935724945
  0
LINE
  5
D424
  8
0
 10
4690.9693209452880183
 20
194.3948242315514108
 30
0.0
 11
4697.3626238300948899
 21
194.3948235950446985
 31
0.0
  0
LINE
  5
D425
  8
0
 10
4697.3626238300948899
 20
191.8612878101477008
 30
0.0
 11
4690.9693811374945653
 21
191.8612765477654989
 31
0.0
  0
ARC
  5
D426
  8
0
 10
4690.969156088114687
 20
191.9312150944392101
 30
0.0
 40
0.0699389087564662
 50
246.9866017392581057
 51
270.1843666436164995
  0
LINE
  5
D427
  8
0
 10
4700.4643405509359582
 20
194.3948239965637015
 30
0.0
 11
4701.1948761812682278
 21
194.3948239238326892
 31
0.0
  0
LINE
  5
D428
  8
0
 10
4701.1948459977193124
 20
191.8612819924476867
 30
0.0
 11
4700.4643407970206681
 21
191.8612807055845906
 31
0.0
  0
LINE
  5
D429
  8
0
 10
4694.4665588692796518
 20
191.3273365479124095
 30
0.0
 11
4694.4665572532212536
 21
191.4528749255007938
 31
0.0
  0
LINE
  5
D42A
  8
0
 10
4694.4665559418399425
 20
191.5547454034640964
 30
0.0
 11
4694.4665530969950851
 21
191.7757381126656071
 31
0.0
  0
ARC
  5
D42B
  8
0
 10
4694.5365226664562215
 20
191.7767968292835974
 30
0.0
 40
0.0699775787764331
 50
89.8713110402284769
 51
180.8668820694859107
  0
LINE
  5
D42C
  8
0
 10
4694.5366798391878547
 20
191.8467742315513078
 30
0.0
 11
4697.3626238300948899
 21
191.8467739502050051
 31
0.0
  0
LINE
  5
D42D
  8
0
 10
4697.4642553669164045
 20
191.846773940086706
 30
0.0
 11
4700.3627126865076207
 21
191.8467736515212039
 31
0.0
  0
LINE
  5
D42E
  8
0
 10
4700.4643407984303849
 20
191.846773641403388
 30
0.0
 11
4701.1948458248707539
 21
191.8467735686753883
 31
0.0
  0
LINE
  5
D42F
  8
0
 10
4701.194815641401874
 20
189.3132382766791864
 30
0.0
 11
4700.4643989987562236
 21
189.313236989972097
 31
0.0
  0
LINE
  5
D430
  8
0
 10
4700.3627259833019707
 20
189.3132368108641117
 30
0.0
 11
4698.7954131256892651
 21
189.3132340498746089
 31
0.0
  0
LINE
  5
D431
  8
0
 10
4698.7423438868727317
 20
189.3132339563875064
 30
0.0
 11
4698.5604869470953417
 21
189.3132336360270074
 31
0.0
  0
LINE
  5
D432
  8
0
 10
4687.331841081479979
 20
191.3273365479124095
 30
0.0
 11
4687.3318394689267734
 21
191.45260252110171
 31
0.0
  0
LINE
  5
D433
  8
0
 10
4687.3318381540393602
 20
191.5547454030005952
 30
0.0
 11
4687.3318353091954123
 21
191.7757381126656071
 31
0.0
  0
ARC
  5
D434
  8
0
 10
4687.4018048786556392
 20
191.7767968292835974
 30
0.0
 40
0.0699775787764331
 50
89.8713110402284769
 51
180.8668820694859107
  0
LINE
  5
D435
  8
0
 10
4687.4019620513890914
 20
191.8467742315513078
 30
0.0
 11
4690.7794769827323762
 21
191.8467738952915909
 31
0.0
  0
LINE
  5
D436
  8
0
 10
4690.831591405843028
 20
191.8467738901032078
 30
0.0
 11
4690.8897128007702122
 21
191.8467738843166899
 31
0.0
  0
LINE
  5
D437
  8
0
 10
4690.941813541535339
 20
191.8467738791295858
 30
0.0
 11
4694.3826505835950229
 21
191.8467735365657063
 31
0.0
  0
ARC
  5
D438
  8
0
 10
4694.3828819757545716
 20
191.7768033309876046
 30
0.0
 40
0.0699705881849908
 50
359.13413443658402
 51
90.1894770176523792
  0
LINE
  5
D439
  8
0
 10
4694.4528445741952964
 20
191.775745961365601
 30
0.0
 11
4694.4528416703824405
 21
191.5547454034631869
 31
0.0
  0
LINE
  5
D43A
  8
0
 10
4694.452840331859079
 20
191.4528744017871134
 30
0.0
 11
4694.4528386823676556
 21
191.3273365479124095
 31
0.0
  0
LINE
  5
D43B
  8
0
 10
4680.1970984694817162
 20
191.3273365479124095
 30
0.0
 11
4680.1970968604364316
 21
191.4523301157549895
 31
0.0
  0
LINE
  5
D43C
  8
0
 10
4680.1970955420420069
 20
191.5547454025370087
 30
0.0
 11
4680.1970942857478803
 21
191.6523365479123981
 31
0.0
  0
LINE
  5
D43D
  8
0
 10
4686.3107342048951978
 20
191.8467749323872056
 30
0.0
 11
4686.4929510325791853
 21
191.8467749142459979
 31
0.0
  0
LINE
  5
D43E
  8
0
 10
4686.5460378271573063
 20
191.8467749089608105
 30
0.0
 11
4687.2479079715803891
 21
191.8467748390837073
 31
0.0
  0
ARC
  5
D43F
  8
0
 10
4687.2481393637408473
 20
191.7768046335056908
 30
0.0
 40
0.0699705881849908
 50
359.13413443658402
 51
90.1894770176523792
  0
LINE
  5
D440
  8
0
 10
4687.3181019621806627
 20
191.7757472638838863
 30
0.0
 11
4687.3180990583514358
 21
191.5547454029997141
 31
0.0
  0
LINE
  5
D441
  8
0
 10
4687.3180977162483032
 20
191.4526019964399097
 30
0.0
 11
4687.3180960703357414
 21
191.3273365479124095
 31
0.0
  0
LINE
  5
D442
  8
0
 10
4698.5604869470953417
 20
189.2987241287056861
 30
0.0
 11
4698.7423438869363963
 21
189.2987241106002898
 31
0.0
  0
LINE
  5
D443
  8
0
 10
4698.7954131264650641
 20
189.2987241053168077
 30
0.0
 11
4700.362726059470333
 21
189.2987239492777007
 31
0.0
  0
LINE
  5
D444
  8
0
 10
4700.4643990436052263
 20
189.2987239391553089
 30
0.0
 11
4701.1948154684832843
 21
189.2987238664364043
 31
0.0
  0
LINE
  5
D445
  8
0
 10
4701.194785284934369
 20
186.765181934984497
 30
0.0
 11
4700.4644068729348874
 21
186.7651806483447103
 31
0.0
  0
LINE
  5
D446
  8
0
 10
4700.3627393562992438
 20
186.7651804692465021
 30
0.0
 11
4698.8239885549137398
 21
186.7651777585720083
 31
0.0
  0
LINE
  5
D447
  8
0
 10
4698.7208255384148288
 20
186.7651775768393918
 30
0.0
 11
4698.5604869470953417
 21
186.765177294385694
 31
0.0
  0
LINE
  5
D448
  8
0
 10
4694.4665838831951987
 20
184.2881102622656897
 30
0.0
 11
4694.4665669138357771
 21
185.6063208361740067
 31
0.0
  0
LINE
  5
D449
  8
0
 10
4694.4665662320194315
 20
185.6592856005613044
 30
0.0
 11
4694.4665640686962433
 21
185.8273365479124095
 31
0.0
  0
LINE
  5
D44A
  8
0
 10
4698.5604869470953417
 20
186.7506738309477896
 30
0.0
 11
4698.7208157413660956
 21
186.7506738149857881
 31
0.0
  0
LINE
  5
D44B
  8
0
 10
4698.8239885549401151
 20
186.7506738047140971
 30
0.0
 11
4700.3627394324357738
 21
186.7506736515186105
 31
0.0
  0
LINE
  5
D44C
  8
0
 10
4700.4644069177657002
 20
186.7506736413967019
 30
0.0
 11
4701.1947851120876294
 21
186.7506735686814068
 31
0.0
  0
LINE
  5
D44D
  8
0
 10
4701.1947549286169306
 20
184.2171382765723138
 30
0.0
 11
4700.4644147470762618
 21
184.2171369899996876
 31
0.0
  0
LINE
  5
D44E
  8
0
 10
4700.3627527292292143
 20
184.2171368109113132
 30
0.0
 11
4694.5367400313953112
 21
184.2171265477655879
 31
0.0
  0
ARC
  5
D44F
  8
0
 10
4694.5365149820154329
 20
184.2870650944392992
 30
0.0
 40
0.0699389087564662
 50
179.143739364404496
 51
270.1843666436164995
  0
LINE
  5
D450
  8
0
 10
4687.3318660953946164
 20
184.2881102622656897
 30
0.0
 11
4687.3318491260361043
 21
185.6063208361740067
 31
0.0
  0
LINE
  5
D451
  8
0
 10
4687.3318484479623294
 20
185.6589948867394924
 30
0.0
 11
4687.331846280895661
 21
185.8273365479124095
 31
0.0
  0
LINE
  5
D452
  8
0
 10
4694.4528333753669358
 20
185.8273365479124095
 30
0.0
 11
4694.4528311672729615
 21
185.659285040907406
 31
0.0
  0
LINE
  5
D453
  8
0
 10
4694.4528304713549005
 20
185.6063208361740067
 30
0.0
 11
4694.4528131508950537
 21
184.2881121712655954
 31
0.0
  0
ARC
  5
D454
  8
0
 10
4694.3828917702567196
 20
184.2870676761936863
 30
0.0
 40
0.0699291816069565
 50
269.8186353982289916
 51
0.8558284741055247
  0
LINE
  5
D455
  8
0
 10
4694.3826704161347152
 20
184.2171388449253016
 30
0.0
 11
4690.9417436142757651
 21
184.2171327833640078
 31
0.0
  0
LINE
  5
D456
  8
0
 10
4690.8896409452872831
 20
184.217132691579593
 30
0.0
 11
4690.8315193334883588
 21
184.2171325891922038
 31
0.0
  0
LINE
  5
D457
  8
0
 10
4690.7794072745109588
 20
184.2171324973911908
 30
0.0
 11
4687.4020222435947289
 21
184.2171265477655879
 31
0.0
  0
ARC
  5
D458
  8
0
 10
4687.4017971942148506
 20
184.2870650944392992
 30
0.0
 40
0.0699389087564662
 50
179.143739364404496
 51
270.1843666436164995
  0
LINE
  5
D459
  8
0
 10
4680.1971483076940785
 20
184.2881102622656897
 30
0.0
 11
4680.1971313383373854
 21
185.6063208361740067
 31
0.0
  0
LINE
  5
D45A
  8
0
 10
4680.1971306640043622
 20
185.658704172917794
 30
0.0
 11
4680.1971284931951232
 21
185.8273365479124095
 31
0.0
  0
LINE
  5
D45B
  8
0
 10
4687.3181155876673074
 20
185.8273365479124095
 30
0.0
 11
4687.3181133757525458
 21
185.6589943270853098
 31
0.0
  0
LINE
  5
D45C
  8
0
 10
4687.3181126836552721
 20
185.6063208361740067
 30
0.0
 11
4687.3180953631936063
 21
184.2881121712655954
 31
0.0
  0
ARC
  5
D45D
  8
0
 10
4687.2481739825580007
 20
184.2870676761936863
 30
0.0
 40
0.0699291816069565
 50
269.8186353982289916
 51
0.8558284741055247
  0
LINE
  5
D45E
  8
0
 10
4687.2479526284341773
 20
184.2171388449253016
 30
0.0
 11
4680.2673044558941911
 21
184.2171265477655879
 31
0.0
  0
ARC
  5
D45F
  8
0
 10
4680.2670794065161317
 20
184.2870650944392992
 30
0.0
 40
0.0699389087564662
 50
179.143739364404496
 51
270.1843666436164995
  0
LINE
  5
D460
  8
0
 10
4683.7645072015948244
 20
181.7400602622655867
 30
0.0
 11
4683.7644764153947108
 21
184.1315881126656109
 31
0.0
  0
ARC
  5
D461
  8
0
 10
4683.8344459848558472
 20
184.1326468292836012
 30
0.0
 40
0.0699775787764331
 50
89.8713110402284769
 51
180.8668820694859107
  0
LINE
  5
D462
  8
0
 10
4683.8346031575892994
 20
184.2026242315513116
 30
0.0
 11
4690.7794071419493775
 21
184.2026235401382053
 31
0.0
  0
ARC
  5
D463
  8
0
 10
4690.8155230819556891
 20
184.1326533309876083
 30
0.0
 40
0.0699705881849908
 50
359.13413443658402
 51
76.7846479372596207
  0
LINE
  5
D464
  8
0
 10
4690.885485680396414
 20
184.1315959613656048
 30
0.0
 11
4690.8854542570952617
 21
181.7400621712656061
 31
0.0
  0
ARC
  5
D465
  8
0
 10
4690.8155328764578371
 20
181.7390176761936971
 30
0.0
 40
0.0699291816069565
 50
283.1949634395087969
 51
0.8558284741055247
  0
LINE
  5
D466
  8
0
 10
4690.7793839943078638
 20
181.669088781635196
 30
0.0
 11
4687.7935126543516162
 21
181.6690835217029019
 31
0.0
  0
LINE
  5
D467
  8
0
 10
4687.6475299971389177
 20
181.6690832645388127
 30
0.0
 11
4687.4760612170275635
 21
181.6690829624780861
 31
0.0
  0
LINE
  5
D468
  8
0
 10
4687.3293601809500615
 20
181.6690827040486056
 30
0.0
 11
4683.8346633497940275
 21
181.6690765477655987
 31
0.0
  0
ARC
  5
D469
  8
0
 10
4683.8344383004159681
 20
181.7390150944393099
 30
0.0
 40
0.0699389087564662
 50
179.143739364404496
 51
270.1843666436164995
  0
ARC
  5
D46A
  8
0
 10
4690.9691637628529861
 20
184.1326505906278896
 30
0.0
 40
0.0699775787764331
 50
89.8713110402284769
 51
113.069321420300497
  0
LINE
  5
D46B
  8
0
 10
4690.9693209355864383
 20
184.2026279928957138
 30
0.0
 11
4697.9500094677923698
 21
184.2026272979099133
 31
0.0
  0
ARC
  5
D46C
  8
0
 10
4697.9502408599519185
 20
184.1326570923318968
 30
0.0
 40
0.0699705881849908
 50
359.13413443658402
 51
90.1894770176523792
  0
LINE
  5
D46D
  8
0
 10
4698.0202034583917339
 20
184.1315997227098933
 30
0.0
 11
4698.0201720350924006
 21
181.7400659326098946
 31
0.0
  0
ARC
  5
D46E
  8
0
 10
4697.950250654454976
 20
181.739021437538014
 30
0.0
 40
0.0699291816069565
 50
269.8186353982289916
 51
0.8558284741055247
  0
LINE
  5
D46F
  8
0
 10
4697.9500293003320621
 20
181.669092606269686
 30
0.0
 11
4690.9693811277920759
 21
181.6690803091098019
 31
0.0
  0
ARC
  5
D470
  8
0
 10
4690.969156078413107
 20
181.7390188557835131
 30
0.0
 40
0.0699389087564662
 50
246.9034410204316998
 51
270.1843666436164995
  0
LINE
  5
D471
  8
0
 10
4698.0339179530346883
 20
181.7400615648379016
 30
0.0
 11
4698.0338871668336651
 21
184.1315894152378121
 31
0.0
  0
ARC
  5
D472
  8
0
 10
4698.1038567362948015
 20
184.1326481318558876
 30
0.0
 40
0.0699775787764331
 50
89.8713110402284769
 51
180.8668820694859107
  0
LINE
  5
D473
  8
0
 10
4698.1040139090282537
 20
184.2026255341235981
 30
0.0
 11
4700.3627528053903006
 21
184.2026253092473098
 31
0.0
  0
LINE
  5
D474
  8
0
 10
4700.4644147919207171
 20
184.2026252991261117
 30
0.0
 11
4701.1947547557147118
 21
184.2026252264145967
 31
0.0
  0
LINE
  5
D475
  8
0
 10
4701.1947245721657964
 20
181.6690832948499121
 30
0.0
 11
4698.1040741012348008
 21
181.6690778503377999
 31
0.0
  0
ARC
  5
D476
  8
0
 10
4698.1038490518549224
 20
181.7390163970115964
 30
0.0
 40
0.0699389087564662
 50
179.143739364404496
 51
270.1843666436164995
  0
LINE
  5
D477
  8
0
 10
4694.4665590596214315
 20
179.1920115649326988
 30
0.0
 11
4694.4665282734204084
 21
181.5835394153326092
 31
0.0
  0
ARC
  5
D478
  8
0
 10
4694.5364978428806353
 20
181.5845981319507132
 30
0.0
 40
0.0699775787764331
 50
89.8713110402284769
 51
180.8668820694859107
  0
LINE
  5
D479
  8
0
 10
4694.5366550156140875
 20
181.6545755342183952
 30
0.0
 11
4701.1947243993190568
 21
181.6545748713521959
 31
0.0
  0
LINE
  5
D47A
  8
0
 10
4701.1946942158492675
 20
179.121039579176113
 30
0.0
 11
4694.536715207819725
 21
179.1210278504327107
 31
0.0
  0
ARC
  5
D47B
  8
0
 10
4694.5364901584416657
 20
179.1909663971063935
 30
0.0
 40
0.0699389087564662
 50
179.143739364404496
 51
270.1843666436164995
  0
LINE
  5
D47C
  8
0
 10
4680.1971483076940785
 20
179.1920102622655975
 30
0.0
 11
4680.1971175214948744
 21
181.5835381126655079
 31
0.0
  0
ARC
  5
D47D
  8
0
 10
4680.2670870909560108
 20
181.5845968292836972
 30
0.0
 40
0.0699775787764331
 50
89.8713110402284769
 51
180.8668820694859107
  0
LINE
  5
D47E
  8
0
 10
4680.267244263687644
 20
181.6545742315512939
 30
0.0
 11
4687.2479327958953945
 21
181.6545735365656071
 31
0.0
  0
ARC
  5
D47F
  8
0
 10
4687.2481641880558527
 20
181.5846033309875907
 30
0.0
 40
0.0699705881849908
 50
46.9031307970981572
 51
90.1894770176523792
  0
LINE
  5
D480
  8
0
 10
4687.3181258320064444
 20
181.510902660476404
 30
0.0
 11
4687.3180953631936063
 21
179.1920121712657021
 31
0.0
  0
ARC
  5
D481
  8
0
 10
4687.2481739825580007
 20
179.1909676761937078
 30
0.0
 40
0.0699291816069565
 50
269.8186353982289916
 51
0.8558284741055247
  0
LINE
  5
D482
  8
0
 10
4687.2479526284341773
 20
179.1210388449252946
 30
0.0
 11
4680.2673044558941911
 21
179.1210265477656094
 31
0.0
  0
ARC
  5
D483
  8
0
 10
4680.2670794065161317
 20
179.1909650944392922
 30
0.0
 40
0.0699389087564662
 50
179.143739364404496
 51
270.1843666436164995
  0
LINE
  5
D484
  8
0
 10
4687.33183771093627
 20
179.1909528922519996
 30
0.0
 11
4687.3318076697632932
 21
181.5246057152288017
 31
0.0
  0
LINE
  5
D485
  8
0
 10
4687.4605192118897321
 20
181.6535168557049928
 30
0.0
 11
4687.6631092752395489
 21
181.6535168355354983
 31
0.0
  0
LINE
  5
D486
  8
0
 10
4687.8090752753560082
 20
181.653516821003393
 30
0.0
 11
4690.7793838520310601
 21
181.6535165252844024
 31
0.0
  0
LINE
  5
D487
  8
0
 10
4690.8314951166394167
 20
181.6535162475863103
 30
0.0
 11
4690.8896168013034185
 21
181.6535157001999892
 31
0.0
  0
LINE
  5
D488
  8
0
 10
4690.9417201181950077
 20
181.653516509122511
 30
0.0
 11
4694.382622199135767
 21
181.6535161665520093
 31
0.0
  0
ARC
  5
D489
  8
0
 10
4694.3828535912962252
 20
181.5835459609739928
 30
0.0
 40
0.0699705881849908
 50
359.13413443658402
 51
90.1894770176523792
  0
LINE
  5
D48A
  8
0
 10
4694.4528161897360405
 20
181.5824885913519893
 30
0.0
 11
4694.4527847664348883
 21
179.1909548012519053
 31
0.0
  0
ARC
  5
D48B
  8
0
 10
4694.3828633857983732
 20
179.18991030618011
 30
0.0
 40
0.0699291816069565
 50
269.8186353982289916
 51
0.8558284741055247
  0
LINE
  5
D48C
  8
0
 10
4694.3826420316763688
 20
179.1199814749116968
 30
0.0
 11
4690.9416968977602664
 21
179.1199754133180875
 31
0.0
  0
LINE
  5
D48D
  8
0
 10
4690.8895929405771312
 20
179.119975321531399
 30
0.0
 11
4690.8314711838929725
 21
179.1199752191436971
 31
0.0
  0
LINE
  5
D48E
  8
0
 10
4690.7793607043286102
 20
179.1199751273456116
 30
0.0
 11
4687.4019938591363825
 21
179.1199691777520115
 31
0.0
  0
ARC
  5
D48F
  8
0
 10
4687.4017688097555947
 20
179.1899077244256091
 30
0.0
 40
0.0699389087564662
 50
179.143739364404496
 51
270.1843666436164995
  0
LINE
  5
D490
  8
0
 10
4683.7645072015948244
 20
176.6439602622656082
 30
0.0
 11
4683.7644764153947108
 21
179.0354881126656039
 31
0.0
  0
ARC
  5
D491
  8
0
 10
4683.8344459848558472
 20
179.0365468292837079
 30
0.0
 40
0.0699775787764331
 50
89.8713110402284769
 51
180.8668820694859107
  0
LINE
  5
D492
  8
0
 10
4683.8346031575892994
 20
179.1065242315513046
 30
0.0
 11
4690.7793605814285911
 21
179.1065235401428879
 31
0.0
  0
ARC
  5
D493
  8
0
 10
4690.8155230819556891
 20
179.0365533309876014
 30
0.0
 40
0.0699705881849908
 50
359.13413443658402
 51
76.8251361715001337
  0
LINE
  5
D494
  8
0
 10
4690.885485680396414
 20
179.0354959613655979
 30
0.0
 11
4690.8854542570952617
 21
176.6439621712657129
 31
0.0
  0
ARC
  5
D495
  8
0
 10
4690.8155328764578371
 20
176.6429176761936901
 30
0.0
 40
0.0699291816069565
 50
283.1544544308973741
 51
0.8558284741055247
  0
LINE
  5
D496
  8
0
 10
4690.7793374337870773
 20
176.5729887815531072
 30
0.0
 11
4683.8346633497940275
 21
176.5729765477655917
 31
0.0
  0
ARC
  5
D497
  8
0
 10
4683.8344383004159681
 20
176.6429150944393029
 30
0.0
 40
0.0699389087564662
 50
179.143739364404496
 51
270.1843666436164995
  0
ARC
  5
D498
  8
0
 10
4690.9691637627256569
 20
179.0365505905143095
 30
0.0
 40
0.0699775787764331
 50
89.8713110402284769
 51
113.1108941993814057
  0
LINE
  5
D499
  8
0
 10
4690.969320935459109
 20
179.1065279927819915
 30
0.0
 11
4697.9500094676650406
 21
179.1065272977963048
 31
0.0
  0
ARC
  5
D49A
  8
0
 10
4697.9502408598245893
 20
179.0365570922182883
 30
0.0
 40
0.0699705881849908
 50
359.13413443658402
 51
90.1894770176523792
  0
LINE
  5
D49B
  8
0
 10
4698.0202034582653141
 20
179.0354997225963132
 30
0.0
 11
4698.0201720349650714
 21
176.6439659324963998
 31
0.0
  0
ARC
  5
D49C
  8
0
 10
4697.9502506543276468
 20
176.6429214374244054
 30
0.0
 40
0.0699291816069565
 50
269.8186353982289916
 51
0.8558284741055247
  0
LINE
  5
D49D
  8
0
 10
4697.9500293002047329
 20
176.5729926061559922
 30
0.0
 11
4690.9693811276656561
 21
176.572980308996307
 31
0.0
  0
ARC
  5
D49E
  8
0
 10
4690.9691560782857778
 20
176.6429188556699899
 30
0.0
 40
0.0699389087564662
 50
246.8618371395268127
 51
270.1843666436164995
  0
LINE
  5
D49F
  8
0
 10
4698.0339179527027227
 20
176.6439615647902031
 30
0.0
 11
4698.033887166502609
 21
179.0354894151901135
 31
0.0
  0
ARC
  5
D4A0
  8
0
 10
4698.1038567359637455
 20
179.0365481318081891
 30
0.0
 40
0.0699775787764331
 50
89.8713110402284769
 51
180.8668820694859107
  0
LINE
  5
D4A1
  8
0
 10
4698.1040139086971976
 20
179.1065255340758995
 30
0.0
 11
4701.1946940429306778
 21
179.1065252263728951
 31
0.0
  0
LINE
  5
D4A2
  8
0
 10
4701.1946638593817624
 20
176.5729832946950921
 30
0.0
 11
4698.1040741009028352
 21
176.5729778502901013
 31
0.0
  0
ARC
  5
D4A3
  8
0
 10
4698.1038490515238664
 20
176.6429163969638978
 30
0.0
 40
0.0699389087564662
 50
179.143739364404496
 51
270.1843666436164995
  0
LINE
  5
D4A4
  8
0
 10
4694.4665560489211202
 20
174.3297454021655994
 30
0.0
 11
4694.4665282728710736
 21
176.4874394152215018
 31
0.0
  0
ARC
  5
D4A5
  8
0
 10
4694.53649784233221
 20
176.4884981318396058
 30
0.0
 40
0.0699775787764331
 50
89.8713110402284769
 51
180.8668820694859107
  0
LINE
  5
D4A6
  8
0
 10
4694.5366550150638432
 20
176.5584755341072878
 30
0.0
 11
4701.1946636865350229
 21
176.5584748712470002
 31
0.0
  0
LINE
  5
D4A7
  8
0
 10
4687.331863085229088
 20
174.3297454021655994
 30
0.0
 11
4687.3318353091954123
 21
176.4874381126655862
 31
0.0
  0
ARC
  5
D4A8
  8
0
 10
4687.4018048786556392
 20
176.4884968292836902
 30
0.0
 40
0.0699775787764331
 50
89.8713110402284769
 51
180.8668820694859107
  0
LINE
  5
D4A9
  8
0
 10
4687.4019620513890914
 20
176.5584742315512869
 30
0.0
 11
4690.7793373011718359
 21
176.5584738953054966
 31
0.0
  0
LINE
  5
D4AA
  8
0
 10
4690.8314469870247194
 20
176.5584738901175115
 30
0.0
 11
4690.889568816517567
 21
176.5584738843309935
 31
0.0
  0
LINE
  5
D4AB
  8
0
 10
4690.9416734210608411
 20
176.5584738791436052
 30
0.0
 11
4694.3826505835950229
 21
176.5584735365656002
 31
0.0
  0
ARC
  5
D4AC
  8
0
 10
4694.3828819757545716
 20
176.4885033309876121
 30
0.0
 40
0.0699705881849908
 50
359.13413443658402
 51
90.1894770176523792
  0
LINE
  5
D4AD
  8
0
 10
4694.4528445741952964
 20
176.4874459613656938
 30
0.0
 11
4694.4528162233209514
 21
174.3297454021655994
 31
0.0
  0
LINE
  5
D4AE
  8
0
 10
4680.1971452975285501
 20
174.3297454021655994
 30
0.0
 11
4680.1971175214948744
 21
176.4874381126655862
 31
0.0
  0
ARC
  5
D4AF
  8
0
 10
4680.2670870909560108
 20
176.4884968292836902
 30
0.0
 40
0.0699775787764331
 50
89.8713110402284769
 51
180.8668820694859107
  0
LINE
  5
D4B0
  8
0
 10
4680.267244263687644
 20
176.5584742315512869
 30
0.0
 11
4687.2479327958953945
 21
176.5584735365656002
 31
0.0
  0
ARC
  5
D4B1
  8
0
 10
4687.2481641880558527
 20
176.4885033309876121
 30
0.0
 40
0.0699705881849908
 50
359.13413443658402
 51
90.1894770176523792
  0
LINE
  5
D4B2
  8
0
 10
4687.3181267864947586
 20
176.4874459613656938
 30
0.0
 11
4687.318098435621323
 21
174.3297454021655994
 31
0.0
  0
ARC
  5
D4B3
  8
0
 10
4675.2354869630726171
 20
173.8297453947342888
 30
0.0
 40
0.500000016374742
 50
90.0108368521878361
 51
176.7385365400724879
  0
LINE
  5
D4B4
  8
0
 10
4675.2353923936943829
 20
174.3297454021655994
 30
0.0
 11
4706.3604869470964331
 21
174.3297454021655994
 31
0.0
  0
ARC
  5
D4B5
  8
0
 10
4674.7063364165724124
 20
173.8597460743588101
 30
0.0
 40
0.0300006722127708
 50
270.004455193182423
 51
357.0300345248159033
  0
LINE
  5
D4B6
  8
0
 10
4674.7063387493581104
 20
173.8297454022365969
 30
0.0
 11
4674.390486947095269
 21
173.8297454022076067
 31
0.0
  0
LINE
  5
D4B7
  8
0
 10
4676.6289671878948866
 20
222.5138487115077908
 30
0.0
 11
4676.6289407737940564
 21
224.8954055245656036
 31
0.0
  0
ARC
  5
D4B8
  8
0
 10
4676.7039186769852677
 20
224.8964508360033108
 30
0.0
 40
0.0749851894896967
 50
89.8423838846955221
 51
180.7987427121757946
  0
LINE
  5
D4B9
  8
0
 10
4676.7041249549938584
 20
224.971435741765589
 30
0.0
 11
4683.6805799886460591
 21
224.9713345898379941
 31
0.0
  0
ARC
  5
D4BA
  8
0
 10
4683.6809552763679676
 20
224.901514420165114
 30
0.0
 40
0.0698211782628243
 50
359.1012283022021165
 51
90.3079653869218362
  0
LINE
  5
D4BB
  8
0
 10
4683.7507678644606131
 20
224.9004192133992888
 30
0.0
 11
4683.7507364395369223
 21
222.5088267767048933
 31
0.0
  0
ARC
  5
D4BC
  8
0
 10
4683.6808119130273553
 20
222.5078181472811991
 30
0.0
 40
0.0699318006415093
 50
269.8212492376430873
 51
0.8264081913678596
  0
LINE
  5
D4BD
  8
0
 10
4683.6805937408953469
 20
222.4378866869656122
 30
0.0
 11
4676.7041145227940433
 21
222.4378635808656099
 31
0.0
  0
ARC
  5
D4BE
  8
0
 10
4676.7039083869431124
 20
222.5128116714010957
 30
0.0
 40
0.0749483740110528
 50
179.2071887051679937
 51
270.1575848626621905
  0
LINE
  5
D4BF
  8
0
 10
4676.6289671842541793
 20
217.4177500246271109
 30
0.0
 11
4676.6289407701542586
 21
219.799306837685009
 31
0.0
  0
ARC
  5
D4C0
  8
0
 10
4676.7039186733445604
 20
219.8003521491226024
 30
0.0
 40
0.0749851894896967
 50
89.8423838846955221
 51
180.7987427121757946
  0
LINE
  5
D4C1
  8
0
 10
4676.7041249513540606
 20
219.8753370548849091
 30
0.0
 11
4683.6805799850053518
 21
219.8752359029572858
 31
0.0
  0
ARC
  5
D4C2
  8
0
 10
4683.6809552727281698
 20
219.8054157332844056
 30
0.0
 40
0.0698211782628243
 50
359.1012283022021165
 51
90.3079653869218362
  0
LINE
  5
D4C3
  8
0
 10
4683.7507678608208153
 20
219.8043205265186941
 30
0.0
 11
4683.7507364358971245
 21
217.4127280898242134
 31
0.0
  0
ARC
  5
D4C4
  8
0
 10
4683.6808119093857385
 20
217.4117194604004908
 30
0.0
 40
0.0699318006415093
 50
269.8212492376430873
 51
0.8264081913678596
  0
LINE
  5
D4C5
  8
0
 10
4683.6805937372537301
 20
217.3417880000849891
 30
0.0
 11
4676.7041145191542455
 21
217.3417648939849016
 31
0.0
  0
ARC
  5
D4C6
  8
0
 10
4676.7039083833024051
 20
217.4167129845205011
 30
0.0
 40
0.0749483740110528
 50
179.2071887051679937
 51
270.1575848626621905
  0
LINE
  5
D4C7
  8
0
 10
4676.6289682987653578
 20
214.4023365479123981
 30
0.0
 11
4676.628966655331169
 21
214.5505124558019077
 31
0.0
  0
LINE
  5
D4C8
  8
0
 10
4676.6289660751326664
 20
214.6028243918169096
 30
0.0
 11
4676.6289649617938267
 21
214.7032055802656032
 31
0.0
  0
ARC
  5
D4C9
  8
0
 10
4676.7039428649850379
 20
214.7042508917033103
 30
0.0
 40
0.0749851894896967
 50
89.8423838846955221
 51
180.7987427121757946
  0
LINE
  5
D4CA
  8
0
 10
4676.7041491429954476
 20
214.7792357974655886
 30
0.0
 11
4683.6806041766458293
 21
214.7791346455379937
 31
0.0
  0
ARC
  5
D4CB
  8
0
 10
4683.6809794643686473
 20
214.7093144758651135
 30
0.0
 40
0.0698211782628243
 50
359.1012283022021165
 51
90.3079653869218362
  0
LINE
  5
D4CC
  8
0
 10
4683.7507920524612928
 20
214.7082192690992883
 30
0.0
 11
4683.7507906662021924
 21
214.602718042020598
 31
0.0
  0
LINE
  5
D4CD
  8
0
 10
4683.7507899697056928
 20
214.5497113307791892
 30
0.0
 11
4683.7507880332386776
 21
214.4023365479123981
 31
0.0
  0
LINE
  5
D4CE
  8
0
 10
4676.6289913758946568
 20
207.2255487672078118
 30
0.0
 11
4676.6289753032151566
 21
208.6746989650694957
 31
0.0
  0
LINE
  5
D4CF
  8
0
 10
4676.6289741658629282
 20
208.7772454021655903
 30
0.0
 11
4676.6289727784633214
 21
208.9023365479123981
 31
0.0
  0
LINE
  5
D4D0
  8
0
 10
4683.7507827260942577
 20
208.9023365479123981
 30
0.0
 11
4683.7507810824281478
 21
208.7772454021655903
 31
0.0
  0
LINE
  5
D4D1
  8
0
 10
4683.7507797385478625
 20
208.674969401716794
 30
0.0
 11
4683.7507606275366925
 21
207.2205268324049996
 31
0.0
  0
ARC
  5
D4D2
  8
0
 10
4683.680836101028035
 20
207.2195182029811917
 30
0.0
 40
0.0699318006415093
 50
269.8212492376430873
 51
0.8264081913678596
  0
LINE
  5
D4D3
  8
0
 10
4683.6806179288951171
 20
207.1495867426656048
 30
0.0
 11
4676.704138710794723
 21
207.1495636365656026
 31
0.0
  0
ARC
  5
D4D4
  8
0
 10
4676.7039325749428826
 20
207.2245117271010884
 30
0.0
 40
0.0749483740110528
 50
179.2071887051679937
 51
270.1575848626621905
  0
LINE
  5
D4D5
  8
0
 10
4676.6289913758946568
 20
202.1294487672078048
 30
0.0
 11
4676.6289649617938267
 21
204.5110055802655893
 31
0.0
  0
ARC
  5
D4D6
  8
0
 10
4676.7039428649850379
 20
204.5120508917032964
 30
0.0
 40
0.0749851894896967
 50
89.8423838846955221
 51
180.7987427121757946
  0
LINE
  5
D4D7
  8
0
 10
4676.7041491429954476
 20
204.5870357974656031
 30
0.0
 11
4683.6806041766458293
 21
204.5869346455378945
 31
0.0
  0
ARC
  5
D4D8
  8
0
 10
4683.6809794643686473
 20
204.5171144758650996
 30
0.0
 40
0.0698211782628243
 50
359.1012283022021165
 51
90.3079653869218362
  0
LINE
  5
D4D9
  8
0
 10
4683.7507920524612928
 20
204.5160192690993881
 30
0.0
 11
4683.7507606275366925
 21
202.1244268324049926
 31
0.0
  0
ARC
  5
D4DA
  8
0
 10
4683.680836101028035
 20
202.1234182029810995
 30
0.0
 40
0.0699318006415093
 50
269.8212492376430873
 51
0.8264081913678596
  0
LINE
  5
D4DB
  8
0
 10
4683.6806179288951171
 20
202.0534867426657115
 30
0.0
 11
4676.704138710794723
 21
202.0534636365657093
 31
0.0
  0
ARC
  5
D4DC
  8
0
 10
4676.7039325749428826
 20
202.1284117271011098
 30
0.0
 40
0.0749483740110528
 50
179.2071887051679937
 51
270.1575848626621905
  0
LINE
  5
D4DD
  8
0
 10
4676.6289900561887407
 20
197.1523365479123981
 30
0.0
 11
4676.6289881065558802
 21
197.3281199343668959
 31
0.0
  0
LINE
  5
D4DE
  8
0
 10
4676.6289875375996417
 20
197.379418362264289
 30
0.0
 11
4676.6289649617938267
 21
199.4149055802654971
 31
0.0
  0
ARC
  5
D4DF
  8
0
 10
4676.7039428649850379
 20
199.4159508917032042
 30
0.0
 40
0.0749851894896967
 50
89.8423838846955221
 51
180.7987427121757946
  0
LINE
  5
D4E0
  8
0
 10
4676.7041491429954476
 20
199.4909357974655109
 30
0.0
 11
4683.6806041766458293
 21
199.4908346455378876
 31
0.0
  0
ARC
  5
D4E1
  8
0
 10
4683.6809794643686473
 20
199.4210144758650927
 30
0.0
 40
0.0698211782628243
 50
359.1012283022021165
 51
90.3079653869218362
  0
LINE
  5
D4E2
  8
0
 10
4683.7507920524612928
 20
199.4199192690994096
 30
0.0
 11
4683.7507652497442905
 21
197.3800996815155031
 31
0.0
  0
LINE
  5
D4E3
  8
0
 10
4683.7507645554378541
 20
197.3272594457696982
 30
0.0
 11
4683.7507622569937666
 21
197.1523365479123981
 31
0.0
  0
LINE
  5
D4E4
  8
0
 10
4676.6289913758946568
 20
181.7450487672078907
 30
0.0
 11
4676.6289649617938267
 21
184.1266055802655899
 31
0.0
  0
ARC
  5
D4E5
  8
0
 10
4676.7039428649850379
 20
184.127650891703297
 30
0.0
 40
0.0749851894896967
 50
89.8423838846955221
 51
180.7987427121757946
  0
LINE
  5
D4E6
  8
0
 10
4676.7041491429954476
 20
184.2026357974656037
 30
0.0
 11
4683.6806041766458293
 21
184.2025346455378951
 31
0.0
  0
ARC
  5
D4E7
  8
0
 10
4683.6809794643686473
 20
184.1327144758651002
 30
0.0
 40
0.0698211782628243
 50
359.1012283022021165
 51
90.3079653869218362
  0
LINE
  5
D4E8
  8
0
 10
4683.7507920524612928
 20
184.1316192690993034
 30
0.0
 11
4683.7507606275366925
 21
181.7400268324049932
 31
0.0
  0
ARC
  5
D4E9
  8
0
 10
4683.680836101028035
 20
181.7390182029812138
 30
0.0
 40
0.0699318006415093
 50
269.8212492376430873
 51
0.8264081913678596
  0
LINE
  5
D4EA
  8
0
 10
4683.6806179288951171
 20
181.6690867426655984
 30
0.0
 11
4676.704138710794723
 21
181.6690636365655962
 31
0.0
  0
ARC
  5
D4EB
  8
0
 10
4676.7039325749428826
 20
181.7440117271011104
 30
0.0
 40
0.0749483740110528
 50
179.2071887051679937
 51
270.1575848626621905
  0
LINE
  5
D4EC
  8
0
 10
4676.628967184566136
 20
176.6489500245401985
 30
0.0
 11
4676.6289407704653058
 21
179.0305068375980113
 31
0.0
  0
ARC
  5
D4ED
  8
0
 10
4676.7039186736556076
 20
179.0315521490356048
 30
0.0
 40
0.0749851894896967
 50
89.8423838846955221
 51
180.7987427121757946
  0
LINE
  5
D4EE
  8
0
 10
4676.7041249516651078
 20
179.1065370547979114
 30
0.0
 11
4683.680579985316399
 21
179.1064359028702881
 31
0.0
  0
ARC
  5
D4EF
  8
0
 10
4683.6809552730401265
 20
179.0366157331974932
 30
0.0
 40
0.0698211782628243
 50
359.1012283022021165
 51
90.3079653869218362
  0
LINE
  5
D4F0
  8
0
 10
4683.750767861130953
 20
179.0355205264318101
 30
0.0
 11
4683.7507364362081717
 21
176.643928089737301
 31
0.0
  0
ARC
  5
D4F1
  8
0
 10
4683.6808119096976952
 20
176.6429194603136068
 30
0.0
 40
0.0699318006415093
 50
269.8212492376430873
 51
0.8264081913678596
  0
LINE
  5
D4F2
  8
0
 10
4683.6805937375647773
 20
176.5729879999979914
 30
0.0
 11
4676.7041145194652927
 21
176.5729648938979039
 31
0.0
  0
ARC
  5
D4F3
  8
0
 10
4676.7039083836143618
 20
176.6479129844335034
 30
0.0
 40
0.0749483740110528
 50
179.2071887051679937
 51
270.1575848626621905
  0
LINE
  5
D4F4
  8
0
 10
4674.6267936711219591
 20
219.9608211347751876
 30
0.0
 11
4674.6267688613243081
 21
222.3523205124938045
 31
0.0
  0
ARC
  5
D4F5
  8
0
 10
4674.6967553194699576
 20
222.353380733505702
 30
0.0
 40
0.0699944882993229
 50
89.8322680948244283
 51
180.8679042300443029
  0
LINE
  5
D4F6
  8
0
 10
4674.6969602262215631
 20
222.4233749218751939
 30
0.0
 11
4680.1132456613731847
 21
222.4232832865475871
 31
0.0
  0
ARC
  5
D4F7
  8
0
 10
4680.1136209490960027
 20
222.3534631168747921
 30
0.0
 40
0.0698211782628243
 50
359.1012283022021165
 51
90.3079653869218362
  0
LINE
  5
D4F8
  8
0
 10
4680.1834335371877387
 20
222.3523679101089954
 30
0.0
 11
4680.1834021122649574
 21
219.9607754734145999
 31
0.0
  0
ARC
  5
D4F9
  8
0
 10
4680.1134775857553905
 20
219.9597668439909057
 30
0.0
 40
0.0699318006415093
 50
269.8212492376430873
 51
0.8264081913678596
  0
LINE
  5
D4FA
  8
0
 10
4680.113259413621563
 20
219.8898353836752904
 30
0.0
 11
4674.6969535222224295
 21
219.8898215608751059
 31
0.0
  0
ARC
  5
D4FB
  8
0
 10
4674.6967398865372161
 20
219.9597752687573973
 30
0.0
 40
0.0699540340986673
 50
179.1433526005693011
 51
270.1749783590756806
  0
LINE
  5
D4FC
  8
0
 10
4674.6267936710219146
 20
214.8647211347752091
 30
0.0
 11
4674.6267688612242637
 21
217.2562205124939112
 31
0.0
  0
ARC
  5
D4FD
  8
0
 10
4674.6967553193690037
 20
217.257280733505695
 30
0.0
 40
0.0699944882993229
 50
89.8322680948244283
 51
180.8679042300443029
  0
LINE
  5
D4FE
  8
0
 10
4674.6969602261224281
 20
217.3272749218751869
 30
0.0
 11
4680.1132456612731403
 21
217.3271832865474948
 31
0.0
  0
ARC
  5
D4FF
  8
0
 10
4680.1136209489959583
 20
217.2573631168748136
 30
0.0
 40
0.0698211782628243
 50
359.1012283022021165
 51
90.3079653869218362
  0
LINE
  5
D500
  8
0
 10
4680.1834335370876943
 20
217.2562679101091021
 30
0.0
 11
4680.183402112164913
 21
214.8646754734147066
 31
0.0
  0
ARC
  5
D501
  8
0
 10
4680.1134775856544366
 20
214.8636668439908135
 30
0.0
 40
0.0699318006415093
 50
269.8212492376430873
 51
0.8264081913678596
  0
LINE
  5
D502
  8
0
 10
4680.1132594135233376
 20
214.7937353836753118
 30
0.0
 11
4674.696953522122385
 21
214.7937215608750989
 31
0.0
  0
ARC
  5
D503
  8
0
 10
4674.6967398864380812
 20
214.863675268757504
 30
0.0
 40
0.0699540340986673
 50
179.1433526005693011
 51
270.1749783590756806
  0
LINE
  5
D504
  8
0
 10
4674.6267936711219591
 20
204.6725211347751952
 30
0.0
 11
4674.6267688613243081
 21
207.0640205124938973
 31
0.0
  0
ARC
  5
D505
  8
0
 10
4674.6967553194699576
 20
207.0650807335057948
 30
0.0
 40
0.0699944882993229
 50
89.8322680948244283
 51
180.8679042300443029
  0
LINE
  5
D506
  8
0
 10
4674.6969602262215631
 20
207.1350749218752014
 30
0.0
 11
4680.1132456613731847
 21
207.1349832865475946
 31
0.0
  0
ARC
  5
D507
  8
0
 10
4680.1136209490960027
 20
207.0651631168747997
 30
0.0
 40
0.0698211782628243
 50
359.1012283022021165
 51
90.3079653869218362
  0
LINE
  5
D508
  8
0
 10
4680.1834335371877387
 20
207.0640679101090882
 30
0.0
 11
4680.1834021122649574
 21
204.6724754734146074
 31
0.0
  0
ARC
  5
D509
  8
0
 10
4680.1134775857553905
 20
204.6714668439907996
 30
0.0
 40
0.0699318006415093
 50
269.8212492376430873
 51
0.8264081913678596
  0
LINE
  5
D50A
  8
0
 10
4680.113259413621563
 20
204.6015353836752979
 30
0.0
 11
4674.6969535222224295
 21
204.6015215608751987
 31
0.0
  0
ARC
  5
D50B
  8
0
 10
4674.6967398865372161
 20
204.6714752687574048
 30
0.0
 40
0.0699540340986673
 50
179.1433526005693011
 51
270.1749783590756806
  0
LINE
  5
D50C
  8
0
 10
4674.6267691045295578
 20
199.5764224381769907
 30
0.0
 11
4674.6267442947328163
 21
201.9679218158958065
 31
0.0
  0
ARC
  5
D50D
  8
0
 10
4674.6967307528775564
 20
201.9689820369075051
 30
0.0
 40
0.0699944882993229
 50
89.8322680948244283
 51
180.8679042300443029
  0
LINE
  5
D50E
  8
0
 10
4674.6969356596309808
 20
202.038976225276997
 30
0.0
 11
4680.113221094781693
 21
202.0388845899495038
 31
0.0
  0
ARC
  5
D50F
  8
0
 10
4680.1135963825036015
 20
201.9690644202765952
 30
0.0
 40
0.0698211782628243
 50
359.1012283022021165
 51
90.3079653869218362
  0
LINE
  5
D510
  8
0
 10
4680.1834089705971564
 20
201.9679692135109121
 30
0.0
 11
4680.1833775456725562
 21
199.576376776816403
 31
0.0
  0
ARC
  5
D511
  8
0
 10
4680.1134530191629892
 20
199.5753681473927088
 30
0.0
 40
0.0699318006415093
 50
269.8212492376430873
 51
0.8264081913678596
  0
LINE
  5
D512
  8
0
 10
4680.1132348470309807
 20
199.5054366870770934
 30
0.0
 11
4674.6969289556309377
 21
199.505422864276909
 31
0.0
  0
ARC
  5
D513
  8
0
 10
4674.6967153199466338
 20
199.5753765721592004
 30
0.0
 40
0.0699540340986673
 50
179.1433526005693011
 51
270.1749783590756806
  0
LINE
  5
D514
  8
0
 10
4674.6267489464044047
 20
191.3273365479124095
 30
0.0
 11
4674.6267476519051343
 21
191.4521174391398119
 31
0.0
  0
LINE
  5
D515
  8
0
 10
4674.626746587227899
 20
191.5547454021750013
 30
0.0
 11
4674.6267455748002249
 21
191.6523365479123981
 31
0.0
  0
LINE
  5
D516
  8
0
 10
4680.1834073487716523
 20
191.6523365479123981
 30
0.0
 11
4680.1834060664486969
 21
191.5547454025360992
 31
0.0
  0
LINE
  5
D517
  8
0
 10
4680.1834047207321419
 20
191.4523295929874109
 30
0.0
 11
4680.1834030783538765
 21
191.3273365479124095
 31
0.0
  0
LINE
  5
D518
  8
0
 10
4674.6267936711219591
 20
184.2881211347751957
 30
0.0
 11
4674.6267799959068725
 21
185.6063208361740067
 31
0.0
  0
LINE
  5
D519
  8
0
 10
4674.626779454829375
 20
185.6584772013488873
 30
0.0
 11
4674.6267777030552679
 21
185.8273365479124095
 31
0.0
  0
LINE
  5
D51A
  8
0
 10
4680.1834223377682065
 20
185.8273365479124095
 30
0.0
 11
4680.18342012197445
 21
185.6587036142630041
 31
0.0
  0
LINE
  5
D51B
  8
0
 10
4680.1834194336770452
 20
185.6063208361740067
 30
0.0
 11
4680.1834021122649574
 21
184.288075473414608
 31
0.0
  0
ARC
  5
D51C
  8
0
 10
4680.1134775857553905
 20
184.2870668439909139
 30
0.0
 40
0.0699318006415093
 50
269.8212492376430873
 51
0.8264081913678596
  0
LINE
  5
D51D
  8
0
 10
4680.113259413621563
 20
184.2171353836752985
 30
0.0
 11
4674.6969535222224295
 21
184.217121560875114
 31
0.0
  0
ARC
  5
D51E
  8
0
 10
4674.6967398865372161
 20
184.2870752687574054
 30
0.0
 40
0.0699540340986673
 50
179.1433526005693011
 51
270.1749783590756806
  0
LINE
  5
D51F
  8
0
 10
4674.6267936710219146
 20
179.1920211347751035
 30
0.0
 11
4674.6267688612242637
 21
181.5835205124938909
 31
0.0
  0
ARC
  5
D520
  8
0
 10
4674.6967553193690037
 20
181.5845807335055895
 30
0.0
 40
0.0699944882993229
 50
89.8322680948244283
 51
180.8679042300443029
  0
LINE
  5
D521
  8
0
 10
4674.6969602261224281
 20
181.6545749218751098
 30
0.0
 11
4680.1132456612731403
 21
181.6544832865475882
 31
0.0
  0
ARC
  5
D522
  8
0
 10
4680.1136209489959583
 20
181.5846631168747081
 30
0.0
 40
0.0698211782628243
 50
359.1012283022021165
 51
90.3079653869218362
  0
LINE
  5
D523
  8
0
 10
4680.1834335370876943
 20
181.5835679101089113
 30
0.0
 11
4680.183402112164913
 21
179.1919754734146863
 31
0.0
  0
ARC
  5
D524
  8
0
 10
4680.1134775856544366
 20
179.1909668439907932
 30
0.0
 40
0.0699318006415093
 50
269.8212492376430873
 51
0.8264081913678596
  0
LINE
  5
D525
  8
0
 10
4680.1132594135233376
 20
179.1210353836752063
 30
0.0
 11
4674.696953522122385
 21
179.1210215608751923
 31
0.0
  0
ARC
  5
D526
  8
0
 10
4674.6967398864380812
 20
179.1909752687575121
 30
0.0
 40
0.0699540340986673
 50
179.1433526005693011
 51
270.1749783590756806
  0
LINE
  5
D527
  8
0
 10
4674.6267910493188538
 20
174.3486454021656016
 30
0.0
 11
4674.6267688613243081
 21
176.4874205124939124
 31
0.0
  0
ARC
  5
D528
  8
0
 10
4674.6967553194699576
 20
176.4884807335056109
 30
0.0
 40
0.0699944882993229
 50
89.8322680948244283
 51
180.8679042300443029
  0
LINE
  5
D529
  8
0
 10
4674.6969602262215631
 20
176.5584749218751028
 30
0.0
 11
4680.1132456613731847
 21
176.5583832865476097
 31
0.0
  0
ARC
  5
D52A
  8
0
 10
4680.1136209490960027
 20
176.4885631168747011
 30
0.0
 40
0.0698211782628243
 50
359.1012283022021165
 51
90.3079653869218362
  0
LINE
  5
D52B
  8
0
 10
4680.1834335371877387
 20
176.4874679101089896
 30
0.0
 11
4680.1834051852556513
 21
174.3297454021655994
 31
0.0
  0
LINE
  5
D52C
  8
0
 10
4674.6267651296038821
 20
227.6099492982656045
 30
0.0
 11
4674.6267393763946529
 21
229.9915050662656029
 31
0.0
  0
ARC
  5
D52D
  8
0
 10
4674.7017170706003526
 20
229.9925510004244984
 30
0.0
 40
0.0749849892079024
 50
89.8423449641113763
 51
180.7992207111585969
  0
LINE
  5
D52E
  8
0
 10
4674.7019233989949498
 20
230.0675357057656072
 30
0.0
 11
4676.5450764274792164
 21
230.0675175298655972
 31
0.0
  0
ARC
  5
D52F
  8
0
 10
4676.5453078196387651
 20
229.9975473242876944
 30
0.0
 40
0.0699705881849908
 50
359.13413443658402
 51
90.1894770176523792
  0
LINE
  5
D530
  8
0
 10
4676.6152704180785804
 20
229.9964899546656909
 30
0.0
 11
4676.6152389947792472
 21
227.6049561645656922
 31
0.0
  0
ARC
  5
D531
  8
0
 10
4676.5453176141418226
 20
227.6039116694938116
 30
0.0
 40
0.0699291816069565
 50
269.8186353982289916
 51
0.8558284741055247
  0
LINE
  5
D532
  8
0
 10
4676.5450962600198181
 20
227.5339828382253984
 30
0.0
 11
4674.7019195683951693
 21
227.5339657783657117
 31
0.0
  0
ARC
  5
D533
  8
0
 10
4674.701702010786903
 20
227.608909556578709
 30
0.0
 40
0.0749440939912334
 50
179.2050778321489872
 51
270.1663259849689211
  0
LINE
  5
D534
  8
0
 10
4674.6267651285916145
 20
222.5138492979843079
 30
0.0
 11
4674.6267393753823853
 21
224.8954050659843062
 31
0.0
  0
ARC
  5
D535
  8
0
 10
4674.701717069586266
 20
224.8964510001430881
 30
0.0
 40
0.0749849892079024
 50
89.8423449641113763
 51
180.7992207111585969
  0
LINE
  5
D536
  8
0
 10
4674.7019233979808632
 20
224.9714357054843106
 30
0.0
 11
4676.5450764264660393
 21
224.9714175295843006
 31
0.0
  0
ARC
  5
D537
  8
0
 10
4676.545307818627407
 20
224.9014473240063126
 30
0.0
 40
0.0699705881849908
 50
359.13413443658402
 51
90.1894770176523792
  0
LINE
  5
D538
  8
0
 10
4676.6152704170663128
 20
224.900389954384309
 30
0.0
 11
4676.6152389937660701
 21
222.5088561642841967
 31
0.0
  0
ARC
  5
D539
  8
0
 10
4676.545317613127736
 20
222.5078116692124013
 30
0.0
 40
0.0699291816069565
 50
269.8186353982289916
 51
0.8558284741055247
  0
LINE
  5
D53A
  8
0
 10
4676.5450962590057316
 20
222.4378828379439881
 30
0.0
 11
4674.7019195673819922
 21
222.4378657780843014
 31
0.0
  0
ARC
  5
D53B
  8
0
 10
4674.7017020097728164
 20
222.5128095562974124
 30
0.0
 40
0.0749440939912334
 50
179.2050778321489872
 51
270.1663259849689211
  0
LINE
  5
D53C
  8
0
 10
4674.6267893202602863
 20
217.4177480407028895
 30
0.0
 11
4674.6267635670510572
 21
219.7993038087028879
 31
0.0
  0
ARC
  5
D53D
  8
0
 10
4674.7017412612549379
 20
219.8003497428618971
 30
0.0
 40
0.0749849892079024
 50
89.8423449641113763
 51
180.7992207111585969
  0
LINE
  5
D53E
  8
0
 10
4674.7019475896513541
 20
219.8753344482028922
 30
0.0
 11
4676.5451006181347111
 21
219.8753162723031096
 31
0.0
  0
ARC
  5
D53F
  8
0
 10
4676.5453320102960788
 20
219.8053460667248942
 30
0.0
 40
0.0699705881849908
 50
359.13413443658402
 51
90.1894770176523792
  0
LINE
  5
D540
  8
0
 10
4676.6152946087358941
 20
219.8042886971030043
 30
0.0
 11
4676.6152631854356514
 21
217.4127549070030057
 31
0.0
  0
ARC
  5
D541
  8
0
 10
4676.5453418047982268
 20
217.4117104119312103
 30
0.0
 40
0.0699291816069565
 50
269.8186353982289916
 51
0.8558284741055247
  0
LINE
  5
D542
  8
0
 10
4676.5451204506762224
 20
217.3417815806627971
 30
0.0
 11
4674.7019437590515736
 21
217.3417645208031104
 31
0.0
  0
ARC
  5
D543
  8
0
 10
4674.7017262014433072
 20
217.416708299016193
 30
0.0
 40
0.0749440939912334
 50
179.2050778321489872
 51
270.1663259849689211
  0
LINE
  5
D544
  8
0
 10
4674.6267426330114176
 20
214.4023365479123981
 30
0.0
 11
4674.6267410282598576
 21
214.5507376836656022
 31
0.0
  0
LINE
  5
D545
  8
0
 10
4674.6267404646905561
 20
214.602854290936591
 30
0.0
 11
4674.6267393795505996
 21
214.7032037531029971
 31
0.0
  0
ARC
  5
D546
  8
0
 10
4674.7017170737562992
 20
214.7042496872618074
 30
0.0
 40
0.0749849892079024
 50
89.8423449641113763
 51
180.7992207111585969
  0
LINE
  5
D547
  8
0
 10
4674.7019234021518059
 20
214.7792343926030014
 30
0.0
 11
4676.545076430635163
 21
214.7792162167029062
 31
0.0
  0
ARC
  5
D548
  8
0
 10
4676.5453078227956212
 20
214.7092460111250887
 30
0.0
 40
0.0699705881849908
 50
359.13413443658402
 51
90.1894770176523792
  0
LINE
  5
D549
  8
0
 10
4676.6152704212354365
 20
214.7081886415031136
 30
0.0
 11
4676.6152690368162439
 21
214.6028245963539973
 31
0.0
  0
LINE
  5
D54A
  8
0
 10
4676.6152683494856319
 20
214.5505139967071955
 30
0.0
 11
4676.6152664025239574
 21
214.4023365479123981
 31
0.0
  0
LINE
  5
D54B
  8
0
 10
4674.6267893202602863
 20
207.225548040702904
 30
0.0
 11
4674.6267736505324137
 21
208.6746229353628905
 31
0.0
  0
LINE
  5
D54C
  8
0
 10
4674.6267725408142724
 20
208.7772454021655903
 30
0.0
 11
4674.6267711881282594
 21
208.9023365479123981
 31
0.0
  0
LINE
  5
D54D
  8
0
 10
4676.6152852830227857
 20
208.9023365479123981
 30
0.0
 11
4676.6152836394021506
 21
208.7772454021655903
 31
0.0
  0
LINE
  5
D54E
  8
0
 10
4676.6152822919966638
 20
208.6746984451040987
 30
0.0
 11
4676.6152631854356514
 21
207.2205549070029917
 31
0.0
  0
ARC
  5
D54F
  8
0
 10
4676.5453418047982268
 20
207.2195104119311111
 30
0.0
 40
0.0699291816069565
 50
269.8186353982289916
 51
0.8558284741055247
  0
LINE
  5
D550
  8
0
 10
4676.5451204506762224
 20
207.1495815806626979
 30
0.0
 11
4674.7019437590515736
 21
207.1495645208030112
 31
0.0
  0
ARC
  5
D551
  8
0
 10
4674.7017262014433072
 20
207.2245082990162075
 30
0.0
 40
0.0749440939912334
 50
179.2050778321489872
 51
270.1663259849689211
  0
LINE
  5
D552
  8
0
 10
4674.6267893202602863
 20
202.1294480408029983
 30
0.0
 11
4674.6267635670510572
 21
204.5110038088029967
 31
0.0
  0
ARC
  5
D553
  8
0
 10
4674.7017412612549379
 20
204.5120497429618069
 30
0.0
 40
0.0749849892079024
 50
89.8423449641113763
 51
180.7992207111585969
  0
LINE
  5
D554
  8
0
 10
4674.7019475896513541
 20
204.587034448303001
 30
0.0
 11
4676.5451006181347111
 21
204.5870162724029058
 31
0.0
  0
ARC
  5
D555
  8
0
 10
4676.5453320102960788
 20
204.5170460668250882
 30
0.0
 40
0.0699705881849908
 50
359.13413443658402
 51
90.1894770176523792
  0
LINE
  5
D556
  8
0
 10
4676.6152946087358941
 20
204.5159886972029994
 30
0.0
 11
4676.6152631854356514
 21
202.1244549071030008
 31
0.0
  0
ARC
  5
D557
  8
0
 10
4676.5453418047982268
 20
202.1234104120310064
 30
0.0
 40
0.0699291816069565
 50
269.8186353982289916
 51
0.8558284741055247
  0
LINE
  5
D558
  8
0
 10
4676.5451204506762224
 20
202.0534815807627922
 30
0.0
 11
4674.7019437590515736
 21
202.0534645209029065
 31
0.0
  0
ARC
  5
D559
  8
0
 10
4674.7017262014433072
 20
202.1284082991161029
 30
0.0
 40
0.0749440939912334
 50
179.2050778321489872
 51
270.1663259849689211
  0
LINE
  5
D55A
  8
0
 10
4674.6267880335662994
 20
197.1523365479123981
 30
0.0
 11
4674.626786130095752
 21
197.3283618504088111
 31
0.0
  0
LINE
  5
D55B
  8
0
 10
4674.6267855800633697
 20
197.3792268175695028
 30
0.0
 11
4674.6267635670510572
 21
199.4149038087030021
 31
0.0
  0
ARC
  5
D55C
  8
0
 10
4674.7017412612549379
 20
199.4159497428618124
 30
0.0
 40
0.0749849892079024
 50
89.8423449641113763
 51
180.7992207111585969
  0
LINE
  5
D55D
  8
0
 10
4674.7019475896513541
 20
199.4909344482030065
 30
0.0
 11
4676.5451006181347111
 21
199.4909162723029965
 31
0.0
  0
ARC
  5
D55E
  8
0
 10
4676.5453320102960788
 20
199.4209460667250084
 30
0.0
 40
0.0699705881849908
 50
359.13413443658402
 51
90.1894770176523792
  0
LINE
  5
D55F
  8
0
 10
4676.6152946087358941
 20
199.4198886971030049
 30
0.0
 11
4676.6152677981790475
 21
197.3794170497376967
 31
0.0
  0
LINE
  5
D560
  8
0
 10
4676.6152671241879943
 20
197.3281215922044964
 30
0.0
 11
4676.6152648144789055
 21
197.1523365479123981
 31
0.0
  0
LINE
  5
D561
  8
0
 10
4674.6267893202602863
 20
181.7450480407028977
 30
0.0
 11
4674.6267635670510572
 21
184.126603808702896
 31
0.0
  0
ARC
  5
D562
  8
0
 10
4674.7017412612549379
 20
184.1276497428619052
 30
0.0
 40
0.0749849892079024
 50
89.8423449641113763
 51
180.7992207111585969
  0
LINE
  5
D563
  8
0
 10
4674.7019475896513541
 20
184.2026344482029003
 30
0.0
 11
4676.5451006181347111
 21
184.2026162723030041
 31
0.0
  0
ARC
  5
D564
  8
0
 10
4676.5453320102960788
 20
184.1326460667249876
 30
0.0
 40
0.0699705881849908
 50
359.13413443658402
 51
90.1894770176523792
  0
LINE
  5
D565
  8
0
 10
4676.6152946087358941
 20
184.1315886971028988
 30
0.0
 11
4676.6152631854356514
 21
181.7400549070030138
 31
0.0
  0
ARC
  5
D566
  8
0
 10
4676.5453418047982268
 20
181.7390104119311047
 30
0.0
 40
0.0699291816069565
 50
269.8186353982289916
 51
0.8558284741055247
  0
LINE
  5
D567
  8
0
 10
4676.5451204506762224
 20
181.6690815806628052
 30
0.0
 11
4674.7019437590515736
 21
181.6690645208030048
 31
0.0
  0
ARC
  5
D568
  8
0
 10
4674.7017262014433072
 20
181.7440082990160022
 30
0.0
 40
0.0749440939912334
 50
179.2050778321489872
 51
270.1663259849689211
  0
LINE
  5
D569
  8
0
 10
4674.6267651330608714
 20
176.6489479851028932
 30
0.0
 11
4674.6267393798516423
 21
179.0305037531028916
 31
0.0
  0
ARC
  5
D56A
  8
0
 10
4674.7017170740564325
 20
179.0315496872617871
 30
0.0
 40
0.0749849892079024
 50
89.8423449641113763
 51
180.7992207111585969
  0
LINE
  5
D56B
  8
0
 10
4674.7019234024510297
 20
179.1065343926028959
 30
0.0
 11
4676.5450764309362057
 21
179.1065162167028859
 31
0.0
  0
ARC
  5
D56C
  8
0
 10
4676.5453078230957544
 20
179.0365460111250115
 30
0.0
 40
0.0699705881849908
 50
359.13413443658402
 51
90.1894770176523792
  0
LINE
  5
D56D
  8
0
 10
4676.6152704215346603
 20
179.035488641503008
 30
0.0
 11
4676.615238998237146
 21
176.6439548514030093
 31
0.0
  0
ARC
  5
D56E
  8
0
 10
4676.5453176175969929
 20
176.6429103563311003
 30
0.0
 40
0.0699291816069565
 50
269.8186353982289916
 51
0.8558284741055247
  0
LINE
  5
D56F
  8
0
 10
4676.545096263475898
 20
176.5729815250626871
 30
0.0
 11
4674.7019195718512492
 21
176.5729644652030004
 31
0.0
  0
ARC
  5
D570
  8
0
 10
4674.7017020142420733
 20
176.6479082434161114
 30
0.0
 40
0.0749440939912334
 50
179.2050778321489872
 51
270.1663259849689211
  0
LINE
  5
D571
  8
0
 10
4674.2759352553939607
 20
173.8654358651656082
 30
0.0
 11
4674.302714036693942
 21
173.8657343406655968
 31
0.0
  0
ARC
  5
D572
  8
0
 10
4674.4125886136544068
 20
173.8920535762102872
 30
0.0
 40
0.0300234644447881
 50
270.0738677591231749
 51
359.9146596332359991
  0
ARC
  5
D573
  8
0
 10
4674.3206504032559678
 20
172.7653951870381093
 30
0.0
 40
1.1004853321365511
 50
85.2057117339359564
 51
90.9338821354391769
  0
ARC
  5
D574
  8
0
 10
4674.3189612649894116
 20
173.8423481028688968
 30
0.0
 40
0.0237206643645451
 50
37.5584396550170112
 51
82.7621199547492665
  0
ARC
  5
D575
  8
0
 10
4665.8103958699393843
 20
173.5321046700875911
 30
0.0
 40
8.5366425160059052
 50
359.480776940019723
 51
1.913910900837601
  0
ARC
  5
D576
  8
0
 10
4674.1197438761673766
 20
173.811916131180709
 30
0.0
 40
0.2225951909984478
 50
1.362777343431399
 51
11.6347939619889793
  0
ARC
  5
D577
  8
0
 10
4674.4717250519761365
 20
173.4549069486400867
 30
0.0
 40
0.1250372936531614
 50
180.074036774671697
 51
207.172029038173406
  0
ARC
  5
D578
  8
0
 10
4675.5175576999954501
 20
174.2233761759655977
 30
0.0
 40
0.1252683212000119
 50
58.1172874147975804
 51
89.9723410936350518
  0
LINE
  5
D579
  8
0
 10
4675.5176181718952648
 20
174.3486444825695969
 30
0.0
 11
4674.4754109264949875
 21
174.3486454021656016
 31
0.0
  0
ARC
  5
D57A
  8
0
 10
4674.4772650767308733
 20
174.3835987828275051
 30
0.0
 40
0.0350025240917672
 50
188.1033088131443947
 51
266.9635124412142204
  0
LINE
  5
D57B
  8
0
 10
4674.9610059725537212
 20
174.247669072965607
 30
0.0
 11
4674.4753877910952724
 21
174.247669072965607
 31
0.0
  0
ARC
  5
D57C
  8
0
 10
4674.4776337440862335
 20
174.2123385775896054
 30
0.0
 40
0.0354018108188026
 50
93.6373878846128491
 51
171.5963899365177099
  0
LINE
  5
D57D
  8
0
 10
4674.5229410595948139
 20
174.228258556465704
 30
0.0
 11
4674.5229410595948139
 21
173.8297454021484896
 31
0.0
  0
LINE
  5
D57E
  8
0
 10
4674.5229410595948139
 20
174.228258556465704
 30
0.0
 11
4674.7977735370950541
 21
174.233232389365611
 31
0.0
  0
LINE
  5
D57F
  8
0
 10
4674.7977735370950541
 20
174.233232389365611
 30
0.0
 11
4674.7977735370950541
 21
174.0714207412086125
 31
0.0
  0
LINE
  5
D580
  8
0
 10
4674.8265235370954542
 20
174.2438932358656984
 30
0.0
 11
4674.9553413187013575
 21
174.2438932358656984
 31
0.0
  0
LINE
  5
D581
  8
0
 10
4674.8265235370954542
 20
174.2438932358656984
 30
0.0
 11
4674.8265235370954542
 21
174.1174065366828927
 31
0.0
  0
LINE
  5
D582
  8
0
 10
4674.7977735370950541
 20
174.2299364395655914
 30
0.0
 11
4674.8265235370954542
 21
174.2294161310655909
 31
0.0
  0
LINE
  5
D583
  8
0
 10
4705.2521545881963903
 20
215.6838708292656861
 30
0.0
 11
4705.2521049470951766
 21
216.9744929021655935
 31
0.0
  0
ARC
  5
D584
  8
0
 10
4706.7259188378357067
 20
216.9485613566762936
 30
0.0
 40
1.474042004005911
 50
166.3220213633750006
 51
178.9919929452647125
  0
ARC
  5
D585
  8
0
 10
4705.1623494030891379
 20
217.3272920714188956
 30
0.0
 40
0.1347523942833195
 50
347.0614804049693021
 51
0.0177659888836156
  0
ARC
  5
D586
  8
0
 10
4705.1571049482654416
 20
207.1357002658999988
 30
0.0
 40
0.1399999988310292
 50
347.080538350166421
 51
0.0000000268497846
  0
ARC
  5
D587
  8
0
 10
4706.6864585886405621
 20
206.7614083209952867
 30
0.0
 40
1.4345056760944821
 50
166.1665611609325026
 51
179.1658167317891071
  0
LINE
  5
D588
  8
0
 10
4705.2521049470951766
 20
206.782292902166688
 30
0.0
 11
4705.2521049470888101
 21
205.8001491118961042
 31
0.0
  0
ARC
  5
D589
  8
0
 10
4702.1291418941982556
 20
205.8001132841295941
 30
0.0
 40
3.1229630530960688
 50
353.7091514069663276
 51
0.0006573179931205
  0
ARC
  5
D58A
  8
0
 10
4705.2639502278234431
 20
205.4595133562997091
 30
0.0
 40
0.0306920545918905
 50
182.9891106902011018
 51
239.3099247728690955
  0
LINE
  5
D58B
  8
0
 10
4705.8271102167191202
 20
205.3321837386349102
 30
0.0
 11
4705.2455023938673548
 21
205.3067022791809961
 31
0.0
  0
ARC
  5
D58C
  8
0
 10
4705.1811671779196331
 20
207.2505830444399066
 30
0.0
 40
1.944945101938492
 50
263.6597082522968094
 51
271.8955850641768279
  0
ARC
  5
D58D
  8
0
 10
4704.9838866314757979
 20
205.5518664881051052
 30
0.0
 40
0.2349853671671915
 50
251.2832715651063893
 51
265.7275858367419232
  0
ARC
  5
D58E
  8
0
 10
4705.2540713168873481
 20
205.2570009293687008
 30
0.0
 40
0.0504346172266444
 50
99.7820989044999607
 51
157.4265516102128117
  0
ARC
  5
D58F
  8
0
 10
4702.1361057856456682
 20
205.8008155224156042
 30
0.0
 40
3.115849550721923
 50
344.2355742812785024
 51
350.3099462943031881
  0
ARC
  5
D590
  8
0
 10
4707.6064060895432704
 20
204.3074066360917982
 30
0.0
 40
2.5548980084774038
 50
165.3333696037705067
 51
172.6969859726985987
  0
ARC
  5
D591
  8
0
 10
4704.8188150206779028
 20
204.6664683122696999
 30
0.0
 40
0.2557285405502952
 50
345.1401643295762938
 51
352.2938595795424135
  0
LINE
  5
D592
  8
0
 10
4705.0659909994210466
 20
204.6008853725305983
 30
0.0
 11
4705.0643178091759182
 21
204.5930969774491075
 31
0.0
  0
ARC
  5
D593
  8
0
 10
4704.938736474921825
 20
204.6200411224687912
 30
0.0
 40
0.1284393182166832
 50
309.061211674912272
 51
347.8904739171280198
  0
ARC
  5
D594
  8
0
 10
4705.3036523207083519
 20
204.2398513632280981
 30
0.0
 40
0.399127001271156
 50
135.357276878256414
 51
160.2532789458155094
  0
ARC
  5
D595
  8
0
 10
4704.4249669000510039
 20
205.0420142760648901
 30
0.0
 40
0.8356700239581023
 50
307.0094584241135749
 51
319.4666615766407745
  0
ARC
  5
D596
  8
0
 10
4705.8513612086590001
 20
203.5433120608244053
 30
0.0
 40
1.240678181979143
 50
116.5344948656785959
 51
129.6253993042548132
  0
LINE
  5
D597
  8
0
 10
4705.2971049470961589
 20
204.6533041093354939
 30
0.0
 11
4705.2971049460566064
 21
204.5934652185578955
 31
0.0
  0
ARC
  5
D598
  8
0
 10
4705.1570603543996185
 20
204.5934887648357119
 30
0.0
 40
0.1400445936370426
 50
326.8698130365168026
 51
359.9903666100502164
  0
ARC
  5
D599
  8
0
 10
4705.5219457827206497
 20
204.3702452832006031
 30
0.0
 40
0.2878044293764904
 50
149.354036782624604
 51
171.8673420723627885
  0
ARC
  5
D59A
  8
0
 10
4705.4851108498942267
 20
204.3442182628627961
 30
0.0
 40
0.2568962296611689
 50
140.373215479356503
 51
164.9418555001956861
  0
ARC
  5
D59B
  8
0
 10
4704.564359176830294
 20
204.5330107795703896
 30
0.0
 40
0.6836594481953564
 50
321.4468914878532928
 51
349.7160754733012027
  0
ARC
  5
D59C
  8
0
 10
4706.3486387882940107
 20
203.8814562778341042
 30
0.0
 40
0.0100881459949276
 50
79.2129602456754469
 51
121.3545596810088938
  0
ARC
  5
D59D
  8
0
 10
4706.3548906206497122
 20
203.8740742575429863
 30
0.0
 40
0.0197021656767683
 50
125.7143156358797995
 51
159.5903528830029927
  0
ARC
  5
D59E
  8
0
 10
4706.4120763627961423
 20
203.8531480705175909
 30
0.0
 40
0.0805962360659867
 50
159.8248548336956105
 51
181.4918017827999961
  0
ARC
  5
D59F
  8
0
 10
4706.3475480939032423
 20
203.7718323398331108
 30
0.0
 40
0.0093880441901866
 50
238.0243835373406966
 51
282.8553971408089183
  0
ARC
  5
D5A0
  8
0
 10
4706.3530786411402005
 20
203.7783968219783048
 30
0.0
 40
0.0179264992774708
 50
201.6527122321209902
 51
234.1376310007213135
  0
ARC
  5
D5A1
  8
0
 10
4706.4071677584761346
 20
203.7987035664403948
 30
0.0
 40
0.0756994880617694
 50
178.1566554215656026
 51
200.8322642515857979
  0
LINE
  5
D5A2
  8
0
 10
4706.3315074439951786
 20
203.8510498352657123
 30
0.0
 11
4706.3315074439951786
 21
203.8011385829657058
 31
0.0
  0
ARC
  5
D5A3
  8
0
 10
4706.3605080403949614
 20
203.526684835036491
 30
0.0
 40
0.0499789110542181
 50
359.9784332244203142
 51
81.014791427572078
  0
LINE
  5
D5A4
  8
0
 10
4706.4104869479078843
 20
203.5266660224129112
 30
0.0
 11
4706.4104869479078843
 21
203.5032262106128087
 31
0.0
  0
ARC
  5
D5A5
  8
0
 10
4706.3605117871666152
 20
203.5032036588424091
 30
0.0
 40
0.049975165829476
 50
280.982421615025487
 51
0.0258552681604106
  0
LINE
  5
D5A6
  8
0
 10
4706.3505319270880136
 20
203.5788667989129124
 30
0.0
 11
4706.3683137206890024
 21
203.5760504395128976
 31
0.0
  0
LINE
  5
D5A7
  8
0
 10
4706.37003244718926
 20
203.454143754312895
 30
0.0
 11
4706.349641901688301
 21
203.4501802464129128
 31
0.0
  0
ARC
  5
D5A8
  8
0
 10
4706.3486438385871224
 20
203.5689569143814879
 30
0.0
 40
0.0100881459949276
 50
79.2129602456754469
 51
121.3545596810088938
  0
ARC
  5
D5A9
  8
0
 10
4706.3548956709428239
 20
203.5615748940903131
 30
0.0
 40
0.0197021656767683
 50
125.7143156358797995
 51
159.5903528830029927
  0
ARC
  5
D5AA
  8
0
 10
4706.4120814130901636
 20
203.5406487070648893
 30
0.0
 40
0.0805962360659867
 50
159.8248548336956105
 51
181.4918017827999961
  0
ARC
  5
D5AB
  8
0
 10
4706.3475531441972635
 20
203.4593329763802103
 30
0.0
 40
0.0093880441901866
 50
238.0243835373406966
 51
282.8553971408089183
  0
ARC
  5
D5AC
  8
0
 10
4706.3530836914333122
 20
203.4658974585254896
 30
0.0
 40
0.0179264992774708
 50
201.6527122321209902
 51
234.1376310007213135
  0
ARC
  5
D5AD
  8
0
 10
4706.4071728087692463
 20
203.4862042029876932
 30
0.0
 40
0.0756994880617694
 50
178.1566554215656026
 51
200.8322642515857979
  0
LINE
  5
D5AE
  8
0
 10
4706.3315124942882903
 20
203.5385504718128971
 30
0.0
 11
4706.3315124942882903
 21
203.4886392195128906
 31
0.0
  0
ARC
  5
D5AF
  8
0
 10
4707.6736151373997927
 20
91.2791638511278052
 30
0.0
 40
111.9868852033306013
 50
92.5130694022160043
 51
92.6579315312623493
  0
ARC
  5
D5B0
  8
0
 10
4706.7701523389278009
 20
166.9028948501685932
 30
0.0
 40
36.1364539447098423
 50
91.9974114712837547
 51
93.6184349772046147
  0
ARC
  5
D5B1
  8
0
 10
4705.5175707969456198
 20
202.8482462229526107
 30
0.0
 40
0.169288101022675
 50
57.2267824867101282
 51
92.346435197560595
  0
LINE
  5
D5B2
  8
0
 10
4705.6092090250485853
 20
202.9905869982000866
 30
0.0
 11
4705.2304799856938189
 21
200.6578974305656118
 31
0.0
  0
ARC
  5
D5B3
  8
0
 10
4708.5051315648106538
 20
200.0361134414013122
 30
0.0
 40
3.3331604062484521
 50
169.2487847210620089
 51
176.9581557076438969
  0
ARC
  5
D5B4
  8
0
 10
4697.6117378128037672
 20
199.2578846375290027
 30
0.0
 40
7.624984157365728
 50
7.1957579615432818
 51
18.5411289435733586
  0
ARC
  5
D5B5
  8
0
 10
4705.5001049470938597
 20
202.3826626493656988
 30
0.0
 40
0.1720000000000152
 50
0.0000244173322264
 51
77.3553903694090934
  0
LINE
  5
D5B6
  8
0
 10
4705.6721049470952494
 20
202.3826627226656001
 30
0.0
 11
4705.6721049470952494
 21
202.1851513462657124
 31
0.0
  0
ARC
  5
D5B7
  8
0
 10
4705.5001234290766661
 20
202.1851408881182124
 30
0.0
 40
0.1719815183366329
 50
271.1191307826650814
 51
0.0034841401436311
  0
LINE
  5
D5B8
  8
0
 10
4705.5034824473950721
 20
202.0131921758656972
 30
0.0
 11
4705.4502153816265491
 21
202.0113042530335008
 31
0.0
  0
ARC
  5
D5B9
  8
0
 10
4706.2801699305282455
 20
202.1410813289083137
 30
0.0
 40
1.510506147090793
 50
186.0502550718950943
 51
197.6729227407618907
  0
ARC
  5
D5BA
  8
0
 10
4704.8069886406228761
 20
201.9765508156359886
 30
0.0
 40
0.0293968505442368
 50
100.7002844077903063
 51
169.5695579810941069
  0
LINE
  5
D5BB
  8
0
 10
4704.801530483496208
 20
202.0054365100656923
 30
0.0
 11
4705.0447228067951073
 21
202.0138767579655905
 31
0.0
  0
ARC
  5
D5BC
  8
0
 10
4705.0756161181916468
 20
202.135358052583797
 30
0.0
 40
0.1145270139637005
 50
287.3188471782411284
 51
26.1021251670478804
  0
LINE
  5
D5BD
  8
0
 10
4705.1784626659964488
 20
202.1857467867656908
 30
0.0
 11
4705.1151785091951751
 21
202.3620526880656882
 31
0.0
  0
ARC
  5
D5BE
  8
0
 10
4704.8272659666718027
 20
202.1948574769679112
 30
0.0
 40
0.3329382386517168
 50
30.1443897469649613
 51
91.4389134274283037
  0
LINE
  5
D5BF
  8
0
 10
4704.8189055088951136
 20
202.5276907287656059
 30
0.0
 11
4704.4286967742964407
 21
202.5338438730655923
 31
0.0
  0
ARC
  5
D5C0
  8
0
 10
4704.4328678806969037
 20
202.6164011392691009
 30
0.0
 40
0.0826625691084372
 50
196.677204561941295
 51
267.1076591506881073
  0
LINE
  5
D5C1
  8
0
 10
4704.3536823344938966
 20
202.5926786684655951
 30
0.0
 11
4704.3245182419950652
 21
202.6504823853655921
 31
0.0
  0
ARC
  5
D5C2
  8
0
 10
4704.4282066057530756
 20
202.706954958731302
 30
0.0
 40
0.1180695910111355
 50
128.6918466050499035
 51
208.5743691837897131
  0
ARC
  5
D5C3
  8
0
 10
4704.797961502268663
 20
202.1547468332441895
 30
0.0
 40
0.7822746148413735
 50
99.1665721482523566
 51
124.5425549829997038
  0
ARC
  5
D5C4
  8
0
 10
4705.707952643225326
 20
197.3974287841579098
 30
0.0
 40
5.62555999532748
 50
93.7124346383129989
 51
100.5977435022284965
  0
ARC
  5
D5C5
  8
0
 10
4706.2906536780628812
 20
199.2000849691964959
 30
0.0
 40
3.8512689398433539
 50
93.5588268504473035
 51
100.1915909636057052
  0
ARC
  5
D5C6
  8
0
 10
4706.2322867098628194
 20
200.8349050363804906
 30
0.0
 40
2.216399960443741
 50
92.1053131987565905
 51
94.6762783268183057
  0
ARC
  5
D5C7
  8
0
 10
4705.2914224249725521
 20
200.4274309254963953
 30
0.0
 40
0.0246361058409653
 50
23.2428421691544393
 51
79.5173489161935123
  0
ARC
  5
D5C8
  8
0
 10
4705.2416158060950693
 20
200.4160223655169091
 30
0.0
 40
0.0754621316741892
 50
336.819551310946224
 51
16.2612223856912586
  0
ARC
  5
D5C9
  8
0
 10
4705.0661544735603457
 20
200.4702236255841115
 30
0.0
 40
0.2588097834494583
 50
332.5914921945581
 51
341.0830835155147724
  0
ARC
  5
D5CA
  8
0
 10
4705.0405064344449784
 20
202.2163544910588939
 30
0.0
 40
0.2025216289544032
 50
271.1929481171346765
 51
289.9809225979308849
  0
ARC
  5
D5CB
  8
0
 10
4715.2159353731476585
 20
200.7039063095226936
 30
0.0
 40
13.4342626364491906
 50
173.1659403220494085
 51
174.330572631073295
  0
LINE
  5
D5CC
  8
0
 10
4701.8771238846120468
 20
202.302505902409905
 30
0.0
 11
4702.3859335508950608
 21
202.2991475201656044
 31
0.0
  0
ARC
  5
D5CD
  8
0
 10
4702.4444585805522365
 20
203.0005405301376982
 30
0.0
 40
0.703830472155096
 50
265.230224313800079
 51
274.4831105173309993
  0
LINE
  5
D5CE
  8
0
 10
4702.2923650181273842
 20
186.7645333429657057
 30
0.0
 11
4705.2969157539537264
 21
186.76439710085819
 31
0.0
  0
LINE
  5
D5CF
  8
0
 10
4702.2923667428940462
 20
186.7513019638894889
 30
0.0
 11
4705.2969167222099713
 21
186.7512896771081898
 31
0.0
  0
ARC
  5
D5D0
  8
0
 10
4704.5505947734582151
 20
203.136145564496104
 30
0.0
 40
0.1795422537926843
 50
202.9131839100458876
 51
250.1133979822994888
  0
LINE
  5
D5D1
  8
0
 10
4701.84182385139502
 20
204.002171522954086
 30
0.0
 11
4701.84182385139502
 21
203.9362255440657066
 31
0.0
  0
ARC
  5
D5D2
  8
0
 10
4705.270176529427772
 20
192.3131520689289005
 30
0.0
 40
0.5015013749160332
 50
98.6923394878661639
 51
118.4259663099036004
  0
LINE
  5
D5D3
  8
0
 10
4705.1943853005950587
 20
192.8088932500656938
 30
0.0
 11
4705.8279777002953779
 21
192.8197559856656085
 31
0.0
  0
ARC
  5
D5D4
  8
0
 10
4705.8262166071335741
 20
192.7688905886157045
 30
0.0
 40
0.0508958747461424
 50
271.9829377505329262
 51
359.0140903194773045
  0
ARC
  5
D5D5
  8
0
 10
4705.8262166071335741
 20
192.7688905886157045
 30
0.0
 40
0.0508958747461424
 50
0.9859096805226254
 51
88.0170622494671306
  0
ARC
  5
D5D6
  8
0
 10
4705.2476076911161726
 20
193.1901514107001105
 30
0.0
 40
0.4866079295131782
 50
243.6270430674707939
 51
263.4121841409940998
  0
LINE
  5
D5D7
  8
0
 10
4705.1917811565954253
 20
192.7067564633655934
 30
0.0
 11
4705.8279777002953779
 21
192.7180251915656015
 31
0.0
  0
ARC
  5
D5D8
  8
0
 10
4705.6615384586111759
 20
192.8512511810754972
 30
0.0
 40
0.0344659589253655
 50
182.4863744700583084
 51
266.1547447402505782
  0
ARC
  5
D5D9
  8
0
 10
4705.662373180580289
 20
192.679827319306014
 30
0.0
 40
0.035337569163246
 50
94.8350557297821837
 51
176.410212711857298
  0
ARC
  5
D5DA
  8
0
 10
4705.3383456784431473
 20
192.6677172692949966
 30
0.0
 40
0.0422195699385176
 50
100.6116442300535994
 51
172.5840085257684109
  0
ARC
  5
D5DB
  8
0
 10
4705.3409396921133521
 20
192.8537409979743131
 30
0.0
 40
0.0449693639962028
 50
188.5184516160911983
 51
251.2503769774976092
  0
ARC
  5
D5DC
  8
0
 10
4681.5402152020969879
 20
174.3306640320654992
 30
0.0
 40
0.7305957651021524
 50
176.5234441221060138
 51
180.07204206838
  0
ARC
  5
D5DD
  8
0
 10
4683.0664924353950482
 20
174.1727517155333942
 30
0.0
 40
2.2645749980587739
 50
166.9562373719109871
 51
174.876936847140513
  0
ARC
  5
D5DE
  8
0
 10
4678.6107526413106825
 20
174.163182221916486
 30
0.0
 40
2.3090648068030291
 50
5.2622807146021051
 51
13.0317498784906096
  0
ARC
  5
D5DF
  8
0
 10
4680.1685025209226296
 20
174.3284031276535018
 30
0.0
 40
0.7430427756167358
 50
0.1035023942706637
 51
3.5922012794361482
  0
ARC
  5
D5E0
  8
0
 10
4686.9582152021976071
 20
174.3306640318656093
 30
0.0
 40
0.7305957651021524
 50
176.5234441221060138
 51
180.0720420526949113
  0
ARC
  5
D5E1
  8
0
 10
4688.4844924354938485
 20
174.1727517153333906
 30
0.0
 40
2.2645749980587739
 50
166.9562373719109871
 51
174.876936847140513
  0
ARC
  5
D5E2
  8
0
 10
4684.0287526414113017
 20
174.1631822217163972
 30
0.0
 40
2.3090648068030291
 50
5.2622807146021051
 51
13.0317498784906096
  0
ARC
  5
D5E3
  8
0
 10
4685.5865025210232488
 20
174.3284031274536119
 30
0.0
 40
0.7430427756167358
 50
0.1035024096887463
 51
3.5922012794361482
  0
ARC
  5
D5E4
  8
0
 10
4692.3663717786239431
 20
174.329290377247986
 30
0.0
 40
0.7206598982964277
 50
176.3718139599500887
 51
179.9638234219142987
  0
ARC
  5
D5E5
  8
0
 10
4693.9316153008539914
 20
174.156890789453314
 30
0.0
 40
2.2948374108186989
 50
166.9823604726873896
 51
174.5488191600186951
  0
ARC
  5
D5E6
  8
0
 10
4689.271821535196068
 20
174.1154540553849017
 30
0.0
 40
2.4874086999515308
 50
5.9847885389792541
 51
12.9717750360507207
  0
ARC
  5
D5E7
  8
0
 10
4691.0249612641227941
 20
174.3254793518889869
 30
0.0
 40
0.7223973991115868
 50
0.3383568338420626
 51
3.9150147824937789
  0
ARC
  5
D5E8
  8
0
 10
4697.7843817487710112
 20
174.3292900392985985
 30
0.0
 40
0.7206698698471071
 50
176.3718373064434104
 51
179.9637970543001018
  0
ARC
  5
D5E9
  8
0
 10
4699.3027885814753972
 20
174.1634531823968075
 30
0.0
 40
2.2476000200812831
 50
166.9412760949728067
 51
174.6019518323064119
  0
ARC
  5
D5EA
  8
0
 10
4694.9298535163752604
 20
174.1479167037196021
 30
0.0
 40
2.2453120207623671
 50
5.7995554447461322
 51
13.4796128022088002
  0
ARC
  5
D5EB
  8
0
 10
4696.4437680859673492
 20
174.3255124758115926
 30
0.0
 40
0.7215901987932487
 50
0.3361051833209152
 51
3.9167648476538148
  0
ARC
  5
D5EC
  8
0
 10
4726.0033302178253507
 20
167.387563065706388
 30
0.0
 40
22.2634872663122607
 50
161.529064748822492
 51
161.8311030439014075
  0
ARC
  5
D5ED
  8
0
 10
4705.406293012975766
 20
174.5099054664125049
 30
0.0
 40
0.4786762131778794
 50
166.289451735024187
 51
202.1091027023508104
  0
ARC
  5
D5EE
  8
0
 10
4705.5054577763730776
 20
174.355348177000792
 30
0.0
 40
0.6246226195029904
 50
154.5909514722555969
 51
172.1036042172418945
  0
ARC
  5
D5EF
  8
0
 10
4689.6181969084564116
 20
225.3329627308816896
 30
0.0
 40
2.1669321562617361
 50
161.3203811616720031
 51
165.9511514606228957
  0
ARC
  5
D5F0
  8
0
 10
4686.2196151243651911
 20
225.58030568577189
 30
0.0
 40
1.4179843719718499
 50
11.5271567252293696
 51
18.3611712720068283
  0
ARC
  5
D5F1
  8
0
 10
4687.768354594792072
 20
225.8034331161740909
 30
0.0
 40
0.2583186246597248
 50
167.5817850439323138
 51
178.681236186833587
  0
ARC
  5
D5F2
  8
0
 10
4687.3331305975243595
 20
225.8183816095192924
 30
0.0
 40
0.2795601711783449
 50
1.797320146186157
 51
9.3218617771281291
  0
LINE
  5
D5F3
  8
0
 10
4687.5101043920631128
 20
225.8093782517385932
 30
0.0
 11
4687.5100732665951
 21
222.8360261733656955
 31
0.0
  0
LINE
  5
D5F4
  8
0
 10
4687.6125532330452188
 20
225.8271497374819035
 30
0.0
 11
4687.6126855435941252
 21
222.8339718356656078
 31
0.0
  0
ARC
  5
D5F5
  8
0
 10
4687.8028893184482513
 20
222.8430902719235007
 30
0.0
 40
0.292901249077602
 50
181.381975263967206
 51
210.6858011598835958
  0
ARC
  5
D5F6
  8
0
 10
4687.3201935023889746
 20
222.8441704033174915
 30
0.0
 40
0.2926697882441622
 50
329.0174641535558067
 51
358.003028565335228
  0
ARC
  5
D5F7
  8
0
 10
4687.5610886525782917
 20
222.7004208601944981
 30
0.0
 40
0.0121698182725353
 50
214.008819758316605
 51
325.4027853318430061
  0
LINE
  5
D5F8
  8
0
 10
4681.1960046404947207
 20
230.2321029880656909
 30
0.0
 11
4681.191753123494891
 21
229.2948730471655949
 31
0.0
  0
LINE
  5
D5F9
  8
0
 10
4681.2993989006763513
 20
230.2328679346429112
 30
0.0
 11
4681.2941952939354451
 21
229.2927266534072999
 31
0.0
  0
ARC
  5
D5FA
  8
0
 10
4682.5862068097148949
 20
229.3961608059424009
 30
0.0
 40
1.398127423767805
 50
184.1544492578645134
 51
196.0737059918187128
  0
ARC
  5
D5FB
  8
0
 10
4679.859450889081927
 20
229.4064873483418978
 30
0.0
 40
1.4392473737926861
 50
343.9701415540592961
 51
355.4665098194681718
  0
ARC
  5
D5FC
  8
0
 10
4681.1432101075979517
 20
230.2213061310829119
 30
0.0
 40
0.0538872417602845
 50
11.5580216464799701
 51
76.2742185587004116
  0
ARC
  5
D5FD
  8
0
 10
4681.3551877338650229
 20
230.2169176526282968
 30
0.0
 40
0.0580241794856962
 50
102.0916940966637014
 51
164.044525280062004
  0
LINE
  5
D5FE
  8
0
 10
4687.9686902562953037
 20
230.229753220265593
 30
0.0
 11
4687.9644658232982692
 21
229.2948096037495986
 31
0.0
  0
LINE
  5
D5FF
  8
0
 10
4688.072082571795363
 20
230.2305314999657071
 30
0.0
 11
4688.0668654663950292
 21
229.2926007047655901
 31
0.0
  0
ARC
  5
D600
  8
0
 10
4689.2826769949479058
 20
229.3911736720723979
 30
0.0
 40
1.3217286887741919
 50
184.1810074820857892
 51
196.385876281608887
  0
ARC
  5
D601
  8
0
 10
4686.7604987809427257
 20
229.3992500303585018
 30
0.0
 40
1.3107127814705739
 50
343.1038598956621968
 51
355.3328302360981183
  0
ARC
  5
D602
  8
0
 10
4687.9199950475658625
 20
230.2252415280441085
 30
0.0
 40
0.0489037699953605
 50
5.2934370805866138
 51
81.8756571827666733
  0
ARC
  5
D603
  8
0
 10
4688.1213164135560874
 20
230.224618037807403
 30
0.0
 40
0.0495877021978002
 50
98.5512569788690058
 51
173.1510303219029083
  0
LINE
  5
D604
  8
0
 10
4694.7413788007952462
 20
230.2274035264657073
 30
0.0
 11
4694.7371657209941986
 21
229.2948117979655933
 31
0.0
  0
LINE
  5
D605
  8
0
 10
4694.8447711144954155
 20
230.228181806165594
 30
0.0
 11
4694.8395654663945606
 21
229.2926007047655901
 31
0.0
  0
ARC
  5
D606
  8
0
 10
4696.0418737207501181
 20
229.3891935641927091
 30
0.0
 40
1.3081173045361201
 50
184.1375339234336934
 51
196.4550656829993045
  0
ARC
  5
D607
  8
0
 10
4693.5423856072147828
 20
229.3979690111407024
 30
0.0
 40
1.3014522915000051
 50
343.0548095083690896
 51
355.356130780421779
  0
ARC
  5
D608
  8
0
 10
4694.6915665555216037
 20
230.2243858411513031
 30
0.0
 40
0.0499035690494542
 50
3.4668097420639872
 51
80.8505590571566159
  0
ARC
  5
D609
  8
0
 10
4694.8933752202092364
 20
230.2254564987487981
 30
0.0
 40
0.0486804518537202
 50
98.073329167381786
 51
176.7906975373167882
  0
ARC
  5
D60A
  8
0
 10
4700.0098367148293619
 20
221.1042000412662958
 30
0.0
 40
2.6506199383449962
 50
168.3522367395976005
 51
177.1226903973241917
  0
ARC
  5
D60B
  8
0
 10
4694.8537826931378731
 20
221.1121473562996869
 30
0.0
 40
2.6137382618854512
 50
2.7985532005272029
 51
11.6365477029495796
  0
LINE
  5
D60C
  8
0
 10
4697.3625583738330533
 20
221.2372543265954903
 30
0.0
 11
4697.3626238300948899
 21
208.7772454021655903
 31
0.0
  0
LINE
  5
D60D
  8
0
 10
4697.4644037337939153
 20
221.2397619468655989
 30
0.0
 11
4697.4643408267957057
 21
208.7772454021655903
 31
0.0
  0
LINE
  5
D60E
  8
0
 10
4697.4643403131658488
 20
208.6754901474600956
 30
0.0
 11
4697.4642538928446811
 21
191.5547454036588988
 31
0.0
  0
ARC
  5
D60F
  8
0
 10
4703.0602231480206683
 20
183.4985945006374095
 30
0.0
 40
2.7011765323364738
 50
183.0035478457257909
 51
191.4637427795047984
  0
ARC
  5
D610
  8
0
 10
4698.0644974503402409
 20
183.4681425769956036
 30
0.0
 40
2.4024139424998441
 50
347.8314426626042177
 51
357.3890479205882116
  0
ARC
  5
D611
  8
0
 10
4703.7783750124035578
 20
220.9525516880900966
 30
0.0
 40
3.4325898016549119
 50
168.502570527233388
 51
172.5738431323028124
  0
ARC
  5
D612
  8
0
 10
4694.9627409151908068
 20
220.648204720231405
 30
0.0
 40
5.5408206698410307
 50
7.8126617190839154
 51
10.2772296485158297
  0
ARC
  5
D613
  8
0
 10
4701.6688260649316362
 20
221.218415158112208
 30
0.0
 40
1.3064039521064259
 50
172.1781499824595869
 51
179.1722725815006072
  0
ARC
  5
D614
  8
0
 10
4699.139965326856327
 20
221.2204794225768012
 30
0.0
 40
1.32457838770848
 50
0.8326640765384498
 51
7.8501307551115662
  0
LINE
  5
D615
  8
0
 10
4700.3625584358951528
 20
221.2372875561657111
 30
0.0
 11
4700.3626238300948899
 21
208.7772454021655903
 31
0.0
  0
LINE
  5
D616
  8
0
 10
4700.3626243635608262
 20
208.6756002041497879
 30
0.0
 11
4700.3627142191626263
 21
191.5547454038471926
 31
0.0
  0
LINE
  5
D617
  8
0
 10
4700.3627147526303816
 20
191.4531000415165067
 30
0.0
 11
4700.3627572431878434
 21
183.3570588121893934
 31
0.0
  0
LINE
  5
D618
  8
0
 10
4700.4644038413962335
 20
221.2397284846657044
 30
0.0
 11
4700.4643431199938277
 21
208.7772454021655903
 31
0.0
  0
LINE
  5
D619
  8
0
 10
4700.4644173998676706
 20
183.3587031555157978
 30
0.0
 11
4700.464392385991232
 21
191.4531039235810113
 31
0.0
  0
LINE
  5
D61A
  8
0
 10
4701.1948411351895629
 20
191.4531318122035941
 30
0.0
 11
4700.464392385991232
 21
191.4531039235810113
 31
0.0
  0
LINE
  5
D61B
  8
0
 10
4700.3627147526303816
 20
191.4531000415165067
 30
0.0
 11
4674.481055295474107
 21
191.4521118765877077
 31
0.0
  0
ARC
  5
D61C
  8
0
 10
4674.4909631546543096
 20
191.4047729394368105
 30
0.0
 40
0.0483646631758728
 50
101.8211515461011061
 51
178.6618930967163976
  0
LINE
  5
D61D
  8
0
 10
4701.1948423457706667
 20
191.5547454039011939
 30
0.0
 11
4700.4643408267938867
 21
191.5547454038537865
 31
0.0
  0
LINE
  5
D61E
  8
0
 10
4700.3627142191626263
 20
191.5547454038471926
 30
0.0
 11
4697.4642538928446811
 21
191.5547454036588988
 31
0.0
  0
LINE
  5
D61F
  8
0
 10
4697.3626238300948899
 20
191.554745403652305
 30
0.0
 11
4674.4819774056868482
 21
191.5547454021655938
 31
0.0
  0
ARC
  5
D620
  8
0
 10
4674.4933325912197688
 20
191.6042272134102973
 30
0.0
 40
0.0507680005766183
 50
182.4678647530323872
 51
257.0754261617829002
  0
LINE
  5
D621
  8
0
 10
4701.1949883708302877
 20
208.6756318115513125
 30
0.0
 11
4700.4643391638392131
 21
208.6756040665711112
 31
0.0
  0
LINE
  5
D622
  8
0
 10
4700.3626243635608262
 20
208.6756002041497879
 30
0.0
 11
4698.0341268453721568
 21
208.6755117839931017
 31
0.0
  0
LINE
  5
D623
  8
0
 10
4698.0341268453721568
 20
208.675511783993386
 30
0.0
 11
4697.4643403131658488
 21
208.6754901474600103
 31
0.0
  0
LINE
  5
D624
  8
0
 10
4697.3626238300948899
 20
208.6754862849747951
 30
0.0
 11
4674.4810493272952954
 21
208.6746174017656017
 31
0.0
  0
ARC
  5
D625
  8
0
 10
4674.4964437899361656
 20
208.62212681623609
 30
0.0
 40
0.0547014720940828
 50
106.3453816712905962
 51
169.7735297645531034
  0
LINE
  5
D626
  8
0
 10
4701.1949895808929796
 20
208.7772454021655903
 30
0.0
 11
4700.4643431199938277
 21
208.7772454021655903
 31
0.0
  0
LINE
  5
D627
  8
0
 10
4700.3626238300948899
 20
208.7772454021655903
 30
0.0
 11
4697.4643408267957057
 21
208.7772454021655903
 31
0.0
  0
LINE
  5
D628
  8
0
 10
4697.3626238300948899
 20
208.7772454021655903
 30
0.0
 11
4674.4821246408091611
 21
208.7772454021655903
 31
0.0
  0
ARC
  5
D629
  8
0
 10
4674.4878007221032021
 20
208.8223130348644077
 30
0.0
 40
0.0454236658137729
 50
185.8214939024821035
 51
262.8216304206785026
  0
LINE
  5
D62A
  8
0
 10
4697.3626238300948899
 20
208.6754862849747951
 30
0.0
 11
4697.3626238300948899
 21
191.554745403652305
 31
0.0
  0
LINE
  5
D62B
  8
0
 10
4700.4643391638392131
 20
208.6756040665711112
 30
0.0
 11
4700.4643408267938867
 21
191.5547454038537865
 31
0.0
  0
ARC
  5
D62C
  8
0
 10
4687.3473970376644502
 20
215.0037422976930088
 30
0.0
 40
0.8886932265664524
 50
158.7005313381557983
 51
171.0177486850494972
  0
ARC
  5
D62D
  8
0
 10
4685.6687193012703574
 20
214.9949989991503116
 30
0.0
 40
0.9130152673278267
 50
9.2920730802303151
 51
21.2933056187532195
  0
ARC
  5
D62E
  8
0
 10
4686.8578076103467538
 20
215.1093939322352071
 30
0.0
 40
0.3896139897145329
 50
175.1267033170890102
 51
182.2096874624226075
  0
ARC
  5
D62F
  8
0
 10
4686.0097343032521167
 20
215.0971305237532931
 30
0.0
 40
0.5618481497789515
 50
359.7227087861626842
 51
4.6236288386940663
  0
LINE
  5
D630
  8
0
 10
4686.4684833330802576
 20
215.0943716783505977
 30
0.0
 11
4686.4683609685689589
 21
214.6272453996976139
 31
0.0
  0
LINE
  5
D631
  8
0
 10
4686.4683337538281194
 20
214.5233531819060033
 30
0.0
 11
4686.4679494964802871
 21
213.0564515164520003
 31
0.0
  0
LINE
  5
D632
  8
0
 10
4686.5715758731948881
 20
215.0944113889657103
 30
0.0
 11
4686.5717089624240543
 21
214.6272453998886078
 31
0.0
  0
LINE
  5
D633
  8
0
 10
4686.5717385798006944
 20
214.5232833336837928
 30
0.0
 11
4686.5721564621826474
 21
213.0564445984799988
 31
0.0
  0
ARC
  5
D634
  8
0
 10
4686.8977814659292562
 20
213.0531814012176994
 30
0.0
 40
0.4298444086102546
 50
179.5641083027500997
 51
199.6360116663067004
  0
ARC
  5
D635
  8
0
 10
4686.1330412465285917
 20
213.0593954240756887
 30
0.0
 40
0.4391251302199485
 50
340.1226650350927798
 51
359.6149818957994171
  0
ARC
  5
D636
  8
0
 10
4686.6216712297764388
 20
212.7231083305879906
 30
0.0
 40
1.9563745068865059
 50
70.7704145216773952
 51
76.2241182971326765
  0
ARC
  5
D637
  8
0
 10
4686.9679027236707043
 20
215.3850778463842062
 30
0.0
 40
0.867573248505267
 50
277.9928929092081944
 51
290.0971024287123896
  0
ARC
  5
D638
  8
0
 10
4687.0443984903349701
 20
214.3953425471162006
 30
0.0
 40
0.231910981198762
 50
79.2809925487537441
 51
89.5203128886613371
  0
ARC
  5
D639
  8
0
 10
4687.2638724616335821
 20
211.0427073207629007
 30
0.0
 40
3.4876355157901711
 50
92.8816379856688883
 51
93.7264702857657852
  0
LINE
  5
D63A
  8
0
 10
4687.0463400540938892
 20
214.6272454007657018
 30
0.0
 11
4686.5717089624240543
 21
214.6272453998886078
 31
0.0
  0
LINE
  5
D63B
  8
0
 10
4686.4683609685689589
 20
214.6272453996976139
 30
0.0
 11
4684.9925476249281928
 21
214.6272453969702099
 31
0.0
  0
LINE
  5
D63C
  8
0
 10
4687.0371994085953702
 20
214.5229689227157905
 30
0.0
 11
4686.5717385798006944
 21
214.5232833336837928
 31
0.0
  0
LINE
  5
D63D
  8
0
 10
4686.4683337538281194
 20
214.5233531819060033
 30
0.0
 11
4685.0029648845402335
 21
214.5243430139526026
 31
0.0
  0
ARC
  5
D63E
  8
0
 10
4685.0257883636304541
 20
214.1446678806154864
 30
0.0
 40
0.4837210001650283
 50
93.9404040783512642
 51
108.7560956704573982
  0
ARC
  5
D63F
  8
0
 10
4684.9809616631073368
 20
214.8009487410025997
 30
0.0
 40
0.2774794947204015
 50
244.9417961703362892
 51
274.548143916233812
  0
ARC
  5
D640
  8
0
 10
4699.2004854549040829
 20
184.8065918089029935
 30
0.0
 40
0.8886932265664524
 50
68.7005313381666269
 51
81.0177486850360964
  0
ARC
  5
D641
  8
0
 10
4699.1917421563612152
 20
186.4852695452968874
 30
0.0
 40
0.9130152673278267
 50
279.2920730802136973
 51
291.2933056187658849
  0
ARC
  5
D642
  8
0
 10
4699.3061370894456559
 20
185.2961812362198089
 30
0.0
 40
0.3896139897145329
 50
85.1267033170872622
 51
92.2096874624227638
  0
ARC
  5
D643
  8
0
 10
4699.2938736809637703
 20
186.1442545433149007
 30
0.0
 40
0.5618481497789515
 50
269.7227087861433006
 51
274.6236288386609772
  0
LINE
  5
D644
  8
0
 10
4699.2911148355624391
 20
185.685505513486703
 30
0.0
 11
4698.8239885569091712
 21
185.685627877997689
 31
0.0
  0
LINE
  5
D645
  8
0
 10
4698.7200963391178448
 20
185.6856550927381875
 30
0.0
 11
4697.2531946736626196
 21
185.6860393500857924
 31
0.0
  0
LINE
  5
D646
  8
0
 10
4699.2911545461756759
 20
185.5824129733719019
 30
0.0
 11
4698.8239885571010745
 21
185.5822798841427073
 31
0.0
  0
LINE
  5
D647
  8
0
 10
4698.7200264908951794
 20
185.5822502667656124
 30
0.0
 11
4697.2531877556903055
 21
185.581832384383091
 31
0.0
  0
ARC
  5
D648
  8
0
 10
4697.2499245584285745
 20
185.2562073806373917
 30
0.0
 40
0.4298444086102546
 50
89.5641083027174858
 51
110.2849164868300988
  0
ARC
  5
D649
  8
0
 10
4697.2561385812869048
 20
186.0209476000372888
 30
0.0
 40
0.4391251302199485
 50
250.7712039180478882
 51
269.6149818958319884
  0
ARC
  5
D64A
  8
0
 10
4696.9198514877980415
 20
185.532317616790607
 30
0.0
 40
1.9563745068865059
 50
340.7704145217155087
 51
346.2241182971171156
  0
ARC
  5
D64B
  8
0
 10
4699.5818210035959055
 20
185.1860861228954036
 30
0.0
 40
0.867573248505267
 50
187.9928929092106955
 51
200.09710242868411
  0
ARC
  5
D64C
  8
0
 10
4698.5920857043265642
 20
185.1095903562317062
 30
0.0
 40
0.231910981198762
 50
349.2809925487326268
 51
359.5203128886677177
  0
ARC
  5
D64D
  8
0
 10
4695.2394504779731506
 20
184.8901163849320142
 30
0.0
 40
3.4876355157901711
 50
2.881637985650034
 51
3.7264702857654788
  0
LINE
  5
D64E
  8
0
 10
4698.8239885579769179
 20
185.1076487924719061
 30
0.0
 11
4698.8239885571010745
 21
185.5822798841427073
 31
0.0
  0
LINE
  5
D64F
  8
0
 10
4698.8239885569091712
 20
185.685627877997689
 30
0.0
 11
4698.8239885541806871
 21
187.1614412216389951
 31
0.0
  0
LINE
  5
D650
  8
0
 10
4698.7197120799273762
 20
185.1167894379717893
 30
0.0
 11
4698.7200264908951794
 21
185.5822502667656124
 31
0.0
  0
LINE
  5
D651
  8
0
 10
4698.7200963391178448
 20
185.6856550927381875
 30
0.0
 11
4698.7210861711637335
 21
187.1510239620266987
 31
0.0
  0
ARC
  5
D652
  8
0
 10
4698.3414110378262194
 20
187.1282004829361085
 30
0.0
 40
0.4837210001650283
 50
3.940404078339121
 51
20.1885354393761816
  0
ARC
  5
D653
  8
0
 10
4698.9976918982129064
 20
187.1730271834593111
 30
0.0
 40
0.2774794947204015
 50
156.9613371991231077
 51
184.5481439162074082
  0
ARC
  5
D654
  8
0
 10
4687.3466288927111236
 20
197.7800421872682932
 30
0.0
 40
0.8886932265664524
 50
158.7005313381557983
 51
171.0177486850494972
  0
ARC
  5
D655
  8
0
 10
4685.6679511563161213
 20
197.771298888725795
 30
0.0
 40
0.9130152673278267
 50
9.2920730802303151
 51
21.2933056187532195
  0
ARC
  5
D656
  8
0
 10
4686.8570394653934272
 20
197.8856938218106052
 30
0.0
 40
0.3896139897145329
 50
175.1267033170890102
 51
182.2096874624226075
  0
ARC
  5
D657
  8
0
 10
4686.0089661582987901
 20
197.8734304133288049
 30
0.0
 40
0.5618481497789515
 50
359.7227087861626842
 51
4.6236288387005571
  0
LINE
  5
D658
  8
0
 10
4686.4677151881260215
 20
197.8706715679261094
 30
0.0
 11
4686.4675928236156324
 21
197.403545289273012
 31
0.0
  0
LINE
  5
D659
  8
0
 10
4686.4675656088738833
 20
197.2996530714814867
 30
0.0
 11
4686.4671813515269605
 21
195.8327514060273131
 31
0.0
  0
LINE
  5
D65A
  8
0
 10
4686.5708077282406521
 20
197.8707112785411084
 30
0.0
 11
4686.5709408174698183
 21
197.4035452894638922
 31
0.0
  0
LINE
  5
D65B
  8
0
 10
4686.5709704348473679
 20
197.2995832232591908
 30
0.0
 11
4686.5713883172302303
 21
195.8327444880553116
 31
0.0
  0
ARC
  5
D65C
  8
0
 10
4686.8970133209750202
 20
195.8294812907930975
 30
0.0
 40
0.4298444086102546
 50
179.5641083027500997
 51
199.9384510469859038
  0
ARC
  5
D65D
  8
0
 10
4686.1322731015761747
 20
195.8356953136510867
 30
0.0
 40
0.4391251302199485
 50
340.4326940519940763
 51
359.6149818957994171
  0
ARC
  5
D65E
  8
0
 10
4686.6209030848231123
 20
195.4994082201633887
 30
0.0
 40
1.9563745068865059
 50
70.7704145216773952
 51
76.2241182971326765
  0
ARC
  5
D65F
  8
0
 10
4686.9671345787182872
 20
198.1613777359596043
 30
0.0
 40
0.867573248505267
 50
277.9928929092081944
 51
290.0971024287123896
  0
ARC
  5
D660
  8
0
 10
4687.0436303453807341
 20
197.1716424366915987
 30
0.0
 40
0.231910981198762
 50
79.2809925487537441
 51
89.5203128886613371
  0
ARC
  5
D661
  8
0
 10
4687.2631043166811651
 20
193.8190072103384125
 30
0.0
 40
3.4876355157901711
 50
92.8816379856688883
 51
93.7264702857657852
  0
LINE
  5
D662
  8
0
 10
4687.0455719091405626
 20
197.4035452903410999
 30
0.0
 11
4686.5709408174698183
 21
197.4035452894638922
 31
0.0
  0
LINE
  5
D663
  8
0
 10
4686.4675928236156324
 20
197.403545289273012
 30
0.0
 11
4684.9917794799739568
 21
197.4035452865456932
 31
0.0
  0
LINE
  5
D664
  8
0
 10
4687.0364312636411341
 20
197.2992688122911886
 30
0.0
 11
4686.5709704348473679
 21
197.2995832232591908
 31
0.0
  0
LINE
  5
D665
  8
0
 10
4686.4675656088738833
 20
197.2996530714814867
 30
0.0
 11
4685.0021967395869069
 21
197.3006429035280007
 31
0.0
  0
ARC
  5
D666
  8
0
 10
4685.0250202186762181
 20
196.9209677701909129
 30
0.0
 40
0.4837210001650283
 50
93.9404040783512642
 51
108.3066990682660986
  0
ARC
  5
D667
  8
0
 10
4684.9801935181531007
 20
197.5772486305779978
 30
0.0
 40
0.2774794947204015
 50
244.3442308360025095
 51
274.548143916233812
  0
ARC
  5
D668
  8
0
 10
4688.0234499997741295
 20
180.3083110401572924
 30
0.0
 40
0.8047619161885107
 50
23.3956815285692485
 51
38.4205509935221201
  0
ARC
  5
D669
  8
0
 10
4689.0954904536911272
 20
181.3926418143155104
 30
0.0
 40
0.8343066622695117
 50
232.1365261047590991
 51
246.4428205108939096
  0
LINE
  5
D66A
  8
0
 10
4688.6539573108293553
 20
180.8084133021546904
 30
0.0
 11
4687.6346850411173364
 21
181.8279527711366086
 31
0.0
  0
LINE
  5
D66B
  8
0
 10
4687.561477111914428
 20
181.901179891585997
 30
0.0
 11
4686.5604339557448839
 21
182.9024854683156889
 31
0.0
  0
LINE
  5
D66C
  8
0
 10
4688.5834080138947684
 20
180.7339771184655888
 30
0.0
 11
4687.5616939641040517
 21
181.7548485038209094
 31
0.0
  0
LINE
  5
D66D
  8
0
 10
4687.4883865052815963
 20
181.8280955019023963
 30
0.0
 11
4686.4869430846247269
 21
182.8287129764391921
 31
0.0
  0
ARC
  5
D66E
  8
0
 10
4686.1028153806773844
 20
182.4074945187834089
 30
0.0
 40
0.6741148272850264
 50
47.2466516717819971
 51
67.6755501536345179
  0
ARC
  5
D66F
  8
0
 10
4687.0111651974739289
 20
183.3021594654875912
 30
0.0
 40
0.7063712915967663
 50
202.5667392389808015
 51
222.0864864526126894
  0
ARC
  5
D670
  8
0
 10
4689.0723042262052331
 20
182.3136000092534061
 30
0.0
 40
0.7810626513671521
 50
113.3369150529374991
 51
128.8927084402697858
  0
ARC
  5
D671
  8
0
 10
4687.9806790896318489
 20
183.3722166859189997
 30
0.0
 40
0.8534945843435737
 50
322.5051471811395913
 51
336.4178752374759824
  0
LINE
  5
D672
  8
0
 10
4688.5819030962938996
 20
182.9215190804657141
 30
0.0
 11
4687.561477111914428
 21
181.901179891585997
 31
0.0
  0
LINE
  5
D673
  8
0
 10
4687.4883865052815963
 20
181.8280955019023963
 30
0.0
 11
4686.4789967823171537
 21
180.8187916357157121
 31
0.0
  0
LINE
  5
D674
  8
0
 10
4688.6578485424251994
 20
182.8527029346990105
 30
0.0
 11
4687.6346850411173364
 21
181.8279527711366086
 31
0.0
  0
LINE
  5
D675
  8
0
 10
4687.5616939641040517
 20
181.7548485038209094
 30
0.0
 11
4686.5530897653097782
 21
180.7446802204908067
 31
0.0
  0
ARC
  5
D676
  8
0
 10
4686.9511400236287955
 20
180.3707243096314983
 30
0.0
 40
0.6509098009874906
 50
136.4987153501982959
 51
157.858133504464405
  0
ARC
  5
D677
  8
0
 10
4686.0564559092508716
 20
181.3081946530957964
 30
0.0
 40
0.751128286472392
 50
292.8581600108976204
 51
311.3902188490736762
  0
ARC
  5
D678
  8
0
 10
4701.6704593808799473
 20
179.2203535821005005
 30
0.0
 40
0.1769906975210268
 50
274.2078135100323948
 51
1.5243102836221689
  0
LINE
  5
D679
  8
0
 10
4701.6834459316951325
 20
179.0438399664670897
 30
0.0
 11
4701.4695690985727197
 21
179.0326174785706996
 31
0.0
  0
ARC
  5
D67A
  8
0
 10
4701.4716088905379365
 20
178.9878857765583859
 30
0.0
 40
0.0447781857178553
 50
92.6109125826770168
 51
191.0629320166850107
  0
LINE
  5
D67B
  8
0
 10
4701.4276628172947312
 20
178.9792934216656874
 30
0.0
 11
4701.427662817325654
 21
178.6811475426515869
 31
0.0
  0
ARC
  5
D67C
  8
0
 10
4701.691784042332074
 20
178.681042697679004
 30
0.0
 40
0.2641212458156908
 50
179.9772559963203094
 51
201.8284839623904929
  0
LINE
  5
D67D
  8
0
 10
4701.4466000017519036
 20
178.5828346596356937
 30
0.0
 11
4701.741410151738819
 21
177.8803757665353942
 31
0.0
  0
ARC
  5
D67E
  8
0
 10
4700.4860166801272499
 20
177.3537662386079035
 30
0.0
 40
1.3613707663482011
 50
359.9993769532101169
 51
22.7569612334528415
  0
ARC
  5
D67F
  8
0
 10
4701.4457354733913235
 20
178.7879309019020866
 30
0.0
 40
0.0326111239803454
 50
91.9830990871836462
 51
123.6547253249011931
  0
LINE
  5
D680
  8
0
 10
4701.4446069752839321
 20
178.8205224943650933
 30
0.0
 11
4701.6706815496663694
 21
178.8323859926308899
 31
0.0
  0
ARC
  5
D681
  8
0
 10
4701.6390993211007299
 20
179.0278444418534036
 30
0.0
 40
0.1979935416462415
 50
279.1785377307701879
 51
3.710659075359461
  0
LINE
  5
D682
  8
0
 10
4701.8366777882301903
 20
179.0406581790363987
 30
0.0
 11
4701.8470849689401803
 21
179.2089909833040906
 31
0.0
  0
LINE
  5
D683
  8
0
 10
4704.4286967742964407
 20
202.5338438730655923
 30
0.0
 11
4702.645550250155793
 21
202.4684031506859014
 31
0.0
  0
LINE
  5
D684
  8
0
 10
4702.645550250155793
 20
202.4684031506859014
 30
0.0
 11
4702.5698176313553631
 21
202.4697463882791055
 31
0.0
  0
ARC
  5
D685
  8
0
 10
4702.5657309615453414
 20
202.4974855524741884
 30
0.0
 40
0.0280385823531831
 50
186.1440148066587028
 51
278.3808083374897251
  0
ARC
  5
D686
  8
0
 10
4699.4858535383891649
 20
202.6495805596925948
 30
0.0
 40
3.0559381695423031
 50
341.1607148427345919
 51
357.0908570995459854
  0
ARC
  5
D687
  8
0
 10
4702.4903821194493503
 20
202.3841638066718929
 30
0.0
 40
0.085783452892203
 50
276.0837639633652998
 51
291.8061071315739241
  0
ARC
  5
D688
  8
0
 10
8328.1815718178331736
 20
202.6716813827692931
 30
0.0
 40
3625.6437227151559455
 50
179.9971999237208138
 51
180.0028002269623073
  0
LINE
  5
D689
  8
0
 10
4690.779316938381271
 20
174.3297440328740038
 30
0.0
 11
4690.7794199668305737
 21
185.6063208361740067
 31
0.0
  0
LINE
  5
D68A
  8
0
 10
4690.7794204493702637
 20
185.6591353627700016
 30
0.0
 11
4690.7794219861407328
 21
185.8273365479124095
 31
0.0
  0
LINE
  5
D68B
  8
0
 10
4690.7794722368926159
 20
191.3273365479124095
 30
0.0
 11
4690.7794733825885487
 21
191.4527341521869914
 31
0.0
  0
LINE
  5
D68C
  8
0
 10
4690.7794743146141627
 20
191.5547454032245014
 30
0.0
 11
4690.7795474012436898
 21
199.55415717022899
 31
0.0
  0
ARC
  5
D68D
  8
0
 10
4690.8556772250331051
 20
199.5542653964758131
 30
0.0
 40
0.0761299007168091
 50
90.0439707919057355
 51
180.0814516925252065
  0
LINE
  5
D68E
  8
0
 10
4690.8556188028805991
 20
199.6303952747740027
 30
0.0
 11
4690.8656184060901069
 21
199.6304408140734097
 31
0.0
  0
ARC
  5
D68F
  8
0
 10
4690.8654423160442093
 20
199.5539990784268127
 30
0.0
 40
0.0764419384654369
 50
0.0795447166534216
 51
89.8680145274925053
  0
LINE
  5
D690
  8
0
 10
4690.9418841808410434
 20
199.5541052040514103
 30
0.0
 11
4690.9418108650334034
 21
191.5547454032351027
 31
0.0
  0
LINE
  5
D691
  8
0
 10
4690.9418099301346956
 20
191.4527403502162031
 30
0.0
 11
4690.9418087807844131
 21
191.3273365479124095
 31
0.0
  0
LINE
  5
D692
  8
0
 10
4690.9417583721296978
 20
185.8273365479124095
 30
0.0
 11
4690.9417568305916575
 21
185.6591419773876055
 31
0.0
  0
LINE
  5
D693
  8
0
 10
4690.9417563464749037
 20
185.6063208361740067
 30
0.0
 11
4690.9416529942809575
 21
174.3297435236740114
 31
0.0
  0
LINE
  5
D694
  8
0
 10
4690.8314259336475516
 20
174.329745403874
 30
0.0
 11
4690.8315324562636306
 21
185.6063208361740067
 31
0.0
  0
LINE
  5
D695
  8
0
 10
4690.8315329551887771
 20
185.6591374861652071
 30
0.0
 11
4690.8315345440578312
 21
185.8273365479124095
 31
0.0
  0
LINE
  5
D696
  8
0
 10
4690.8315864990490809
 20
191.3273365479124095
 30
0.0
 11
4690.8315876836195457
 21
191.4527361419173985
 31
0.0
  0
LINE
  5
D697
  8
0
 10
4690.8315886472355487
 20
191.554745403227912
 30
0.0
 11
4690.8316641652681938
 21
199.549149195607896
 31
0.0
  0
ARC
  5
D698
  8
0
 10
4690.8607247345944415
 20
199.5490800389345054
 30
0.0
 40
0.0290606516126279
 50
0.1009607087079075
 51
179.8636510526494021
  0
LINE
  5
D699
  8
0
 10
4690.8897853410908283
 20
199.5491312465887006
 30
0.0
 11
4690.889710050463691
 21
191.5547454032316921
 31
0.0
  0
LINE
  5
D69A
  8
0
 10
4690.889709089768985
 20
191.4527383609998026
 30
0.0
 11
4690.889707908742821
 21
191.3273365479124095
 31
0.0
  0
LINE
  5
D69B
  8
0
 10
4690.8896561100864346
 20
185.8273365479124095
 30
0.0
 11
4690.8896545260204221
 21
185.6591398544080107
 31
0.0
  0
LINE
  5
D69C
  8
0
 10
4690.8896540285750234
 20
185.6063208361740067
 30
0.0
 11
4690.8895478264812482
 21
174.32974419407401
 31
0.0
  0
LINE
  5
D69D
  8
0
 10
4686.4929340450898962
 20
212.9087349355168897
 30
0.0
 11
4686.4929341355318684
 21
208.7772454021655903
 31
0.0
  0
LINE
  5
D69E
  8
0
 10
4686.5460032621867867
 20
208.7772454021655903
 30
0.0
 11
4686.5460044873943843
 21
212.910089557865092
 31
0.0
  0
LINE
  5
D69F
  8
0
 10
4684.8702526131428385
 20
214.6027013251598135
 30
0.0
 11
4674.5605277276936249
 21
214.6028552796875033
 31
0.0
  0
LINE
  5
D6A0
  8
0
 10
4684.8634383545031596
 20
214.5495861703500111
 30
0.0
 11
4674.560786642074163
 21
214.5507451027922059
 31
0.0
  0
LINE
  5
D6A1
  8
0
 10
4674.5520622243811886
 20
214.5621751822741032
 30
0.0
 11
4674.5520622243811886
 21
214.5904659018740119
 31
0.0
  0
ARC
  5
D6A2
  8
0
 10
4674.5626881376556412
 20
214.5922922252603087
 30
0.0
 40
0.0107817201799907
 50
101.5590124341799054
 51
189.7523963568239083
  0
ARC
  5
D6A3
  8
0
 10
4674.5611183595101465
 20
214.5600429499469897
 30
0.0
 40
0.0093037625814164
 50
166.7512254518177031
 51
267.9567365305802014
  0
LINE
  5
D6A4
  8
0
 10
4686.4929340065273209
 20
195.6828998347756112
 30
0.0
 11
4686.4929523287064512
 21
191.5547454029459971
 31
0.0
  0
LINE
  5
D6A5
  8
0
 10
4686.5460377995013914
 20
191.5547454029494929
 30
0.0
 11
4686.5460381909852003
 21
195.6886261776066931
 31
0.0
  0
LINE
  5
D6A6
  8
0
 10
4684.8600550672135796
 20
197.3271254157502028
 30
0.0
 11
4674.5609945474870983
 21
197.328369799676409
 31
0.0
  0
LINE
  5
D6A7
  8
0
 10
4684.8730817781697624
 20
197.3802070501932917
 30
0.0
 11
4674.5596270272362744
 21
197.3792203927108915
 31
0.0
  0
LINE
  5
D6A8
  8
0
 10
4674.5520622265812563
 20
197.3396752318739971
 30
0.0
 11
4674.5520622337808163
 21
197.3679660925739938
 31
0.0
  0
ARC
  5
D6A9
  8
0
 10
4674.56242968807328
 20
197.3691669700390037
 30
0.0
 40
0.0104367722590164
 50
105.5772359126380024
 51
186.607209831590211
  0
ARC
  5
D6AA
  8
0
 10
4674.5620415968924135
 20
197.3383784535944869
 30
0.0
 40
0.010063273111109
 50
172.5961359498240881
 51
264.0277597989224887
  0
LINE
  5
D6AB
  8
0
 10
4698.7423438957293911
 20
187.2816193913633924
 30
0.0
 11
4698.742343877544954
 21
191.4530381755579924
 31
0.0
  0
LINE
  5
D6AC
  8
0
 10
4698.7954130111529594
 20
191.4530402017439883
 30
0.0
 11
4698.7954132337090414
 21
187.2951376331880056
 31
0.0
  0
LINE
  5
D6AD
  8
0
 10
4697.1009023446949868
 20
185.6593929401846026
 30
0.0
 11
4690.9417568305916575
 21
185.6591419773876055
 31
0.0
  0
LINE
  5
D6AE
  8
0
 10
4690.8896545260204221
 20
185.6591398544080107
 30
0.0
 11
4690.8315329551887771
 21
185.6591374861652071
 31
0.0
  0
LINE
  5
D6AF
  8
0
 10
4690.7794204493702637
 20
185.6591353627700016
 30
0.0
 11
4674.5612430853780097
 21
185.6584745309801008
 31
0.0
  0
LINE
  5
D6B0
  8
0
 10
4697.1115165681658254
 20
185.6063208361740067
 30
0.0
 11
4690.9417563464749037
 21
185.6063208361740067
 31
0.0
  0
LINE
  5
D6B1
  8
0
 10
4690.8896540285750234
 20
185.6063208361740067
 30
0.0
 11
4690.8315324562636306
 21
185.6063208361740067
 31
0.0
  0
LINE
  5
D6B2
  8
0
 10
4690.7794199668305737
 20
185.6063208361740067
 30
0.0
 11
4674.5609675197865727
 21
185.6063208361740067
 31
0.0
  0
LINE
  5
D6B3
  8
0
 10
4674.5520622243811886
 20
185.6471557934740133
 30
0.0
 11
4674.5520622243666367
 21
185.6188643116340131
 31
0.0
  0
ARC
  5
D6B4
  8
0
 10
4674.5608659226309101
 20
185.6493976940201946
 30
0.0
 40
0.0090846695555111
 50
87.6206018209285844
 51
194.286958170403409
  0
ARC
  5
D6B5
  8
0
 10
4674.5627481816291038
 20
185.6170179393614035
 30
0.0
 40
0.0108442968050839
 50
170.1969440948390115
 51
260.5490843790789768
  0
LINE
  5
D6B6
  8
0
 10
4698.0341455750240129
 20
207.2205584773689964
 30
0.0
 11
4698.0341268453721568
 21
208.6755117839931017
 31
0.0
  0
LINE
  5
D6B7
  8
0
 10
4698.0341255357516275
 20
208.7772454021655903
 30
0.0
 11
4698.0341147888238993
 21
209.6120863277689921
 31
0.0
  0
ARC
  5
D6B8
  8
0
 10
4698.1040843582850357
 20
209.613145044387096
 30
0.0
 40
0.0699775787764331
 50
89.8713110402284769
 51
180.8668820694859107
  0
LINE
  5
D6B9
  8
0
 10
4698.1042415310175784
 20
209.6831224466546928
 30
0.0
 11
4700.362619075771363
 21
209.6831222218145001
 31
0.0
  0
LINE
  5
D6BA
  8
0
 10
4700.3626323725993643
 20
207.1495787411604113
 30
0.0
 11
4698.1043017232241255
 21
207.1495747628690083
 31
0.0
  0
ARC
  5
D6BB
  8
0
 10
4698.1040766738442471
 20
207.2195133095426911
 30
0.0
 40
0.0699389087564662
 50
179.143739364404496
 51
270.1843666436164995
  0
LINE
  5
D6BC
  8
0
 10
4697.4643453993767253
 20
209.6831204400504021
 30
0.0
 11
4697.9502122793255694
 21
209.6831203916783863
 31
0.0
  0
ARC
  5
D6BD
  8
0
 10
4697.9504436714860276
 20
209.613150186100313
 30
0.0
 40
0.0699705881849908
 50
359.13413443658402
 51
90.1894770176523792
  0
LINE
  5
D6BE
  8
0
 10
4698.0204062699258429
 20
209.6120928164783095
 30
0.0
 11
4698.0203953005384392
 21
208.7772454021655903
 31
0.0
  0
LINE
  5
D6BF
  8
0
 10
4698.0203939638140582
 20
208.675511262513993
 30
0.0
 11
4698.0203748466274192
 21
207.2205590263783108
 31
0.0
  0
ARC
  5
D6C0
  8
0
 10
4697.9504534659872661
 20
207.219514531306487
 30
0.0
 40
0.0699291816069565
 50
269.8186353982289916
 51
0.8558284741055247
  0
LINE
  5
D6C1
  8
0
 10
4697.9502321118670807
 20
207.1495857000381022
 30
0.0
 11
4697.4643326108580368
 21
207.1495848440740133
 31
0.0
  0
LINE
  5
D6C2
  8
0
 10
4698.0341455636198589
 20
202.1244626392796135
 30
0.0
 11
4698.0341147774197452
 21
204.5159904896794956
 31
0.0
  0
ARC
  5
D6C3
  8
0
 10
4698.1040843468817911
 20
204.5170492062975995
 30
0.0
 40
0.0699775787764331
 50
89.8713110402284769
 51
180.8668820694859107
  0
LINE
  5
D6C4
  8
0
 10
4698.1042415196134243
 20
204.58702660856531
 30
0.0
 11
4700.3626458216758692
 21
204.5870263837223035
 31
0.0
  0
LINE
  5
D6C5
  8
0
 10
4700.3626591185038706
 20
202.0534829031180948
 30
0.0
 11
4698.1043017118208809
 21
202.053478924779597
 31
0.0
  0
ARC
  5
D6C6
  8
0
 10
4698.1040766624410026
 20
202.1234174714531946
 30
0.0
 40
0.0699389087564662
 50
179.143739364404496
 51
270.1843666436164995
  0
LINE
  5
D6C7
  8
0
 10
4697.4643196758333943
 20
204.5870246019636056
 30
0.0
 11
4697.9502122679214153
 21
204.5870245535890035
 31
0.0
  0
ARC
  5
D6C8
  8
0
 10
4697.9504436600818735
 20
204.5170543480109018
 30
0.0
 40
0.0699705881849908
 50
359.13413443658402
 51
90.1894770176523792
  0
LINE
  5
D6C9
  8
0
 10
4698.0204062585225984
 20
204.515996978388813
 30
0.0
 11
4698.0203748352223556
 21
202.1244631882888996
 31
0.0
  0
ARC
  5
D6CA
  8
0
 10
4697.950453454584931
 20
202.1234186932169905
 30
0.0
 40
0.0699291816069565
 50
269.8186353982289916
 51
0.8558284741055247
  0
LINE
  5
D6CB
  8
0
 10
4697.9502321004620171
 20
202.053489861948691
 30
0.0
 11
4697.4643068873137963
 21
202.0534890059392978
 31
0.0
  0
LINE
  5
D6CC
  8
0
 10
4698.0341455748712178
 20
197.0283584774497001
 30
0.0
 11
4698.0341147886711042
 21
199.4198863278496106
 31
0.0
  0
ARC
  5
D6CD
  8
0
 10
4698.1040843581322406
 20
199.4209450444676861
 30
0.0
 40
0.0699775787764331
 50
89.8713110402284769
 51
180.8668820694859107
  0
LINE
  5
D6CE
  8
0
 10
4698.1042415308647833
 20
199.4909224467353965
 30
0.0
 11
4700.3626725676240312
 21
199.4909222218898037
 31
0.0
  0
LINE
  5
D6CF
  8
0
 10
4700.3626858644538515
 20
196.9573787413353045
 30
0.0
 11
4698.1043017230713303
 21
196.9573747629495983
 31
0.0
  0
ARC
  5
D6D0
  8
0
 10
4698.1040766736923615
 20
197.0273133096233948
 30
0.0
 40
0.0699389087564662
 50
179.143739364404496
 51
270.1843666436164995
  0
LINE
  5
D6D1
  8
0
 10
4697.4642939522464076
 20
199.4909204401361933
 30
0.0
 11
4697.9502122791727743
 21
199.4909203917590048
 31
0.0
  0
ARC
  5
D6D2
  8
0
 10
4697.9504436713332325
 20
199.4209501861809031
 30
0.0
 40
0.0699705881849908
 50
359.13413443658402
 51
90.1894770176523792
  0
LINE
  5
D6D3
  8
0
 10
4698.0204062697730478
 20
199.4198928165588995
 30
0.0
 11
4698.0203748464728051
 21
197.0283590264589861
 31
0.0
  0
ARC
  5
D6D4
  8
0
 10
4697.9504534658353805
 20
197.0273145313871055
 30
0.0
 40
0.0699291816069565
 50
269.8186353982289916
 51
0.8558284741055247
  0
LINE
  5
D6D5
  8
0
 10
4697.9502321117133761
 20
196.9573857001186923
 30
0.0
 11
4697.4642811637277191
 21
196.9573848440641086
 31
0.0
  0
LINE
  5
D6D6
  8
0
 10
4698.0341455636198589
 20
191.9322626392794859
 30
0.0
 11
4698.0341147774197452
 21
194.3237904896795101
 31
0.0
  0
ARC
  5
D6D7
  8
0
 10
4698.1040843468817911
 20
194.324849206297614
 30
0.0
 40
0.0699775787764331
 50
89.8713110402284769
 51
180.8668820694859107
  0
LINE
  5
D6D8
  8
0
 10
4698.1042415196134243
 20
194.3948266085652108
 30
0.0
 11
4700.3626993135303564
 21
194.3948263837170032
 31
0.0
  0
LINE
  5
D6D9
  8
0
 10
4700.3627126103592673
 20
191.8612829032122988
 30
0.0
 11
4698.1043017118208809
 21
191.8612789247794979
 31
0.0
  0
ARC
  5
D6DA
  8
0
 10
4698.1040766624410026
 20
191.9312174714532091
 30
0.0
 40
0.0699389087564662
 50
179.143739364404496
 51
270.1843666436164995
  0
LINE
  5
D6DB
  8
0
 10
4697.4642682287021671
 20
194.3948246019685939
 30
0.0
 11
4697.9502122679214153
 21
194.3948245535889043
 31
0.0
  0
ARC
  5
D6DC
  8
0
 10
4697.9504436600818735
 20
194.3248543480108026
 30
0.0
 40
0.0699705881849908
 50
359.13413443658402
 51
90.1894770176523792
  0
LINE
  5
D6DD
  8
0
 10
4698.0204062585225984
 20
194.3237969783887991
 30
0.0
 11
4698.0203748352223556
 21
191.9322631882888004
 31
0.0
  0
ARC
  5
D6DE
  8
0
 10
4697.950453454584931
 20
191.931218693217005
 30
0.0
 40
0.0699291816069565
 50
269.8186353982289916
 51
0.8558284741055247
  0
LINE
  5
D6DF
  8
0
 10
4697.9502321004620171
 20
191.8612898619485918
 30
0.0
 11
4697.4642554401825691
 21
191.8612890058485903
 31
0.0
  0
ARC
  5
D6E0
  8
0
 10
4674.390486947095269
 20
173.7997454022076909
 30
0.0
 40
0.029999999999891
 50
89.9999999998957776
 51
180.0042073803815867
  0
LINE
  5
D6E1
  8
0
 10
4705.2521085907419547
 20
216.8797614939196876
 30
0.0
 11
4705.6270839130993409
 21
216.8887366782504955
 31
0.0
  0
LINE
  5
D6E2
  8
0
 10
4705.2967693989257896
 20
188.7456238699967912
 30
0.0
 11
4705.6275702167904456
 21
188.7517612525053039
 31
0.0
  0
ARC
  5
D6E3
  8
0
 10
4674.5925511065379396
 20
173.7743692032792069
 30
0.0
 40
0.6858901424712935
 50
250.2242220037134928
 51
266.0307714510381061
  0
LINE
  5
D6E4
  8
0
 10
4674.5558429394950508
 20
191.3273365479124095
 30
0.0
 11
4674.5558429394950508
 21
185.8273365479124095
 31
0.0
  0
LINE
  5
D6E5
  8
0
 10
4674.5558429394950508
 20
185.8273365479124095
 30
0.0
 11
4698.5604869470953417
 21
185.8273365479124095
 31
0.0
  0
LINE
  5
D6E6
  8
0
 10
4698.5604869470953417
 20
185.8273365479124095
 30
0.0
 11
4698.5604869470953417
 21
191.3273365479124095
 31
0.0
  0
LINE
  5
D6E7
  8
0
 10
4698.5604869470953417
 20
191.3273365479124095
 30
0.0
 11
4674.5558429394950508
 21
191.3273365479124095
 31
0.0
  0
LINE
  5
D6E8
  8
0
 10
4674.555792710994865
 20
197.1523365479123981
 30
0.0
 11
4674.555792710994865
 21
191.6523365479123981
 31
0.0
  0
LINE
  5
D6E9
  8
0
 10
4674.555792710994865
 20
191.6523365479123981
 30
0.0
 11
4686.3107342048951978
 21
191.6523365479123981
 31
0.0
  0
LINE
  5
D6EA
  8
0
 10
4686.3107342048951978
 20
191.6523365479123981
 30
0.0
 11
4686.3107342048951978
 21
197.1523365479123981
 31
0.0
  0
LINE
  5
D6EB
  8
0
 10
4686.3107342048951978
 20
197.1523365479123981
 30
0.0
 11
4674.555792710994865
 21
197.1523365479123981
 31
0.0
  0
LINE
  5
D6EC
  8
0
 10
4674.555792710994865
 20
214.4023365479123981
 30
0.0
 11
4674.555792710994865
 21
208.9023365479123981
 31
0.0
  0
LINE
  5
D6ED
  8
0
 10
4674.555792710994865
 20
208.9023365479123981
 30
0.0
 11
4686.3107342048951978
 21
208.9023365479123981
 31
0.0
  0
LINE
  5
D6EE
  8
0
 10
4686.3107342048951978
 20
208.9023365479123981
 30
0.0
 11
4686.3107342048951978
 21
214.4023365479123981
 31
0.0
  0
LINE
  5
D6EF
  8
0
 10
4686.3107342048951978
 20
214.4023365479123981
 30
0.0
 11
4674.555792710994865
 21
214.4023365479123981
 31
0.0
  0
ARC
  5
D6F0
  8
0
 10
4677.5414638339270823
 20
170.8049919535934009
 30
0.0
 40
0.2321298195842955
 50
5.7248685958155399
 51
77.4628207959885202
  0
ARC
  5
D6F1
  8
0
 10
6048.8657488828976057
 20
308.3617092517746983
 30
0.0
 40
1377.9740032533939029
 50
185.7281449911783966
 51
186.0060862431562896
  0
ARC
  5
D6F2
  8
0
 10
4678.8656699208768259
 20
164.2230465795138059
 30
0.0
 40
0.4123295083793976
 50
186.1837279670644136
 51
267.6058232556546272
  0
ARC
  5
D6F3
  8
0
 10
4678.7021059470571345
 20
158.6626565232006101
 30
0.0
 40
5.1504998402381101
 50
86.7041633466884036
 51
88.3718567686905772
  0
ARC
  5
D6F4
  8
0
 10
4678.9762788682046448
 20
163.7177305278407005
 30
0.0
 40
0.0896327947922194
 50
10.2507167458002897
 51
75.8333834947871139
  0
ARC
  5
D6F5
  8
0
 10
5209.7171680984038176
 20
261.7764589957130283
 30
0.0
 40
539.6338208593070931
 50
190.4678576706083106
 51
191.3068345511395876
  0
ARC
  5
D6F6
  8
0
 10
4704.1652190875465749
 20
170.9109234768868077
 30
0.0
 40
0.200390621475196
 50
96.954810583736645
 51
179.6135405132546907
  0
LINE
  5
D6F7
  8
0
 10
4703.9648330244290264
 20
170.9122750994698947
 30
0.0
 11
4703.2663596682396019
 21
164.1778502755705915
 31
0.0
  0
ARC
  5
D6F8
  8
0
 10
4702.8580844649177379
 20
164.2213525044153073
 30
0.0
 40
0.4105862705469093
 50
271.3232277810752748
 51
353.9180110321083816
  0
ARC
  5
D6F9
  8
0
 10
4702.743348707410405
 20
163.718573661982191
 30
0.0
 40
0.0880853421620242
 50
95.6477317573860546
 51
170.0488187931316872
  0
ARC
  5
D6FA
  8
0
 10
4107.9063917120984115
 20
274.0998615256900166
 30
0.0
 40
604.903682564054634
 50
348.7400067168744044
 51
349.4873681727344774
  0
ARC
  5
D6FB
  8
0
 10
4700.3944110606162212
 20
156.1195546421027132
 30
0.0
 40
0.7835635252871044
 50
330.3685806147751123
 51
350.1515378504823275
  0
ARC
  5
D6FC
  8
0
 10
4679.9558712705602375
 20
149.7452708735278009
 30
0.0
 40
14.0919442113151305
 50
80.6879227959065162
 51
93.8966899207419203
  0
ARC
  5
D6FD
  8
0
 10
4690.1260017741633419
 20
-993.0422246403257986
 30
0.0
 40
1156.7206392948339726
 50
89.5363784814873185
 51
90.3908123756240798
  0
ARC
  5
D6FE
  8
0
 10
4701.8191905957028212
 20
149.8212144999019984
 30
0.0
 40
14.0149498435610003
 50
86.2546382230822246
 51
99.5841348083349516
  0
LINE
  5
D6FF
  8
0
 10
4687.8643696294948313
 20
155.1896122307088888
 30
0.0
 11
4687.7591484876948016
 21
156.8510189117089055
 31
0.0
  0
LINE
  5
D700
  8
0
 10
4687.7591484876948016
 20
156.8510189117089055
 30
0.0
 11
4687.8611099795953123
 21
156.8200162640090127
 31
0.0
  0
LINE
  5
D701
  8
0
 10
4687.8611099795953123
 20
156.8200162640090127
 30
0.0
 11
4687.9641255584956525
 21
155.1966144696089032
 31
0.0
  0
LINE
  5
D702
  8
0
 10
4691.1363085116563525
 20
151.3207454022088996
 30
0.0
 11
4690.7625007679953342
 21
156.8240353835089138
 31
0.0
  0
LINE
  5
D703
  8
0
 10
4690.7625007679953342
 20
156.8240353835089138
 30
0.0
 11
4690.8604869472956125
 21
156.8198820997104974
 31
0.0
  0
LINE
  5
D704
  8
0
 10
4690.8604869472956125
 20
156.8198820997104974
 30
0.0
 11
4691.237036671345777
 21
151.3207454022088996
 31
0.0
  0
LINE
  5
D705
  8
0
 10
4697.1404094655681547
 20
151.3207454022088996
 30
0.0
 11
4696.762209651295052
 21
156.7768854347089018
 31
0.0
  0
LINE
  5
D706
  8
0
 10
4696.762209651295052
 20
156.7768854347089018
 30
0.0
 11
4696.8594808596953953
 21
156.8248730176090078
 31
0.0
  0
LINE
  5
D707
  8
0
 10
4696.8594808596953953
 20
156.8248730176090078
 30
0.0
 11
4697.2406613101948096
 21
151.3207454022088996
 31
0.0
  0
LINE
  5
D708
  8
0
 10
4685.1279848354270143
 20
151.3207454022088996
 30
0.0
 11
4684.756164097430883
 21
156.8829780493001067
 31
0.0
  0
LINE
  5
D709
  8
0
 10
4684.756164097430883
 20
156.8829780493001067
 30
0.0
 11
4684.8605540334947364
 21
156.8234845838088916
 31
0.0
  0
LINE
  5
D70A
  8
0
 10
4684.8605540334947364
 20
156.8234845838088916
 30
0.0
 11
4685.2282107330956933
 21
151.3243124578089009
 31
0.0
  0
ARC
  5
D70B
  8
0
 10
4680.034003275924988
 20
163.4388974216140014
 30
0.0
 40
0.3991122570886142
 50
5.742398951059327
 51
85.5218190684773987
  0
ARC
  5
D70C
  8
0
 10
4705.4132607585870574
 20
164.5489433571744939
 30
0.0
 40
25.00505672095899
 50
182.4527699357792017
 51
198.2393934515395983
  0
ARC
  5
D70D
  8
0
 10
4682.8152929808220506
 20
157.4221361608612142
 30
0.0
 40
1.3466695195607521
 50
211.2927694716788949
 51
269.5917147163236223
  0
ARC
  5
D70E
  8
0
 10
4690.5080937120728777
 20
-1669.6193891062530383
 30
0.0
 40
1825.7111376298898904
 50
89.7359833150081556
 51
89.7990580408171724
  0
ARC
  5
D70F
  8
0
 10
4690.5080937120728777
 20
-1669.6193891062530383
 30
0.0
 40
1825.7111376298898904
 50
89.802214378187756
 51
89.893130189859491
  0
ARC
  5
D710
  8
0
 10
4690.5080937120728777
 20
-1669.6193891062530383
 30
0.0
 40
1825.7111376298898904
 50
89.896359931904982
 51
89.9873761527380793
  0
ARC
  5
D711
  8
0
 10
4690.5080937120728777
 20
-1669.6193891062530383
 30
0.0
 40
1825.7111376298898904
 50
89.9904549794799351
 51
90.0816155832065277
  0
ARC
  5
D712
  8
0
 10
4690.5080937120728777
 20
-1669.6193891062530383
 30
0.0
 40
1825.7111376298898904
 50
90.0847563496745067
 51
90.1756821293318609
  0
ARC
  5
D713
  8
0
 10
4690.5080937120728777
 20
-1669.6193891062530383
 30
0.0
 40
1825.7111376298898904
 50
90.1788329413886061
 51
90.2417228745722895
  0
ARC
  5
D714
  8
0
 10
4698.9472121247235918
 20
157.3472421718433054
 30
0.0
 40
1.2751486957763709
 50
268.8162331910502871
 51
331.7555530779440005
  0
ARC
  5
D715
  8
0
 10
4676.7302713324606884
 20
164.4473888286732119
 30
0.0
 40
24.5787169190071211
 50
341.7342256669298877
 51
357.7430058372145254
  0
ARC
  5
D716
  8
0
 10
4701.6841576106153298
 20
163.4401522759073089
 30
0.0
 40
0.3961889058855219
 50
94.3676616277970766
 51
174.3097026026740934
  0
ARC
  5
D717
  8
0
 10
4667.3661233637321857
 20
157.0832216849767065
 30
0.0
 40
7.6210150059554058
 50
347.6991389579624752
 51
1.8540186615029
  0
ARC
  5
D718
  8
0
 10
4670.1376423034516847
 20
7203.78151095344856
 30
0.0
 40
7032.7538746969476051
 50
270.0607293953913768
 51
270.2770257431653249
  0
LINE
  5
D719
  8
0
 10
4687.8725405845898422
 20
154.2631422075288015
 30
0.0
 11
4688.2232667052730903
 21
154.2631422075288015
 31
0.0
  0
LINE
  5
D71A
  8
0
 10
4685.6784204105706522
 20
151.3207454022088996
 30
0.0
 11
4685.4634947985387043
 21
155.2000344352912862
 31
0.0
  0
LINE
  5
D71B
  8
0
 10
4684.6785036499341004
 20
151.3207454022088996
 30
0.0
 11
4684.3784598812953845
 21
154.8427764295088878
 31
0.0
  0
LINE
  5
D71C
  8
0
 10
4693.7628203091953765
 20
156.7983973193090037
 30
0.0
 11
4693.8628143445512251
 21
156.8100606060500013
 31
0.0
  0
LINE
  5
D71D
  8
0
 10
4693.8628143445512251
 20
156.8100606060500013
 30
0.0
 11
4693.9687268165889691
 21
155.3013427037352869
 31
0.0
  0
LINE
  5
D71E
  8
0
 10
4693.9687268165889691
 20
155.3013427037352869
 30
0.0
 11
4693.8632507475949751
 21
155.3051715273589082
 31
0.0
  0
LINE
  5
D71F
  8
0
 10
4693.8632507475949751
 20
155.3051715273589082
 30
0.0
 11
4693.7628203091953765
 21
156.7983973193090037
 31
0.0
  0
ENDSEC
  0
EOF
