  0
SECTION
  2
HEADER
  9
$ACADVER
  1
AC1009
  9
$INSBASE
 10
4669.2775855767486064
 20
202.1181850077526008
 30
0.0
  9
$EXTMIN
 10
4639.2775824588215983
 20
168.7847850077525891
 30
0.0
  9
$EXTMAX
 10
4699.2775824588215983
 20
202.1241604657923858
 30
0.0
  9
$LIMMIN
 10
0.0
 20
0.0
  9
$LIMMAX
 10
11.6929133858000007
 20
8.2677165353999982
  9
$ORTHOMODE
 70
     1
  9
$REGENMODE
 70
     1
  9
$FILLMODE
 70
     1
  9
$QTEXTMODE
 70
     0
  9
$MIRRTEXT
 70
     0
  9
$DRAGMODE
 70
     2
  9
$LTSCALE
 40
0.6431102362
  9
$OSMODE
 70
  4095
  9
$ATTMODE
 70
     1
  9
$TEXTSIZE
 40
0.2
  9
$TRACEWID
 40
0.05
  9
$TEXTSTYLE
  7
STANDARD
  9
$CLAYER
  8
0
  9
$CELTYPE
  6
BYLAYER
  9
$CECOLOR
 62
   256
  9
$DIMSCALE
 40
1.0
  9
$DIMASZ
 40
0.1875
  9
$DIMEXO
 40
0.0625
  9
$DIMDLI
 40
0.4443307087
  9
$DIMRND
 40
0.0
  9
$DIMDLE
 40
0.0
  9
$DIMEXE
 40
0.125
  9
$DIMTP
 40
0.01
  9
$DIMTM
 40
0.01
  9
$DIMTXT
 40
2.0
  9
$DIMCEN
 40
0.1052362205
  9
$DIMTSZ
 40
0.0
  9
$DIMTOL
 70
     1
  9
$DIMLIM
 70
     0
  9
$DIMTIH
 70
     1
  9
$DIMTOH
 70
     1
  9
$DIMSE1
 70
     0
  9
$DIMSE2
 70
     0
  9
$DIMTAD
 70
     0
  9
$DIMZIN
 70
     0
  9
$DIMBLK
  1

  9
$DIMASO
 70
     1
  9
$DIMSHO
 70
     1
  9
$DIMPOST
  1
\X
  9
$DIMAPOST
  1

  9
$DIMALT
 70
     1
  9
$DIMALTD
 70
     2
  9
$DIMALTF
 40
25.3999999999999986
  9
$DIMLFAC
 40
1.0
  9
$DIMTOFL
 70
     0
  9
$DIMTVP
 40
0.0
  9
$DIMTIX
 70
     0
  9
$DIMSOXD
 70
     0
  9
$DIMSAH
 70
     0
  9
$DIMBLK1
  1

  9
$DIMBLK2
  1

  9
$DIMSTYLE
  2
STANDARD
  9
$DIMCLRD
 70
     0
  9
$DIMCLRE
 70
     0
  9
$DIMCLRT
 70
     0
  9
$DIMTFAC
 40
1.0
  9
$DIMGAP
 40
0.09
  9
$LUNITS
 70
     2
  9
$LUPREC
 70
     4
  9
$SKETCHINC
 40
0.1
  9
$FILLETRAD
 40
0.0
  9
$AUNITS
 70
     0
  9
$AUPREC
 70
     0
  9
$MENU
  1
.
  9
$ELEVATION
 40
0.0
  9
$PELEVATION
 40
0.0
  9
$THICKNESS
 40
0.0
  9
$LIMCHECK
 70
     0
  9
$BLIPMODE
 70
     0
  9
$CHAMFERA
 40
0.0
  9
$CHAMFERB
 40
0.0
  9
$SKPOLY
 70
     0
  9
$TDCREATE
 40
2458060.468368056230247
  9
$TDUPDATE
 40
2459179.4417013889178634
  9
$TDINDWG
 40
0.3463612269
  9
$TDUSRTIMER
 40
0.3463612269
  9
$USRTIMER
 70
     1
  9
$ANGBASE
 50
0.0
  9
$ANGDIR
 70
     0
  9
$PDMODE
 70
     0
  9
$PDSIZE
 40
0.3125
  9
$PLINEWID
 40
0.0
  9
$COORDS
 70
     1
  9
$SPLFRAME
 70
     0
  9
$SPLINETYPE
 70
     6
  9
$SPLINESEGS
 70
     8
  9
$ATTDIA
 70
     1
  9
$ATTREQ
 70
     1
  9
$HANDLING
 70
     1
  9
$HANDSEED
  5
CE1B
  9
$SURFTAB1
 70
     6
  9
$SURFTAB2
 70
     6
  9
$SURFTYPE
 70
     6
  9
$SURFU
 70
     6
  9
$SURFV
 70
     6
  9
$UCSNAME
  2

  9
$UCSORG
 10
0.0
 20
0.0
 30
0.0
  9
$UCSXDIR
 10
1.0
 20
0.0
 30
0.0
  9
$UCSYDIR
 10
0.0
 20
1.0
 30
0.0
  9
$PUCSNAME
  2

  9
$PUCSORG
 10
0.0
 20
0.0
 30
0.0
  9
$PUCSXDIR
 10
1.0
 20
0.0
 30
0.0
  9
$PUCSYDIR
 10
0.0
 20
1.0
 30
0.0
  9
$USERI1
 70
     0
  9
$USERI2
 70
     0
  9
$USERI3
 70
     0
  9
$USERI4
 70
     0
  9
$USERI5
 70
     0
  9
$USERR1
 40
0.0
  9
$USERR2
 40
0.0
  9
$USERR3
 40
0.0
  9
$USERR4
 40
0.0
  9
$USERR5
 40
0.0
  9
$WORLDVIEW
 70
     1
  9
$SHADEDGE
 70
     3
  9
$SHADEDIF
 70
    70
  9
$TILEMODE
 70
     1
  9
$MAXACTVP
 70
    64
  9
$PLIMCHECK
 70
     0
  9
$PEXTMIN
 10
1.0000000000000000E+20
 20
1.0000000000000000E+20
 30
1.0000000000000000E+20
  9
$PEXTMAX
 10
-1.0000000000000000E+20
 20
-1.0000000000000000E+20
 30
-1.0000000000000000E+20
  9
$PLIMMIN
 10
0.0
 20
0.0
  9
$PLIMMAX
 10
12.0
 20
9.0
  9
$UNITMODE
 70
     0
  9
$VISRETAIN
 70
     1
  9
$PLINEGEN
 70
     0
  9
$PSLTSCALE
 70
     1
  0
ENDSEC
  0
SECTION
  2
TABLES
  0
TABLE
  2
VPORT
 70
     1
  0
VPORT
  2
*ACTIVE
 70
     0
 10
0.0
 20
0.0
 11
1.0
 21
1.0
 12
0.0
 22
0.0
 13
0.0
 23
0.0
 14
1.0
 24
1.0
 15
0.0
 25
0.0
 16
0.0
 26
0.0
 36
194.491158867938907
 17
4669.27734375
 27
185.4544752524273861
 37
0.0
 40
68.6771117734950565
 41
2.1186252771618621
 42
50.0
 43
0.0
 44
0.0
 50
0.0
 51
0.0
 71
     0
 72
   100
 73
     1
 74
     1
 75
     0
 76
     0
 77
     0
 78
     0
  0
ENDTAB
  0
TABLE
  2
LTYPE
 70
     2
  0
LTYPE
  2
CONTINUOUS
 70
     0
  3
Solid line
 72
    65
 73
     0
 40
0.0
  0
LTYPE
  2
PHANTOM2
 70
     0
  3
___ _ _ ___ _ _ ___ _ _ ___ _ _
 72
    65
 73
     6
 40
1.25
 49
0.625
 49
-0.125
 49
0.125
 49
-0.125
 49
0.125
 49
-0.125
  0
ENDTAB
  0
TABLE
  2
LAYER
 70
     2
  0
LAYER
  2
0
 70
     0
 62
   255
  6
CONTINUOUS
  0
LAYER
  2
DEFPOINTS
 70
     0
 62
     7
  6
CONTINUOUS
  0
ENDTAB
  0
TABLE
  2
STYLE
 70
     1
  0
STYLE
  2
STANDARD
 70
     0
 40
0.0
 41
0.8
 50
0.0
 71
     0
 42
0.2
  3
txt
  4

  0
ENDTAB
  0
TABLE
  2
VIEW
 70
     0
  0
ENDTAB
  0
TABLE
  2
UCS
 70
     0
  0
ENDTAB
  0
TABLE
  2
APPID
 70
     9
  0
APPID
  2
ACAD
 70
     0
  0
APPID
  2
ACAD_MLEADERVER
 70
     0
  0
APPID
  2
ACAD_EXEMPT_FROM_CAD_STANDARDS
 70
     0
  0
APPID
  2
ACAD_NAV_VCDISPLAY
 70
     0
  0
APPID
  2
ACAECLAYERSTANDARD
 70
     0
  0
APPID
  2
ACCMTRANSPARENCY
 70
     0
  0
APPID
  2
ACAD_DSTYLE_DIMJAG
 70
     0
  0
APPID
  2
ACAD_DSTYLE_DIMTALN
 70
     0
  0
APPID
  2
ACDBATTR
 70
     0
  0
ENDTAB
  0
TABLE
  2
DIMSTYLE
 70
     1
  0
DIMSTYLE
  2
STANDARD
 70
     0
  3

  4

  5

  6

  7

 40
1.0
 41
0.1875
 42
0.0625
 43
0.38
 44
0.125
 45
0.0
 46
0.0
 47
0.01
 48
0.01
140
0.15625
141
0.09
142
0.0
143
25.3999999999999986
144
1.0
145
0.0
146
1.0
147
0.09
 71
     1
 72
     0
 73
     1
 74
     1
 75
     0
 76
     0
 77
     0
 78
     4
170
     0
171
     2
172
     0
173
     0
174
     0
175
     0
176
     0
177
     0
178
     0
  0
ENDTAB
  0
ENDSEC
  0
SECTION
  2
BLOCKS
  0
BLOCK
  8
0
  2
$MODEL_SPACE
 70
     0
 10
0.0
 20
0.0
 30
0.0
  3
$MODEL_SPACE
  1

  0
ENDBLK
  5
21
  8
0
  0
BLOCK
 67
     1
  8
0
  2
$PAPER_SPACE
 70
     0
 10
0.0
 20
0.0
 30
0.0
  3
$PAPER_SPACE
  1

  0
ENDBLK
  5
1D
 67
     1
  8
0
  0
ENDSEC
  0
SECTION
  2
ENTITIES
  0
ATTDEF
  5
3930
  8
DEFPOINTS
 10
4669.2748884755328618
 20
202.1231604657922958
 30
0.0
 40
0.001
  1
71520118
  3

  2
MODELNUMBER
 70
     0
1001
ACDBATTR
1070
     0
1070
     1
  0
ATTDEF
  5
3931
  8
DEFPOINTS
 10
4669.2748884755328618
 20
202.1214937991256022
 30
0.0
 40
0.001
  1
TRAVERSE
  3

  2
TRADENAME
 70
     0
1001
ACDBATTR
1070
     0
1070
     1
  0
ATTDEF
  5
3932
  8
DEFPOINTS
 10
4669.2748884755328618
 20
202.1198271324589086
 30
0.0
 40
0.001
  1
BATH AND WALL SURROUND
  3

  2
PRODUCT
 70
     0
1001
ACDBATTR
1070
     0
1070
     1
  0
ARC
  5
CC95
  8
0
 10
4639.3151890694716712
 20
168.8485283987504886
 30
0.0
 40
0.0623919817734886
 50
271.9058092456286886
 51
0.0958903679812648
  0
LINE
  5
CC96
  8
0
 10
4639.3172640092207075
 20
168.786170929152604
 30
0.0
 11
4639.2775824588215983
 21
168.7847850077525891
 31
0.0
  0
ARC
  5
CC97
  8
0
 10
4639.5026522007647145
 20
201.8431136455922115
 30
0.0
 40
0.2250697532575059
 50
89.9726635174543645
 51
179.9818334067375929
  0
LINE
  5
CC98
  8
0
 10
4639.5027595841565926
 20
202.068183373232813
 30
0.0
 11
4699.0524115693424392
 21
202.068185007807898
 31
0.0
  0
ARC
  5
CC99
  8
0
 10
4699.0525047206756426
 20
201.8431072397009984
 30
0.0
 40
0.2250777873828933
 50
0.0378981705984273
 51
90.0237125952854456
  0
LINE
  5
CC9A
  8
0
 10
4639.3775824588219621
 20
169.9829062381022879
 30
0.0
 11
4639.3775809638673309
 21
168.8486328180873102
 31
0.0
  0
ARC
  5
CC9B
  8
0
 10
4643.6109764053471736
 20
201.1285360105329119
 30
0.0
 40
0.9896503872574182
 50
89.9039693046795065
 51
108.2911151917194985
  0
ARC
  5
CC9C
  8
0
 10
4694.944187979963317
 20
201.1285324743363105
 30
0.0
 40
0.989653912128308
 50
71.7091828235244009
 51
90.0956385100642763
  0
LINE
  5
CC9D
  8
0
 10
4639.2775824588215983
 20
197.4479697828865881
 30
0.0
 11
4639.7558266640207876
 21
197.4313178620527083
 31
0.0
  0
ARC
  5
CC9E
  8
0
 10
4639.7580985788863472
 20
197.4935362772073972
 30
0.0
 40
0.0622598809950957
 50
267.9087650448611271
 51
357.9947586445330217
  0
LINE
  5
CC9F
  8
0
 10
4639.8203203338161984
 20
197.491357746708502
 30
0.0
 11
4639.8322384319362754
 21
197.8284917877506928
 31
0.0
  0
ARC
  5
CCA0
  8
0
 10
4639.8946803027783972
 20
197.8257789162742881
 30
0.0
 40
0.0625007752430817
 50
87.9888470066108965
 51
177.5122718964389037
  0
LINE
  5
CCA1
  8
0
 10
4639.896873707103623
 20
197.8882411919568085
 30
0.0
 11
4640.056211125862319
 21
197.8826765581414975
 31
0.0
  0
ARC
  5
CCA2
  8
0
 10
4640.0540296940025655
 20
197.820214140853011
 30
0.0
 40
0.0625004977458447
 50
1.8326931301170819
 51
87.9998202647340833
  0
LINE
  5
CCA3
  8
0
 10
4640.1164982211575989
 20
197.8222129739660886
 30
0.0
 11
4640.1285740504217756
 21
197.4764766070526889
 31
0.0
  0
ARC
  5
CCA4
  8
0
 10
4640.1910329941119926
 20
197.4786562020281053
 30
0.0
 40
0.062496962176527
 50
181.9986078974725956
 51
268.0264049439622909
  0
ARC
  5
CCA5
  8
0
 10
4640.5857302980402892
 20
197.4643773369265034
 30
0.0
 40
0.0620052239258129
 50
268.5714823208721214
 51
349.9982942208042118
  0
ARC
  5
CCA6
  8
0
 10
4643.7168785876338006
 20
197.8885879877597915
 30
0.0
 40
2.9479192762859392
 50
89.8766179063040767
 51
169.8596234289641131
  0
LINE
  5
CCA7
  8
0
 10
4643.7232267021781809
 20
200.8365004289526894
 30
0.0
 11
4694.8319444513217604
 21
200.8364993337715987
 31
0.0
  0
ARC
  5
CCA8
  8
0
 10
4694.8383037854573558
 20
197.8886135521584038
 30
0.0
 40
2.9478926409500521
 50
10.0918671218985292
 51
90.1236012750025992
  0
ARC
  5
CCA9
  8
0
 10
4746.4909246639390403
 20
206.510593527946213
 30
0.0
 40
49.4195652570120103
 50
189.4398771698222106
 51
190.5601228308157999
  0
ARC
  5
CCAA
  8
0
 10
4697.9696166738149259
 20
197.464483523991106
 30
0.0
 40
0.0622029963824397
 50
190.0689049846558021
 51
268.3679240588737116
  0
LINE
  5
CCAB
  8
0
 10
4640.1888806661972922
 20
197.4161963127722004
 30
0.0
 11
4640.8518166476205806
 21
197.393045048452592
 31
0.0
  0
ARC
  5
CCAC
  8
0
 10
4640.8539492019817772
 20
197.4548573560990121
 30
0.0
 40
0.0618490837818379
 50
268.0240517639957716
 51
301.9740057914459044
  0
LINE
  5
CCAD
  8
0
 10
4640.587275888035947
 20
197.4023913792775886
 30
0.0
 11
4697.9678450549208719
 21
197.4023057616846017
 31
0.0
  0
ARC
  5
CCAE
  8
0
 10
4697.7012158249208369
 20
197.4548558422519022
 30
0.0
 40
0.0618475659991241
 50
238.175114412191391
 51
269.9260145971383054
  0
LINE
  5
CCAF
  8
0
 10
4697.7011359618691131
 20
197.3930083278158065
 30
0.0
 11
4698.3663107801658043
 21
197.4161962094640899
 31
0.0
  0
ARC
  5
CCB0
  8
0
 10
4698.3641295616207572
 20
197.4786581361528874
 30
0.0
 40
0.0625000000001787
 50
272.0000000000558202
 51
357.999695590830413
  0
LINE
  5
CCB1
  8
0
 10
4698.4265914767211143
 20
197.4764765857522946
 30
0.0
 11
4698.4386704358421412
 21
197.8223200387764109
 31
0.0
  0
ARC
  5
CCB2
  8
0
 10
4698.5011350473469065
 20
197.820214546385813
 30
0.0
 40
0.0625000863106415
 50
92.0058132840270559
 51
178.0694641524372059
  0
LINE
  5
CCB3
  8
0
 10
4698.4989474883477669
 20
197.8826763377022928
 30
0.0
 11
4698.6582979752129177
 21
197.8882410880117106
 31
0.0
  0
ARC
  5
CCB4
  8
0
 10
4698.6604851917845735
 20
197.8257791836932995
 30
0.0
 40
0.0625001872590989
 50
2.4876774337571979
 51
92.0054959370913252
  0
LINE
  5
CCB5
  8
0
 10
4698.7229264775969568
 20
197.828491974427692
 30
0.0
 11
4698.7346951200206604
 21
197.491598238252692
 31
0.0
  0
ARC
  5
CCB6
  8
0
 10
4698.7971570351119226
 20
197.4937797887548925
 30
0.0
 40
0.0624999999955698
 50
182.0003045026265056
 51
271.9999998250672775
  0
LINE
  5
CCB7
  8
0
 10
4698.7993382536669742
 20
197.4313178620639917
 30
0.0
 11
4699.2775824588206888
 21
197.448018177796996
 31
0.0
  0
LINE
  5
CCB8
  8
0
 10
4639.2775824588215983
 20
197.4180002313538012
 30
0.0
 11
4640.8328973386205689
 21
197.3636874389526952
 31
0.0
  0
ARC
  5
CCB9
  8
0
 10
4640.8304177999043532
 20
197.3007558495789056
 30
0.0
 40
0.0629804180150544
 50
0.0618626249542761
 51
87.7436823325834041
  0
ARC
  5
CCBA
  8
0
 10
4640.235591348365233
 20
170.3185673633678903
 30
0.0
 40
0.2510609276481856
 50
274.2135088515007055
 51
359.9269876089317108
  0
LINE
  5
CCBB
  8
0
 10
4640.2540376322212978
 20
170.0681850077525894
 30
0.0
 11
4639.4379009084250356
 21
170.0411233515526988
 31
0.0
  0
ARC
  5
CCBC
  8
0
 10
4640.5718549758012159
 20
197.3102067594840037
 30
0.0
 40
0.062641669753593
 50
359.6856518633284736
 51
85.0444762321921672
  0
CIRCLE
  5
CCBD
  8
0
 10
4647.7775824588206888
 20
186.5681850077525894
 30
0.0
 40
1.387500000000002
  0
CIRCLE
  5
CCBE
  8
0
 10
4647.7775824588206888
 20
186.5681850077525894
 30
0.0
 40
1.0
  0
LINE
  5
CCBF
  8
0
 10
4639.2775824588215983
 20
201.843185008390293
 30
0.0
 11
4639.2775824588215983
 21
168.7847850077525891
 31
0.0
  0
LINE
  5
CCC0
  8
0
 10
4699.2775824588206888
 20
201.8432561178512117
 30
0.0
 11
4699.2775824588206888
 21
168.7847850077525891
 31
0.0
  0
LINE
  5
CCC1
  8
0
 10
4699.1775831006107182
 20
169.7583866279526035
 30
0.0
 11
4639.3775824588219621
 21
169.7583866279526035
 31
0.0
  0
LINE
  5
CCC2
  8
0
 10
4643.6126351098992018
 20
202.1181850077526008
 30
0.0
 11
4694.94253604359983
 21
202.1181850077526008
 31
0.0
  0
ARC
  5
CCC3
  8
0
 10
4639.498604575209356
 20
201.8442998846190051
 30
0.0
 40
0.0939304143571183
 50
132.4604950887695054
 51
180.6800698101046123
  0
ARC
  5
CCC4
  8
0
 10
4639.5974902530169857
 20
201.9056963160880969
 30
0.0
 40
0.06248869324129
 50
89.9871290563396968
 51
178.0094727373137005
  0
LINE
  5
CCC5
  8
0
 10
4639.4046807774220724
 20
201.8431850077523961
 30
0.0
 11
4639.404382363831246
 21
201.0406095571134983
 31
0.0
  0
ARC
  5
CCC6
  8
0
 10
4639.5975134624832208
 20
201.905710748564502
 30
0.0
 40
0.1625110242146619
 50
91.2455284569087439
 51
177.2187034852697991
  0
LINE
  5
CCC7
  8
0
 10
4639.4351938712952688
 20
201.913596387922496
 30
0.0
 11
4639.2775824588215983
 21
197.4479697828865881
 31
0.0
  0
ARC
  5
CCC8
  8
0
 10
-278028.9562097797170281
 20
50040.2388612455906696
 30
0.0
 40
287030.3254076517769136
 50
349.9999002110004085
 51
350.0000935804866913
  0
LINE
  5
CCC9
  8
0
 10
4639.5350392664977335
 20
201.9078668150114027
 30
0.0
 11
4639.3841735662681458
 21
197.5891188470899067
 31
0.0
  0
LINE
  5
CCCA
  8
0
 10
4639.5975042904992733
 20
201.9681850077527088
 30
0.0
 11
4698.9576668629997585
 21
201.9681850077527088
 31
0.0
  0
ARC
  5
CCCB
  8
0
 10
4698.9576637449872578
 20
201.905685007697997
 30
0.0
 40
0.0625000001324097
 50
2.0006850729620052
 51
89.9971416171076157
  0
LINE
  5
CCCC
  8
0
 10
4699.0201256457239651
 20
201.9078669730899094
 30
0.0
 11
4699.1709915836963773
 21
197.5891122005920124
 31
0.0
  0
ARC
  5
CCCD
  8
0
 10
4699.3515379066302557
 20
197.5874486359205946
 30
0.0
 40
0.1805539868644844
 50
179.472088183135611
 51
231.2417882807120009
  0
ARC
  5
CCCE
  8
0
 10
4639.4401747433021228
 20
169.9784110697405026
 30
0.0
 40
0.0627534908602325
 50
92.0765325595545079
 51
175.8922612772907996
  0
ARC
  5
CCCF
  8
0
 10
-1556.1672652300060236
 20
223.8958324832640869
 30
0.0
 40
6197.1177300808831205
 50
359.5342994384035933
 51
359.7541136872854963
  0
ARC
  5
CCD0
  8
0
 10
230685.0353232916968409
 20
-1054.3198993953699301
 30
0.0
 40
226047.8659986995044164
 50
179.6827509561875047
 51
179.6895925552076108
  0
ARC
  5
CCD1
  8
0
 10
4629.378688000632792
 20
186.5668099886269999
 30
0.0
 40
12.9221107182297992
 50
355.6732609252017028
 51
4.3792501983355079
  0
ARC
  5
CCD2
  8
0
 10
4654.5119190226596402
 20
186.5595197876259022
 30
0.0
 40
12.4072717609051608
 50
175.0580123770847933
 51
184.6589383595932077
  0
ARC
  5
CCD3
  8
0
 10
4642.9827672320443526
 20
185.6048404514033905
 30
0.0
 40
0.838806417719185
 50
183.6289341265974997
 51
199.3901711544484954
  0
ARC
  5
CCD4
  8
0
 10
4641.2325199290362434
 20
185.6503405728082896
 30
0.0
 40
1.033104719541063
 50
341.6610176668049803
 51
356.7578945953902121
  0
ARC
  5
CCD5
  8
0
 10
4642.2025293085180238
 20
185.3295095288507923
 30
0.0
 40
0.0114341785204256
 50
196.0028775553550986
 51
338.3239236840012722
  0
ARC
  5
CCD6
  8
0
 10
4642.8393594876315547
 20
187.5702290974384141
 30
0.0
 40
0.6910375345782312
 50
159.7793727996152882
 51
175.1737112114562933
  0
ARC
  5
CCD7
  8
0
 10
4641.3074354149121064
 20
187.5038744411006917
 30
0.0
 40
0.9569252829040291
 50
2.9735999200789212
 51
18.6301601899620906
  0
ARC
  5
CCD8
  8
0
 10
4642.2026344708547185
 20
187.8060494371405014
 30
0.0
 40
0.012107474941101
 50
16.9144900301214598
 51
165.5211555993176944
  0
ARC
  5
CCD9
  8
0
 10
4628.3957042262145478
 20
186.5689696401146023
 30
0.0
 40
13.76552537251054
 50
356.4021525822657281
 51
3.5563837795123519
  0
ARC
  5
CCDA
  8
0
 10
4640.2261743373783247
 20
173.5269501346917025
 30
0.0
 40
0.5195874433368298
 50
347.2918962020261802
 51
359.9132910260050267
  0
ARC
  5
CCDB
  8
0
 10
4640.0005173215868126
 20
173.6121766837540008
 30
0.0
 40
0.7592044906446258
 50
311.2828786210458247
 51
344.7630559325716035
  0
LINE
  5
CCDC
  8
0
 10
4699.2775824588206888
 20
197.4180003264347931
 30
0.0
 11
4697.7222648562601535
 21
197.3636874389526952
 31
0.0
  0
ARC
  5
CCDD
  8
0
 10
4697.7247443949772787
 20
197.3007558495789056
 30
0.0
 40
0.0629804180150544
 50
92.2563176674165817
 51
179.9381373750456987
  0
ARC
  5
CCDE
  8
0
 10
4697.9831631952383759
 20
197.3102620959814999
 30
0.0
 40
0.0624979768778426
 50
94.8319737030764145
 51
180.3658021843118888
  0
ARC
  5
CCDF
  8
0
 10
10893.0317807755691319
 20
223.8867528264021871
 30
0.0
 40
6195.4270600348381777
 50
180.2458694429118964
 51
180.4657436772918118
  0
ARC
  5
CCE0
  8
0
 10
-188321.6508362453896552
 20
-873.4510366511816528
 30
0.0
 40
193022.5414608480059542
 50
0.309828405349159
 51
0.3178405724853088
  0
ARC
  5
CCE1
  8
0
 10
4698.957663749675703
 20
201.9056850099566987
 30
0.0
 40
0.162499995250471
 50
3.361935215047791
 51
90.000001605984508
  0
LINE
  5
CCE2
  8
0
 10
4699.1198840837569151
 20
201.91521452557609
 30
0.0
 11
4699.2775824588206888
 21
197.448018177796996
 31
0.0
  0
ARC
  5
CCE3
  8
0
 10
4639.213449517558729
 20
197.5827528931681059
 30
0.0
 40
0.1708426942446075
 50
307.1653835502261813
 51
2.1354542074668852
  0
ARC
  5
CCE4
  8
0
 10
4699.0493362595470899
 20
201.842623945191491
 30
0.0
 40
0.1012244430037575
 50
0.3175782491457384
 51
45.8176237734405376
  0
LINE
  5
CCE5
  8
0
 10
4699.1505591476206973
 20
201.8431850077523961
 30
0.0
 11
4699.1504813205656319
 21
201.0484721481196004
 31
0.0
  0
ARC
  5
CCE6
  8
0
 10
4699.2399785709330899
 20
168.8485283987504886
 30
0.0
 40
0.0623919817734886
 50
179.9041096320187023
 51
268.0941907543192997
  0
LINE
  5
CCE7
  8
0
 10
4699.2379036311840537
 20
168.786170929152604
 30
0.0
 11
4699.2775824588206888
 21
168.7847850077525891
 31
0.0
  0
LINE
  5
CCE8
  8
0
 10
4699.1775824588212345
 20
169.9786614364525974
 30
0.0
 11
4699.1775866765374303
 21
168.8486328180873102
 31
0.0
  0
ARC
  5
CCE9
  8
0
 10
4698.3195784718873256
 20
170.3185719045414999
 30
0.0
 40
0.2510656167152961
 50
180.0740611716948081
 51
265.786071172625384
  0
LINE
  5
CCEA
  8
0
 10
4698.3011300081825539
 20
170.0681850077525894
 30
0.0
 11
4699.1172667319788161
 21
170.0411233515526988
 31
0.0
  0
ARC
  5
CCEB
  8
0
 10
4699.1151111458630112
 20
169.9786892329653938
 30
0.0
 40
0.0624713191414808
 50
359.9745063343531228
 51
88.0226044599922659
  0
ARC
  5
CCEC
  8
0
 10
4698.3448126750772644
 20
173.5287238364709026
 30
0.0
 40
0.53541234068159
 50
180.2739553251417988
 51
192.5208574468258007
  0
ARC
  5
CCED
  8
0
 10
4698.5543200515548961
 20
173.6120321782516953
 30
0.0
 40
0.7588478573263709
 50
195.2329704808275039
 51
228.7288829851979983
  0
LINE
  5
CCEE
  8
0
 10
4639.8921404588227233
 20
197.3965393930978109
 30
0.0
 11
4639.9049334626215568
 21
197.7628830903522896
 31
0.0
  0
LINE
  5
CCEF
  8
0
 10
4639.9049334626215568
 20
197.7628830903522896
 30
0.0
 11
4640.0305378083749019
 21
197.7584968899406874
 31
0.0
  0
ARC
  5
CCF0
  8
0
 10
4640.0283565898216693
 20
197.6960349632524014
 30
0.0
 40
0.0624999999999642
 50
1.999999999968149
 51
87.9999999918622109
  0
LINE
  5
CCF1
  8
0
 10
4640.0908185165208124
 20
197.6982161818559973
 30
0.0
 11
4640.1016087403222627
 21
197.3892245995523069
 31
0.0
  0
LINE
  5
CCF2
  8
0
 10
4698.6630306837632816
 20
197.3965397055586095
 30
0.0
 11
4698.6502376908765655
 21
197.7628830903522896
 31
0.0
  0
LINE
  5
CCF3
  8
0
 10
4698.6502376908765655
 20
197.7628830903522896
 30
0.0
 11
4698.5246333451250393
 21
197.7584968899406874
 31
0.0
  0
ARC
  5
CCF4
  8
0
 10
4698.5268145636773625
 20
197.6960349632524014
 30
0.0
 40
0.0624999999999642
 50
92.0000000081378033
 51
178.0000000000351008
  0
LINE
  5
CCF5
  8
0
 10
4698.4643526369773099
 20
197.6982161818559973
 30
0.0
 11
4698.4535624241152618
 21
197.3892249127480056
 31
0.0
  0
LINE
  5
CCF6
  8
0
 10
4647.504432774221641
 20
176.4037065799525976
 30
0.0
 11
4684.7177335765218231
 21
177.4822985565525926
 31
0.0
  0
ARC
  5
CCF7
  8
0
 10
4647.4727562887592285
 20
178.3986732666350008
 30
0.0
 40
1.9952181536624709
 50
194.3434480792174952
 51
270.9096775585537102
  0
ARC
  5
CCF8
  8
0
 10
4682.1979911577900566
 20
186.568184781539486
 30
0.0
 40
37.6681462400252727
 50
166.70273929392431
 51
193.2972605083317887
  0
ARC
  5
CCF9
  8
0
 10
4647.4331997673780279
 20
194.7640479112093033
 30
0.0
 40
1.9504299360142481
 50
87.9288609341048328
 51
166.1186577647711999
  0
ARC
  5
CCFA
  8
0
 10
4486.3814083074057635
 20
-6118.8206871958809643
 30
0.0
 40
6317.5888372163908571
 50
88.2009430911820971
 51
88.5385836322542872
  0
ARC
  5
CCFB
  8
0
 10
4684.5552997732756921
 20
193.6938218832630128
 30
0.0
 40
1.966963267637833
 50
15.1133307233274792
 51
85.2630879284989192
  0
ARC
  5
CCFC
  8
0
 10
4650.0253496125897072
 20
186.5681844764422124
 30
0.0
 40
37.2210923072983704
 50
348.1576691334848874
 51
11.8423299236489008
  0
ARC
  5
CCFD
  8
0
 10
4684.5557562636076909
 20
179.4419944499788073
 30
0.0
 40
1.9663785608600179
 50
274.7250026955553039
 51
344.8987286134405963
  0
ARC
  5
CCFE
  8
0
 10
4784.8575240885138555
 20
-16531.254727025039756
 30
0.0
 40
16706.3858357117205742
 50
90.328230625278195
 51
90.4745710485224066
  0
ARC
  5
CCFF
  8
0
 10
4689.2114954793896686
 20
176.9513133050469094
 30
0.0
 40
2.095181829677454
 50
268.3752409163784023
 51
328.9927493331408073
  0
ARC
  5
CD00
  8
0
 10
4657.7723202003226106
 20
186.5626795704982896
 30
0.0
 40
34.9120819264388231
 50
342.1685708018511036
 51
18.0883902936931591
  0
ARC
  5
CD01
  8
0
 10
4646.4901017936581411
 20
176.8147885160927899
 30
0.0
 40
2.2567604462015551
 50
196.7038593916666116
 51
269.8196221521416192
  0
ARC
  5
CD02
  8
0
 10
4678.8472939955581751
 20
186.4911663312007875
 30
0.0
 40
36.0298282644994003
 50
162.3718298697465912
 51
196.6526504941907945
  0
ARC
  5
CD03
  8
0
 10
4658.3942486516079953
 20
-18783.2041651133913547
 30
0.0
 40
18956.8211638201210008
 50
89.8992328014712854
 51
90.0374768776954539
  0
ARC
  5
CD04
  8
0
 10
4691.7745302839730357
 20
176.3840125746216927
 30
0.0
 40
2.7966257570938589
 50
269.1687977646625995
 51
332.9215325173815927
  0
ARC
  5
CD05
  8
0
 10
4656.8835360577131723
 20
186.5969410958572041
 30
0.0
 40
39.1059046923569369
 50
342.9195152176948795
 51
16.040123297469119
  0
ARC
  5
CD06
  8
0
 10
4645.9897877200019138
 20
176.0938525295815111
 30
0.0
 40
2.4809139094252179
 50
197.6675023686929933
 51
270.113200597177979
  0
ARC
  5
CD07
  8
0
 10
4678.0086777659998916
 20
186.5677870901164113
 30
0.0
 40
36.169308073802739
 50
162.5692839204970994
 51
198.0832055548792994
  0
ENDSEC
  0
EOF
