  0
SECTION
  2
HEADER
  9
$ACADVER
  1
AC1009
  9
$INSBASE
 10
4671.8509263333289709
 20
186.4644963467227115
 30
0.0
  9
$EXTMIN
 10
4641.8509232153992343
 20
186.4591121213796043
 30
0.0
  9
$EXTMAX
 10
4701.8509232154010533
 20
266.7951874924295907
 30
0.0
  9
$LIMMIN
 10
0.0
 20
0.0
  9
$LIMMAX
 10
11.6929133858000007
 20
8.2677165353999982
  9
$ORTHOMODE
 70
     1
  9
$REGENMODE
 70
     1
  9
$FILLMODE
 70
     1
  9
$QTEXTMODE
 70
     0
  9
$MIRRTEXT
 70
     0
  9
$DRAGMODE
 70
     2
  9
$LTSCALE
 40
0.6431102362
  9
$OSMODE
 70
  4095
  9
$ATTMODE
 70
     1
  9
$TEXTSIZE
 40
0.2
  9
$TRACEWID
 40
0.05
  9
$TEXTSTYLE
  7
STANDARD
  9
$CLAYER
  8
0
  9
$CELTYPE
  6
BYLAYER
  9
$CECOLOR
 62
   256
  9
$DIMSCALE
 40
1.0
  9
$DIMASZ
 40
0.1875
  9
$DIMEXO
 40
0.0625
  9
$DIMDLI
 40
0.4443307087
  9
$DIMRND
 40
0.0
  9
$DIMDLE
 40
0.0
  9
$DIMEXE
 40
0.125
  9
$DIMTP
 40
0.01
  9
$DIMTM
 40
0.01
  9
$DIMTXT
 40
2.0
  9
$DIMCEN
 40
0.1052362205
  9
$DIMTSZ
 40
0.0
  9
$DIMTOL
 70
     1
  9
$DIMLIM
 70
     0
  9
$DIMTIH
 70
     1
  9
$DIMTOH
 70
     1
  9
$DIMSE1
 70
     0
  9
$DIMSE2
 70
     0
  9
$DIMTAD
 70
     0
  9
$DIMZIN
 70
     0
  9
$DIMBLK
  1

  9
$DIMASO
 70
     1
  9
$DIMSHO
 70
     1
  9
$DIMPOST
  1
\X
  9
$DIMAPOST
  1

  9
$DIMALT
 70
     1
  9
$DIMALTD
 70
     2
  9
$DIMALTF
 40
25.3999999999999986
  9
$DIMLFAC
 40
1.0
  9
$DIMTOFL
 70
     0
  9
$DIMTVP
 40
0.0
  9
$DIMTIX
 70
     0
  9
$DIMSOXD
 70
     0
  9
$DIMSAH
 70
     0
  9
$DIMBLK1
  1

  9
$DIMBLK2
  1

  9
$DIMSTYLE
  2
STANDARD
  9
$DIMCLRD
 70
     0
  9
$DIMCLRE
 70
     0
  9
$DIMCLRT
 70
     0
  9
$DIMTFAC
 40
1.0
  9
$DIMGAP
 40
0.09
  9
$LUNITS
 70
     2
  9
$LUPREC
 70
     4
  9
$SKETCHINC
 40
0.1
  9
$FILLETRAD
 40
0.0
  9
$AUNITS
 70
     0
  9
$AUPREC
 70
     0
  9
$MENU
  1
.
  9
$ELEVATION
 40
0.0
  9
$PELEVATION
 40
0.0
  9
$THICKNESS
 40
0.0
  9
$LIMCHECK
 70
     0
  9
$BLIPMODE
 70
     0
  9
$CHAMFERA
 40
0.0
  9
$CHAMFERB
 40
0.0
  9
$SKPOLY
 70
     0
  9
$TDCREATE
 40
2458060.468368056230247
  9
$TDUPDATE
 40
2459179.4416203708387911
  9
$TDINDWG
 40
0.3461876157
  9
$TDUSRTIMER
 40
0.3461876157
  9
$USRTIMER
 70
     1
  9
$ANGBASE
 50
0.0
  9
$ANGDIR
 70
     0
  9
$PDMODE
 70
     0
  9
$PDSIZE
 40
0.3125
  9
$PLINEWID
 40
0.0
  9
$COORDS
 70
     1
  9
$SPLFRAME
 70
     0
  9
$SPLINETYPE
 70
     6
  9
$SPLINESEGS
 70
     8
  9
$ATTDIA
 70
     1
  9
$ATTREQ
 70
     1
  9
$HANDLING
 70
     1
  9
$HANDSEED
  5
DA91
  9
$SURFTAB1
 70
     6
  9
$SURFTAB2
 70
     6
  9
$SURFTYPE
 70
     6
  9
$SURFU
 70
     6
  9
$SURFV
 70
     6
  9
$UCSNAME
  2

  9
$UCSORG
 10
0.0
 20
0.0
 30
0.0
  9
$UCSXDIR
 10
1.0
 20
0.0
 30
0.0
  9
$UCSYDIR
 10
0.0
 20
1.0
 30
0.0
  9
$PUCSNAME
  2

  9
$PUCSORG
 10
0.0
 20
0.0
 30
0.0
  9
$PUCSXDIR
 10
1.0
 20
0.0
 30
0.0
  9
$PUCSYDIR
 10
0.0
 20
1.0
 30
0.0
  9
$USERI1
 70
     0
  9
$USERI2
 70
     0
  9
$USERI3
 70
     0
  9
$USERI4
 70
     0
  9
$USERI5
 70
     0
  9
$USERR1
 40
0.0
  9
$USERR2
 40
0.0
  9
$USERR3
 40
0.0
  9
$USERR4
 40
0.0
  9
$USERR5
 40
0.0
  9
$WORLDVIEW
 70
     1
  9
$SHADEDGE
 70
     3
  9
$SHADEDIF
 70
    70
  9
$TILEMODE
 70
     1
  9
$MAXACTVP
 70
    64
  9
$PLIMCHECK
 70
     0
  9
$PEXTMIN
 10
1.0000000000000000E+20
 20
1.0000000000000000E+20
 30
1.0000000000000000E+20
  9
$PEXTMAX
 10
-1.0000000000000000E+20
 20
-1.0000000000000000E+20
 30
-1.0000000000000000E+20
  9
$PLIMMIN
 10
0.0
 20
0.0
  9
$PLIMMAX
 10
12.0
 20
9.0
  9
$UNITMODE
 70
     0
  9
$VISRETAIN
 70
     1
  9
$PLINEGEN
 70
     0
  9
$PSLTSCALE
 70
     1
  0
ENDSEC
  0
SECTION
  2
TABLES
  0
TABLE
  2
VPORT
 70
     1
  0
VPORT
  2
*ACTIVE
 70
     0
 10
0.0
 20
0.0
 11
1.0
 21
1.0
 12
0.0
 22
0.0
 13
0.0
 23
0.0
 14
1.0
 24
1.0
 15
0.0
 25
0.0
 16
0.0
 26
0.0
 36
284.1100697398057946
 17
4671.8510742187490905
 27
226.6271543272914073
 37
0.0
 40
100.3160501282914936
 41
2.1186252771618621
 42
50.0
 43
0.0
 44
0.0
 50
0.0
 51
0.0
 71
     0
 72
   100
 73
     1
 74
     1
 75
     0
 76
     0
 77
     0
 78
     0
  0
ENDTAB
  0
TABLE
  2
LTYPE
 70
     2
  0
LTYPE
  2
CONTINUOUS
 70
     0
  3
Solid line
 72
    65
 73
     0
 40
0.0
  0
LTYPE
  2
PHANTOM2
 70
     0
  3
___ _ _ ___ _ _ ___ _ _ ___ _ _
 72
    65
 73
     6
 40
1.25
 49
0.625
 49
-0.125
 49
0.125
 49
-0.125
 49
0.125
 49
-0.125
  0
ENDTAB
  0
TABLE
  2
LAYER
 70
     2
  0
LAYER
  2
0
 70
     0
 62
   255
  6
CONTINUOUS
  0
LAYER
  2
DEFPOINTS
 70
     0
 62
     7
  6
CONTINUOUS
  0
ENDTAB
  0
TABLE
  2
STYLE
 70
     1
  0
STYLE
  2
STANDARD
 70
     0
 40
0.0
 41
0.8
 50
0.0
 71
     0
 42
0.2
  3
txt
  4

  0
ENDTAB
  0
TABLE
  2
VIEW
 70
     0
  0
ENDTAB
  0
TABLE
  2
UCS
 70
     0
  0
ENDTAB
  0
TABLE
  2
APPID
 70
     9
  0
APPID
  2
ACAD
 70
     0
  0
APPID
  2
ACAD_MLEADERVER
 70
     0
  0
APPID
  2
ACAD_EXEMPT_FROM_CAD_STANDARDS
 70
     0
  0
APPID
  2
ACAD_NAV_VCDISPLAY
 70
     0
  0
APPID
  2
ACAECLAYERSTANDARD
 70
     0
  0
APPID
  2
ACCMTRANSPARENCY
 70
     0
  0
APPID
  2
ACAD_DSTYLE_DIMJAG
 70
     0
  0
APPID
  2
ACAD_DSTYLE_DIMTALN
 70
     0
  0
APPID
  2
ACDBATTR
 70
     0
  0
ENDTAB
  0
TABLE
  2
DIMSTYLE
 70
     1
  0
DIMSTYLE
  2
STANDARD
 70
     0
  3

  4

  5

  6

  7

 40
1.0
 41
0.1875
 42
0.0625
 43
0.38
 44
0.125
 45
0.0
 46
0.0
 47
0.01
 48
0.01
140
0.15625
141
0.09
142
0.0
143
25.3999999999999986
144
1.0
145
0.0
146
1.0
147
0.09
 71
     1
 72
     0
 73
     1
 74
     1
 75
     0
 76
     0
 77
     0
 78
     4
170
     0
171
     2
172
     0
173
     0
174
     0
175
     0
176
     0
177
     0
178
     0
  0
ENDTAB
  0
ENDSEC
  0
SECTION
  2
BLOCKS
  0
BLOCK
  8
0
  2
$MODEL_SPACE
 70
     0
 10
0.0
 20
0.0
 30
0.0
  3
$MODEL_SPACE
  1

  0
ENDBLK
  5
21
  8
0
  0
BLOCK
 67
     1
  8
0
  2
$PAPER_SPACE
 70
     0
 10
0.0
 20
0.0
 30
0.0
  3
$PAPER_SPACE
  1

  0
ENDBLK
  5
1D
 67
     1
  8
0
  0
ENDSEC
  0
SECTION
  2
ENTITIES
  0
ATTDEF
  5
3930
  8
DEFPOINTS
 10
4671.8457648289522695
 20
186.4624454547129915
 30
0.0
 40
0.001
  1
71520118
  3

  2
MODELNUMBER
 70
     0
1001
ACDBATTR
1070
     0
1070
     1
  0
ATTDEF
  5
3931
  8
DEFPOINTS
 10
4671.8457648289522695
 20
186.4607787880462979
 30
0.0
 40
0.001
  1
TRAVERSE
  3

  2
TRADENAME
 70
     0
1001
ACDBATTR
1070
     0
1070
     1
  0
ATTDEF
  5
3932
  8
DEFPOINTS
 10
4671.8457648289522695
 20
186.4591121213796043
 30
0.0
 40
0.001
  1
BATH AND WALL SURROUND
  3

  2
PRODUCT
 70
     0
1001
ACDBATTR
1070
     0
1070
     1
  0
LINE
  5
D316
  8
0
 10
4642.0398363058320683
 20
208.4734963467228113
 30
0.0
 11
4701.6620128477306935
 21
208.4734963467228113
 31
0.0
  0
LINE
  5
D317
  8
0
 10
4643.6834201144829422
 20
206.4561196975211885
 30
0.0
 11
4700.0184290390780006
 21
206.4560948685875985
 31
0.0
  0
ARC
  5
D318
  8
0
 10
4700.0097553455461821
 20
207.0884568159943058
 30
0.0
 40
0.6324214302879443
 50
270.7858392991759047
 51
358.1756215621904857
  0
LINE
  5
D319
  8
0
 10
4701.6316814874007832
 20
208.4734963467228113
 30
0.0
 11
4701.6485458732995539
 21
208.9564291742227908
 31
0.0
  0
LINE
  5
D31A
  8
0
 10
4701.6485458732995539
 20
208.9564291742227908
 30
0.0
 11
4701.7875337072009643
 21
208.961282736322687
 31
0.0
  0
ARC
  5
D31B
  8
0
 10
4700.8117818156715657
 20
208.3484224861227005
 30
0.0
 40
0.125154397011138
 50
92.0555785455047442
 51
178.611457473621499
  0
LINE
  5
D31C
  8
0
 10
4700.6866641695605722
 20
208.351455260852191
 30
0.0
 11
4700.6418562046483203
 21
207.0683230281914859
 31
0.0
  0
ARC
  5
D31D
  8
0
 10
4701.7882949878276122
 20
209.0239063605160084
 30
0.0
 40
0.0626282512552443
 50
269.3035213285232885
 51
359.9501720470768191
  0
ARC
  5
D31E
  8
0
 10
4701.8134261975501431
 20
266.7216651799374745
 30
0.0
 40
0.0625002593878911
 50
93.0027251197435447
 51
179.9999051321223931
  0
CIRCLE
  5
D31F
  8
0
 10
4701.1009259381617085
 20
266.295572346722679
 30
0.0
 40
0.09375
  0
CIRCLE
  5
D320
  8
0
 10
4700.3509259381617085
 20
266.295572346722679
 30
0.0
 40
0.09375
  0
CIRCLE
  5
D321
  8
0
 10
4699.6009259381617085
 20
266.295572346722679
 30
0.0
 40
0.09375
  0
CIRCLE
  5
D322
  8
0
 10
4698.8509259381617085
 20
266.295572346722679
 30
0.0
 40
0.09375
  0
CIRCLE
  5
D323
  8
0
 10
4698.1009259381617085
 20
266.295572346722679
 30
0.0
 40
0.09375
  0
CIRCLE
  5
D324
  8
0
 10
4697.3509259381617085
 20
266.295572346722679
 30
0.0
 40
0.09375
  0
CIRCLE
  5
D325
  8
0
 10
4696.6009259381617085
 20
266.295572346722679
 30
0.0
 40
0.09375
  0
CIRCLE
  5
D326
  8
0
 10
4695.8509259381617085
 20
266.295572346722679
 30
0.0
 40
0.09375
  0
CIRCLE
  5
D327
  8
0
 10
4695.1009259381617085
 20
266.295572346722679
 30
0.0
 40
0.09375
  0
CIRCLE
  5
D328
  8
0
 10
4694.3509259381617085
 20
266.295572346722679
 30
0.0
 40
0.09375
  0
CIRCLE
  5
D329
  8
0
 10
4693.6009259381617085
 20
266.295572346722679
 30
0.0
 40
0.09375
  0
CIRCLE
  5
D32A
  8
0
 10
4692.8509259381617085
 20
266.295572346722679
 30
0.0
 40
0.09375
  0
CIRCLE
  5
D32B
  8
0
 10
4692.1009259381617085
 20
266.295572346722679
 30
0.0
 40
0.09375
  0
CIRCLE
  5
D32C
  8
0
 10
4691.3509259381617085
 20
266.295572346722679
 30
0.0
 40
0.09375
  0
CIRCLE
  5
D32D
  8
0
 10
4690.6009259381617085
 20
266.295572346722679
 30
0.0
 40
0.09375
  0
CIRCLE
  5
D32E
  8
0
 10
4689.8509259381617085
 20
266.295572346722679
 30
0.0
 40
0.09375
  0
CIRCLE
  5
D32F
  8
0
 10
4689.1009259381617085
 20
266.295572346722679
 30
0.0
 40
0.09375
  0
CIRCLE
  5
D330
  8
0
 10
4688.3509259381617085
 20
266.295572346722679
 30
0.0
 40
0.09375
  0
CIRCLE
  5
D331
  8
0
 10
4687.6009259381617085
 20
266.295572346722679
 30
0.0
 40
0.09375
  0
CIRCLE
  5
D332
  8
0
 10
4686.8509259381617085
 20
266.295572346722679
 30
0.0
 40
0.09375
  0
CIRCLE
  5
D333
  8
0
 10
4686.1009259381617085
 20
266.295572346722679
 30
0.0
 40
0.09375
  0
CIRCLE
  5
D334
  8
0
 10
4685.3509259381617085
 20
266.295572346722679
 30
0.0
 40
0.09375
  0
CIRCLE
  5
D335
  8
0
 10
4684.6009259381617085
 20
266.295572346722679
 30
0.0
 40
0.09375
  0
CIRCLE
  5
D336
  8
0
 10
4683.8509259381617085
 20
266.295572346722679
 30
0.0
 40
0.09375
  0
CIRCLE
  5
D337
  8
0
 10
4683.1009259381617085
 20
266.295572346722679
 30
0.0
 40
0.09375
  0
CIRCLE
  5
D338
  8
0
 10
4682.350925938162618
 20
266.295572346722679
 30
0.0
 40
0.09375
  0
CIRCLE
  5
D339
  8
0
 10
4681.600925938162618
 20
266.295572346722679
 30
0.0
 40
0.09375
  0
CIRCLE
  5
D33A
  8
0
 10
4680.8509259381617085
 20
266.295572346722679
 30
0.0
 40
0.09375
  0
CIRCLE
  5
D33B
  8
0
 10
4671.8509259382626624
 20
266.295572346722679
 30
0.0
 40
0.09375
  0
CIRCLE
  5
D33C
  8
0
 10
4672.6009259382626624
 20
266.295572346722679
 30
0.0
 40
0.09375
  0
CIRCLE
  5
D33D
  8
0
 10
4673.3509259382626624
 20
266.295572346722679
 30
0.0
 40
0.09375
  0
CIRCLE
  5
D33E
  8
0
 10
4674.1009259382626624
 20
266.295572346722679
 30
0.0
 40
0.09375
  0
CIRCLE
  5
D33F
  8
0
 10
4674.8509259382626624
 20
266.295572346722679
 30
0.0
 40
0.09375
  0
CIRCLE
  5
D340
  8
0
 10
4675.6009259382626624
 20
266.295572346722679
 30
0.0
 40
0.09375
  0
CIRCLE
  5
D341
  8
0
 10
4676.3509259382626624
 20
266.295572346722679
 30
0.0
 40
0.09375
  0
CIRCLE
  5
D342
  8
0
 10
4677.1009259382626624
 20
266.295572346722679
 30
0.0
 40
0.09375
  0
CIRCLE
  5
D343
  8
0
 10
4677.8509259382626624
 20
266.295572346722679
 30
0.0
 40
0.09375
  0
CIRCLE
  5
D344
  8
0
 10
4678.6009259382626624
 20
266.295572346722679
 30
0.0
 40
0.09375
  0
CIRCLE
  5
D345
  8
0
 10
4679.3509259382617529
 20
266.295572346722679
 30
0.0
 40
0.09375
  0
CIRCLE
  5
D346
  8
0
 10
4680.1009259382617529
 20
266.295572346722679
 30
0.0
 40
0.09375
  0
LINE
  5
D347
  8
0
 10
4642.1708419290998791
 20
266.7951874924228264
 30
0.0
 11
4701.5310072244619732
 21
266.7951874924295907
 31
0.0
  0
ARC
  5
D348
  8
0
 10
4701.3108455861438415
 20
253.5045489167106894
 30
0.0
 40
13.2924619577110192
 50
88.4086282997297985
 51
89.0509726832245718
  0
ARC
  5
D349
  8
0
 10
4701.6728323745810485
 20
266.7270134127288088
 30
0.0
 40
0.0652645652224314
 50
73.1601983280703649
 51
83.7019390295574652
  0
ARC
  5
D34A
  8
0
 10
4701.6907497841211807
 20
266.7861567645683749
 30
0.0
 40
0.0034667890539801
 50
23.8051489340712301
 51
73.4154948619710552
  0
LINE
  5
D34B
  8
0
 10
4701.693921630546356
 20
266.7875560560310078
 30
0.0
 11
4701.7509259381940865
 21
266.6920364591907742
 31
0.0
  0
ARC
  5
D34C
  8
0
 10
4701.6881826523067502
 20
265.5891737249899052
 30
0.0
 40
0.0631070482025065
 50
273.193582506546818
 51
353.8451755204021083
  0
LINE
  5
D34D
  8
0
 10
4701.6916983253231592
 20
265.5261646813046923
 30
0.0
 11
4700.931307493746317
 21
265.486303835722083
 31
0.0
  0
ARC
  5
D34E
  8
0
 10
4700.9448833993046719
 20
265.2285035843942183
 30
0.0
 40
0.2581574612450347
 50
93.0144433970347251
 51
180.0016063375441036
  0
LINE
  5
D34F
  8
0
 10
4700.686725938163363
 20
265.2284963467228067
 30
0.0
 11
4700.686725938163363
 21
208.5984963467228113
 31
0.0
  0
ARC
  5
D350
  8
0
 10
4700.8118661801554481
 20
208.5985529991502858
 30
0.0
 40
0.1251402548152468
 50
180.0259384569503993
 51
267.9055372812507017
  0
LINE
  5
D351
  8
0
 10
4643.0151259381627824
 20
265.2284963467228067
 30
0.0
 11
4700.686725938163363
 21
265.2284963467228067
 31
0.0
  0
ARC
  5
D352
  8
0
 10
4702.0978642218724417
 20
264.8218300211348151
 30
0.0
 40
1.6165649126030699
 50
166.0368440684484028
 51
178.7003171073774013
  0
LINE
  5
D353
  8
0
 10
4700.4817151950473999
 20
264.8584966238635161
 30
0.0
 11
4700.4817151943625504
 21
263.0304938467227203
 31
0.0
  0
ARC
  5
D354
  8
0
 10
4702.0995090009555497
 20
263.0673777659479242
 30
0.0
 40
1.618214208364283
 50
181.3060544878958069
 51
193.9566661938889069
  0
ARC
  5
D355
  8
0
 10
4690.1929276889795801
 20
265.1271142136055232
 30
0.0
 40
0.082590736034968
 50
98.7086293287310923
 51
176.0578882937666947
  0
LINE
  5
D356
  8
0
 10
4690.1804226507620115
 20
265.2087527688227055
 30
0.0
 11
4697.3215325826622575
 21
265.2112353204225883
 31
0.0
  0
ARC
  5
D357
  8
0
 10
4697.3122646316132887
 20
265.125788951640402
 30
0.0
 40
0.0859475238429649
 50
4.6549835224746277
 51
83.8096064398093432
  0
LINE
  5
D358
  8
0
 10
4697.3979286538624365
 20
265.1327640607227067
 30
0.0
 11
4697.3979195087622429
 21
262.7561954655117233
 31
0.0
  0
ARC
  5
D359
  8
0
 10
4697.3156851976409598
 20
262.7617253309659873
 30
0.0
 40
0.0824200299533133
 50
278.6135839955027791
 51
356.1529236846308208
  0
LINE
  5
D35A
  8
0
 10
4697.3280292256631583
 20
262.6802349247225834
 30
0.0
 11
4690.1869193008624279
 21
262.6777523730227131
 31
0.0
  0
ARC
  5
D35B
  8
0
 10
4690.196181374389198
 20
262.7631930267294251
 30
0.0
 40
0.0859412084614658
 50
184.6514972331663103
 51
263.813091192919785
  0
LINE
  5
D35C
  8
0
 10
4690.1105232224626889
 20
262.7562236422227215
 30
0.0
 11
4690.1105323610627238
 21
265.1327922076227992
 31
0.0
  0
ARC
  5
D35D
  8
0
 10
4697.4917908553816233
 20
265.1322657459538732
 30
0.0
 40
0.0796300539901669
 50
89.0823246575048557
 51
183.0096542621313063
  0
LINE
  5
D35E
  8
0
 10
4697.4930661921243882
 20
265.2118855865381875
 30
0.0
 11
4700.5290670345621038
 21
265.2119037343632044
 31
0.0
  0
LINE
  5
D35F
  8
0
 10
4700.5290670351760127
 20
262.6770839583228963
 30
0.0
 11
4697.4932144358099322
 21
262.676949980881318
 31
0.0
  0
ARC
  5
D360
  8
0
 10
4697.4919749767032044
 20
262.7568198312907271
 30
0.0
 40
0.0798794670943839
 50
177.0077559573169026
 51
270.8890723521359973
  0
LINE
  5
D361
  8
0
 10
4697.412204416462373
 20
262.7609896013225921
 30
0.0
 11
4697.4122706349617147
 21
265.1280848318227754
 31
0.0
  0
LINE
  5
D362
  8
0
 10
4701.7509259381631637
 20
266.7216652834226807
 30
0.0
 11
4701.750925939384615
 21
265.5824076730060028
 31
0.0
  0
LINE
  5
D363
  8
0
 10
4643.9646214376707576
 20
238.991795630193792
 30
0.0
 11
4699.7372277158920042
 21
238.991795630193792
 31
0.0
  0
LINE
  5
D364
  8
0
 10
4643.2078374331003943
 20
237.708237115343394
 30
0.0
 11
4700.4940117204623675
 21
237.7082369523604939
 31
0.0
  0
LINE
  5
D365
  8
0
 10
4701.8509232154010533
 20
266.7862163467225969
 30
0.0
 11
4701.8509232154010533
 21
209.0238518951227036
 31
0.0
  0
ARC
  5
D366
  8
0
 10
4699.6758220312258345
 20
239.7779461005322048
 30
0.0
 40
0.7885450019640446
 50
274.4662665479622206
 51
356.3564961187436211
  0
ARC
  5
D367
  8
0
 10
4700.1165060989778794
 20
233.9471359559537973
 30
0.0
 40
3.3030006539860381
 50
82.7482021412328237
 51
90.264925923434447
  0
LINE
  5
D368
  8
0
 10
4646.2965662570313725
 20
265.5355579066227847
 30
0.0
 11
4697.4052828965313893
 21
265.5355579066227847
 31
0.0
  0
ARC
  5
D369
  8
0
 10
4697.7522075812003095
 20
289.4138458974347259
 30
0.0
 40
23.8808080706870207
 50
269.1676152912262978
 51
276.0910459019810901
  0
ARC
  5
D36A
  8
0
 10
4701.3149720818928472
 20
260.780489850666811
 30
0.0
 40
4.9944754157260043
 50
93.027479627221453
 51
101.887360060737393
  0
ARC
  5
D36B
  8
0
 10
13530.6167776177007909
 20
-167891.2149888048006687
 30
0.0
 40
168388.6342796013050247
 50
93.0055546351912596
 51
93.0057192370183543
  0
ARC
  5
D36C
  8
0
 10
4701.5309210284613073
 20
265.8558179862704947
 30
0.0
 40
0.0625483017807696
 50
273.0767498460432989
 51
359.8532436870183915
  0
LINE
  5
D36D
  8
0
 10
4701.5934691250622564
 20
265.8556577764226745
 30
0.0
 11
4701.5934691250622564
 21
266.7257328297226877
 31
0.0
  0
ARC
  5
D36E
  8
0
 10
4701.6643563245197583
 20
266.7220497191577806
 30
0.0
 40
0.0709828172892516
 50
96.8168032733122459
 51
177.0257379894295013
  0
LINE
  5
D36F
  8
0
 10
4701.8070544838974456
 20
186.4644963467227115
 30
0.0
 11
4701.8070534649996262
 21
208.2735129597076025
 31
0.0
  0
ARC
  5
D370
  8
0
 10
4701.7346283444330766
 20
208.2929963473839905
 30
0.0
 40
0.0750000032306652
 50
344.9430809952243067
 51
357.9987814878639938
  0
LINE
  5
D371
  8
0
 10
4701.7079282843424153
 20
208.958502853706392
 30
0.0
 11
4701.6919928157440154
 21
208.5024487244149043
 31
0.0
  0
ARC
  5
D372
  8
0
 10
4701.6620111131132944
 20
208.503496346758709
 30
0.0
 40
0.0300000000861011
 50
270.0033128757762029
 51
357.9987818373584787
  0
ARC
  5
D373
  8
0
 10
4682.8918276889808112
 20
265.1271142136055232
 30
0.0
 40
0.082590736034968
 50
98.7086293287310923
 51
176.0578882937666947
  0
LINE
  5
D374
  8
0
 10
4682.8793226507614236
 20
265.2087527688227055
 30
0.0
 11
4690.0204325826616696
 21
265.2112353204225883
 31
0.0
  0
ARC
  5
D375
  8
0
 10
4690.0111646316117913
 20
265.125788951640402
 30
0.0
 40
0.0859475238429649
 50
4.6549835224746277
 51
83.8096064398093432
  0
LINE
  5
D376
  8
0
 10
4690.0968286538627581
 20
265.1327640607227067
 30
0.0
 11
4690.096819508761655
 21
262.7561954655117233
 31
0.0
  0
ARC
  5
D377
  8
0
 10
4690.0145851976403719
 20
262.7617253309659873
 30
0.0
 40
0.0824200299533133
 50
278.6135839955027791
 51
356.1529236846308208
  0
LINE
  5
D378
  8
0
 10
4690.0269292256616609
 20
262.6802349247225834
 30
0.0
 11
4682.8858193008627495
 21
262.6777523730227131
 31
0.0
  0
ARC
  5
D379
  8
0
 10
4682.8950813743886101
 20
262.7631930267294251
 30
0.0
 40
0.0859412084614658
 50
184.6514972331663103
 51
263.813091192919785
  0
LINE
  5
D37A
  8
0
 10
4682.809423222462101
 20
262.7562236422227215
 30
0.0
 11
4682.8094323610621359
 21
265.1327922076227992
 31
0.0
  0
ARC
  5
D37B
  8
0
 10
4675.5907276889793138
 20
265.1271142136055232
 30
0.0
 40
0.082590736034968
 50
98.7086293287310923
 51
176.0578882937666947
  0
LINE
  5
D37C
  8
0
 10
4675.5782226507617452
 20
265.2087527688227055
 30
0.0
 11
4682.7193325826629007
 21
265.2112353204225883
 31
0.0
  0
ARC
  5
D37D
  8
0
 10
4682.7100646316130224
 20
265.125788951640402
 30
0.0
 40
0.0859475238429649
 50
4.6549835224746277
 51
83.8096064398093432
  0
LINE
  5
D37E
  8
0
 10
4682.7957286538621702
 20
265.1327640607227067
 30
0.0
 11
4682.7957195087628861
 21
262.7561954655117233
 31
0.0
  0
ARC
  5
D37F
  8
0
 10
4682.713485197639784
 20
262.7617253309659873
 30
0.0
 40
0.0824200299533133
 50
278.6135839955027791
 51
356.1529236846308208
  0
LINE
  5
D380
  8
0
 10
4682.7258292256619825
 20
262.6802349247225834
 30
0.0
 11
4675.5847193008621616
 21
262.6777523730227131
 31
0.0
  0
ARC
  5
D381
  8
0
 10
4675.5939813743889317
 20
262.7631930267294251
 30
0.0
 40
0.0859412084614658
 50
184.6514972331663103
 51
263.813091192919785
  0
LINE
  5
D382
  8
0
 10
4675.5083232224624226
 20
262.7562236422227215
 30
0.0
 11
4675.508332361061548
 21
265.1327922076227992
 31
0.0
  0
ARC
  5
D383
  8
0
 10
4671.9401776889808389
 20
262.5790642136054203
 30
0.0
 40
0.082590736034968
 50
98.7086293287310923
 51
176.0578882937666947
  0
LINE
  5
D384
  8
0
 10
4671.9276726507623607
 20
262.6607027688227163
 30
0.0
 11
4679.0687825826626067
 21
262.6631853204227127
 31
0.0
  0
ARC
  5
D385
  8
0
 10
4679.0595146316127284
 20
262.5777389516404128
 30
0.0
 40
0.0859475238429649
 50
4.6549835224746277
 51
83.8096064398093432
  0
LINE
  5
D386
  8
0
 10
4679.1451786538627857
 20
262.5847140607227175
 30
0.0
 11
4679.1451695087616827
 21
260.2081454655117909
 31
0.0
  0
ARC
  5
D387
  8
0
 10
4679.0629351976413091
 20
260.213675330965998
 30
0.0
 40
0.0824200299533133
 50
278.6135839955027791
 51
356.1529236846308208
  0
LINE
  5
D388
  8
0
 10
4679.075279225662598
 20
260.1321849247227078
 30
0.0
 11
4671.9341693008627772
 21
260.1297023730227238
 31
0.0
  0
ARC
  5
D389
  8
0
 10
4671.9434313743886378
 20
260.215143026729379
 30
0.0
 40
0.0859412084614658
 50
184.6514972331663103
 51
263.813091192919785
  0
LINE
  5
D38A
  8
0
 10
4671.8577732224621286
 20
260.2081736422226754
 30
0.0
 11
4671.8577823610621635
 21
262.5847422076228099
 31
0.0
  0
ARC
  5
D38B
  8
0
 10
4679.2412776889796078
 20
262.5790642136054203
 30
0.0
 40
0.082590736034968
 50
98.7086293287310923
 51
176.0578882937666947
  0
LINE
  5
D38C
  8
0
 10
4679.2287726507620391
 20
262.6607027688227163
 30
0.0
 11
4686.3698825826622851
 21
262.6631853204227127
 31
0.0
  0
ARC
  5
D38D
  8
0
 10
4686.3606146316133163
 20
262.5777389516404128
 30
0.0
 40
0.0859475238429649
 50
4.6549835224746277
 51
83.8096064398093432
  0
LINE
  5
D38E
  8
0
 10
4686.4462786538615546
 20
262.5847140607227175
 30
0.0
 11
4686.4462695087622706
 21
260.2081454655117909
 31
0.0
  0
ARC
  5
D38F
  8
0
 10
4686.364035197640078
 20
260.213675330965998
 30
0.0
 40
0.0824200299533133
 50
278.6135839955027791
 51
356.1529236846308208
  0
LINE
  5
D390
  8
0
 10
4686.3763792256631859
 20
260.1321849247227078
 30
0.0
 11
4679.2352693008615461
 21
260.1297023730227238
 31
0.0
  0
ARC
  5
D391
  8
0
 10
4679.2445313743892257
 20
260.215143026729379
 30
0.0
 40
0.0859412084614658
 50
184.6514972331663103
 51
263.813091192919785
  0
LINE
  5
D392
  8
0
 10
4679.158873222461807
 20
260.2081736422226754
 30
0.0
 11
4679.1588823610627514
 21
262.5847422076228099
 31
0.0
  0
ARC
  5
D393
  8
0
 10
4686.5423776889801957
 20
262.5790642136054203
 30
0.0
 40
0.082590736034968
 50
98.7086293287310923
 51
176.0578882937666947
  0
LINE
  5
D394
  8
0
 10
4686.5298726507617175
 20
262.6607027688227163
 30
0.0
 11
4693.670982582662873
 21
262.6631853204227127
 31
0.0
  0
ARC
  5
D395
  8
0
 10
4693.6617146316129947
 20
262.5777389516404128
 30
0.0
 40
0.0859475238429649
 50
4.6549835224746277
 51
83.8096064398093432
  0
LINE
  5
D396
  8
0
 10
4693.747378653863052
 20
262.5847140607227175
 30
0.0
 11
4693.7473695087628585
 21
260.2081454655117909
 31
0.0
  0
ARC
  5
D397
  8
0
 10
4693.6651351976397564
 20
260.213675330965998
 30
0.0
 40
0.0824200299533133
 50
278.6135839955027791
 51
356.1529236846308208
  0
LINE
  5
D398
  8
0
 10
4693.6774792256619548
 20
260.1321849247227078
 30
0.0
 11
4686.5363693008630435
 21
260.1297023730227238
 31
0.0
  0
ARC
  5
D399
  8
0
 10
4686.5456313743879946
 20
260.215143026729379
 30
0.0
 40
0.0859412084614658
 50
184.6514972331663103
 51
263.813091192919785
  0
LINE
  5
D39A
  8
0
 10
4686.4599732224623949
 20
260.2081736422226754
 30
0.0
 11
4686.4599823610624298
 21
262.5847422076228099
 31
0.0
  0
ARC
  5
D39B
  8
0
 10
4675.5907276889793138
 20
260.0310142136053742
 30
0.0
 40
0.082590736034968
 50
98.7086293287310923
 51
176.0578882937666947
  0
LINE
  5
D39C
  8
0
 10
4675.5782226507617452
 20
260.112652768822727
 30
0.0
 11
4682.7193325826629007
 21
260.1151353204226098
 31
0.0
  0
ARC
  5
D39D
  8
0
 10
4682.7100646316130224
 20
260.0296889516404235
 30
0.0
 40
0.0859475238429649
 50
4.6549835224746277
 51
83.8096064398093432
  0
LINE
  5
D39E
  8
0
 10
4682.7957286538621702
 20
260.0366640607227282
 30
0.0
 11
4682.7957195087628861
 21
257.6600954655118016
 31
0.0
  0
ARC
  5
D39F
  8
0
 10
4682.713485197639784
 20
257.6656253309660087
 30
0.0
 40
0.0824200299533133
 50
278.6135839955027791
 51
356.1529236846308208
  0
LINE
  5
D3A0
  8
0
 10
4682.7258292256619825
 20
257.5841349247227186
 30
0.0
 11
4675.5847193008621616
 21
257.5816523730226777
 31
0.0
  0
ARC
  5
D3A1
  8
0
 10
4675.5939813743889317
 20
257.6670930267293897
 30
0.0
 40
0.0859412084614658
 50
184.6514972331663103
 51
263.813091192919785
  0
LINE
  5
D3A2
  8
0
 10
4675.5083232224624226
 20
257.6601236422225725
 30
0.0
 11
4675.508332361061548
 21
260.036692207622707
 31
0.0
  0
ARC
  5
D3A3
  8
0
 10
4682.8918276889808112
 20
260.0310142136053742
 30
0.0
 40
0.082590736034968
 50
98.7086293287310923
 51
176.0578882937666947
  0
LINE
  5
D3A4
  8
0
 10
4682.8793226507614236
 20
260.112652768822727
 30
0.0
 11
4690.0204325826616696
 21
260.1151353204226098
 31
0.0
  0
ARC
  5
D3A5
  8
0
 10
4690.0111646316117913
 20
260.0296889516404235
 30
0.0
 40
0.0859475238429649
 50
4.6549835224746277
 51
83.8096064398093432
  0
LINE
  5
D3A6
  8
0
 10
4690.0968286538627581
 20
260.0366640607227282
 30
0.0
 11
4690.096819508761655
 21
257.6600954655118016
 31
0.0
  0
ARC
  5
D3A7
  8
0
 10
4690.0145851976403719
 20
257.6656253309660087
 30
0.0
 40
0.0824200299533133
 50
278.6135839955027791
 51
356.1529236846308208
  0
LINE
  5
D3A8
  8
0
 10
4690.0269292256616609
 20
257.5841349247227186
 30
0.0
 11
4682.8858193008627495
 21
257.5816523730226777
 31
0.0
  0
ARC
  5
D3A9
  8
0
 10
4682.8950813743886101
 20
257.6670930267293897
 30
0.0
 40
0.0859412084614658
 50
184.6514972331663103
 51
263.813091192919785
  0
LINE
  5
D3AA
  8
0
 10
4682.809423222462101
 20
257.6601236422225725
 30
0.0
 11
4682.8094323610621359
 21
260.036692207622707
 31
0.0
  0
ARC
  5
D3AB
  8
0
 10
4690.1929276889795801
 20
260.0310142136053742
 30
0.0
 40
0.082590736034968
 50
98.7086293287310923
 51
176.0578882937666947
  0
LINE
  5
D3AC
  8
0
 10
4690.1804226507620115
 20
260.112652768822727
 30
0.0
 11
4697.3215325826622575
 21
260.1151353204226098
 31
0.0
  0
ARC
  5
D3AD
  8
0
 10
4697.3122646316132887
 20
260.0296889516404235
 30
0.0
 40
0.0859475238429649
 50
4.6549835224746277
 51
83.8096064398093432
  0
LINE
  5
D3AE
  8
0
 10
4697.3979286538624365
 20
260.0366640607227282
 30
0.0
 11
4697.3979195087622429
 21
257.6600954655118016
 31
0.0
  0
ARC
  5
D3AF
  8
0
 10
4697.3156851976409598
 20
257.6656253309660087
 30
0.0
 40
0.0824200299533133
 50
278.6135839955027791
 51
356.1529236846308208
  0
LINE
  5
D3B0
  8
0
 10
4697.3280292256631583
 20
257.5841349247227186
 30
0.0
 11
4690.1869193008624279
 21
257.5816523730226777
 31
0.0
  0
ARC
  5
D3B1
  8
0
 10
4690.196181374389198
 20
257.6670930267293897
 30
0.0
 40
0.0859412084614658
 50
184.6514972331663103
 51
263.813091192919785
  0
LINE
  5
D3B2
  8
0
 10
4690.1105232224626889
 20
257.6601236422225725
 30
0.0
 11
4690.1105323610627238
 21
260.036692207622707
 31
0.0
  0
ARC
  5
D3B3
  8
0
 10
4686.5423776889801957
 20
257.4829642136053849
 30
0.0
 40
0.082590736034968
 50
98.7086293287310923
 51
176.0578882937666947
  0
LINE
  5
D3B4
  8
0
 10
4686.5298726507617175
 20
257.5646027688227946
 30
0.0
 11
4693.670982582662873
 21
257.5670853204226205
 31
0.0
  0
ARC
  5
D3B5
  8
0
 10
4693.6617146316129947
 20
257.4816389516403774
 30
0.0
 40
0.0859475238429649
 50
4.6549835224746277
 51
83.8096064398093432
  0
LINE
  5
D3B6
  8
0
 10
4693.747378653863052
 20
257.4886140607226821
 30
0.0
 11
4693.7473695087628585
 21
255.1120454655118124
 31
0.0
  0
ARC
  5
D3B7
  8
0
 10
4693.6651351976397564
 20
255.1175753309661047
 30
0.0
 40
0.0824200299533133
 50
278.6135839955027791
 51
356.1529236846308208
  0
LINE
  5
D3B8
  8
0
 10
4693.6774792256619548
 20
255.0360849247227009
 30
0.0
 11
4686.5363693008630435
 21
255.0336023730228021
 31
0.0
  0
ARC
  5
D3B9
  8
0
 10
4686.5456313743879946
 20
255.1190430267294005
 30
0.0
 40
0.0859412084614658
 50
184.6514972331663103
 51
263.813091192919785
  0
LINE
  5
D3BA
  8
0
 10
4686.4599732224623949
 20
255.1120736422228106
 30
0.0
 11
4686.4599823610624298
 21
257.4886422076227745
 31
0.0
  0
ARC
  5
D3BB
  8
0
 10
4679.2412776889796078
 20
257.4829642136053849
 30
0.0
 40
0.082590736034968
 50
98.7086293287310923
 51
176.0578882937666947
  0
LINE
  5
D3BC
  8
0
 10
4679.2287726507620391
 20
257.5646027688227946
 30
0.0
 11
4686.3698825826622851
 21
257.5670853204226205
 31
0.0
  0
ARC
  5
D3BD
  8
0
 10
4686.3606146316133163
 20
257.4816389516403774
 30
0.0
 40
0.0859475238429649
 50
4.6549835224746277
 51
83.8096064398093432
  0
LINE
  5
D3BE
  8
0
 10
4686.4462786538615546
 20
257.4886140607226821
 30
0.0
 11
4686.4462695087622706
 21
255.1120454655118124
 31
0.0
  0
ARC
  5
D3BF
  8
0
 10
4686.364035197640078
 20
255.1175753309661047
 30
0.0
 40
0.0824200299533133
 50
278.6135839955027791
 51
356.1529236846308208
  0
LINE
  5
D3C0
  8
0
 10
4686.3763792256631859
 20
255.0360849247227009
 30
0.0
 11
4679.2352693008615461
 21
255.0336023730228021
 31
0.0
  0
ARC
  5
D3C1
  8
0
 10
4679.2445313743892257
 20
255.1190430267294005
 30
0.0
 40
0.0859412084614658
 50
184.6514972331663103
 51
263.813091192919785
  0
LINE
  5
D3C2
  8
0
 10
4679.158873222461807
 20
255.1120736422228106
 30
0.0
 11
4679.1588823610627514
 21
257.4886422076227745
 31
0.0
  0
ARC
  5
D3C3
  8
0
 10
4671.9401776889808389
 20
257.4829642136053849
 30
0.0
 40
0.082590736034968
 50
98.7086293287310923
 51
176.0578882937666947
  0
LINE
  5
D3C4
  8
0
 10
4671.9276726507623607
 20
257.5646027688227946
 30
0.0
 11
4679.0687825826626067
 21
257.5670853204226205
 31
0.0
  0
ARC
  5
D3C5
  8
0
 10
4679.0595146316127284
 20
257.4816389516403774
 30
0.0
 40
0.0859475238429649
 50
4.6549835224746277
 51
83.8096064398093432
  0
LINE
  5
D3C6
  8
0
 10
4679.1451786538627857
 20
257.4886140607226821
 30
0.0
 11
4679.1451695087616827
 21
255.1120454655118124
 31
0.0
  0
ARC
  5
D3C7
  8
0
 10
4679.0629351976413091
 20
255.1175753309661047
 30
0.0
 40
0.0824200299533133
 50
278.6135839955027791
 51
356.1529236846308208
  0
LINE
  5
D3C8
  8
0
 10
4679.075279225662598
 20
255.0360849247227009
 30
0.0
 11
4671.9341693008627772
 21
255.0336023730228021
 31
0.0
  0
ARC
  5
D3C9
  8
0
 10
4671.9434313743886378
 20
255.1190430267294005
 30
0.0
 40
0.0859412084614658
 50
184.6514972331663103
 51
263.813091192919785
  0
LINE
  5
D3CA
  8
0
 10
4671.8577732224621286
 20
255.1120736422228106
 30
0.0
 11
4671.8577823610621635
 21
257.4886422076227745
 31
0.0
  0
ARC
  5
D3CB
  8
0
 10
4675.5907276889793138
 20
254.9349142136055093
 30
0.0
 40
0.082590736034968
 50
98.7086293287310923
 51
176.0578882937666947
  0
LINE
  5
D3CC
  8
0
 10
4675.5782226507617452
 20
255.0165527688226916
 30
0.0
 11
4682.7193325826629007
 21
255.0190353204226028
 31
0.0
  0
ARC
  5
D3CD
  8
0
 10
4682.7100646316130224
 20
254.9335889516405018
 30
0.0
 40
0.0859475238429649
 50
4.6549835224746277
 51
83.8096064398093432
  0
LINE
  5
D3CE
  8
0
 10
4682.7957286538621702
 20
254.9405640607228065
 30
0.0
 11
4682.7957195087628861
 21
252.5639954655117947
 31
0.0
  0
ARC
  5
D3CF
  8
0
 10
4682.713485197639784
 20
252.569525330966087
 30
0.0
 40
0.0824200299533133
 50
278.6135839955027791
 51
356.1529236846308208
  0
LINE
  5
D3D0
  8
0
 10
4682.7258292256619825
 20
252.4880349247227116
 30
0.0
 11
4675.5847193008621616
 21
252.4855523730226992
 31
0.0
  0
ARC
  5
D3D1
  8
0
 10
4675.5939813743889317
 20
252.5709930267292975
 30
0.0
 40
0.0859412084614658
 50
184.6514972331663103
 51
263.813091192919785
  0
LINE
  5
D3D2
  8
0
 10
4675.5083232224624226
 20
252.5640236422227076
 30
0.0
 11
4675.508332361061548
 21
254.9405922076227
 31
0.0
  0
ARC
  5
D3D3
  8
0
 10
4682.8918276889808112
 20
254.9349142136055093
 30
0.0
 40
0.082590736034968
 50
98.7086293287310923
 51
176.0578882937666947
  0
LINE
  5
D3D4
  8
0
 10
4682.8793226507614236
 20
255.0165527688226916
 30
0.0
 11
4690.0204325826616696
 21
255.0190353204226028
 31
0.0
  0
ARC
  5
D3D5
  8
0
 10
4690.0111646316117913
 20
254.9335889516405018
 30
0.0
 40
0.0859475238429649
 50
4.6549835224746277
 51
83.8096064398093432
  0
LINE
  5
D3D6
  8
0
 10
4690.0968286538627581
 20
254.9405640607228065
 30
0.0
 11
4690.096819508761655
 21
252.5639954655117947
 31
0.0
  0
ARC
  5
D3D7
  8
0
 10
4690.0145851976403719
 20
252.569525330966087
 30
0.0
 40
0.0824200299533133
 50
278.6135839955027791
 51
356.1529236846308208
  0
LINE
  5
D3D8
  8
0
 10
4690.0269292256616609
 20
252.4880349247227116
 30
0.0
 11
4682.8858193008627495
 21
252.4855523730226992
 31
0.0
  0
ARC
  5
D3D9
  8
0
 10
4682.8950813743886101
 20
252.5709930267292975
 30
0.0
 40
0.0859412084614658
 50
184.6514972331663103
 51
263.813091192919785
  0
LINE
  5
D3DA
  8
0
 10
4682.809423222462101
 20
252.5640236422227076
 30
0.0
 11
4682.8094323610621359
 21
254.9405922076227
 31
0.0
  0
ARC
  5
D3DB
  8
0
 10
4690.1929276889795801
 20
254.9349142136055093
 30
0.0
 40
0.082590736034968
 50
98.7086293287310923
 51
176.0578882937666947
  0
LINE
  5
D3DC
  8
0
 10
4690.1804226507620115
 20
255.0165527688226916
 30
0.0
 11
4697.3215325826622575
 21
255.0190353204226028
 31
0.0
  0
ARC
  5
D3DD
  8
0
 10
4697.3122646316132887
 20
254.9335889516405018
 30
0.0
 40
0.0859475238429649
 50
4.6549835224746277
 51
83.8096064398093432
  0
LINE
  5
D3DE
  8
0
 10
4697.3979286538624365
 20
254.9405640607228065
 30
0.0
 11
4697.3979195087622429
 21
252.5639954655117947
 31
0.0
  0
ARC
  5
D3DF
  8
0
 10
4697.3156851976409598
 20
252.569525330966087
 30
0.0
 40
0.0824200299533133
 50
278.6135839955027791
 51
356.1529236846308208
  0
LINE
  5
D3E0
  8
0
 10
4697.3280292256631583
 20
252.4880349247227116
 30
0.0
 11
4690.1869193008624279
 21
252.4855523730226992
 31
0.0
  0
ARC
  5
D3E1
  8
0
 10
4690.196181374389198
 20
252.5709930267292975
 30
0.0
 40
0.0859412084614658
 50
184.6514972331663103
 51
263.813091192919785
  0
LINE
  5
D3E2
  8
0
 10
4690.1105232224626889
 20
252.5640236422227076
 30
0.0
 11
4690.1105323610627238
 21
254.9405922076227
 31
0.0
  0
ARC
  5
D3E3
  8
0
 10
4686.5423776889801957
 20
252.3868642136054916
 30
0.0
 40
0.082590736034968
 50
98.7086293287310923
 51
176.0578882937666947
  0
LINE
  5
D3E4
  8
0
 10
4686.5298726507617175
 20
252.4685027688227876
 30
0.0
 11
4693.670982582662873
 21
252.4709853204226988
 31
0.0
  0
ARC
  5
D3E5
  8
0
 10
4693.6617146316129947
 20
252.3855389516405126
 30
0.0
 40
0.0859475238429649
 50
4.6549835224746277
 51
83.8096064398093432
  0
LINE
  5
D3E6
  8
0
 10
4693.747378653863052
 20
252.3925140607227036
 30
0.0
 11
4693.7473695087628585
 21
250.0159454655118054
 31
0.0
  0
ARC
  5
D3E7
  8
0
 10
4693.6651351976397564
 20
250.0214753309660978
 30
0.0
 40
0.0824200299533133
 50
278.6135839955027791
 51
356.1529236846308208
  0
LINE
  5
D3E8
  8
0
 10
4693.6774792256619548
 20
249.9399849247226086
 30
0.0
 11
4686.5363693008630435
 21
249.9375023730227952
 31
0.0
  0
ARC
  5
D3E9
  8
0
 10
4686.5456313743879946
 20
250.0229430267295072
 30
0.0
 40
0.0859412084614658
 50
184.6514972331663103
 51
263.813091192919785
  0
LINE
  5
D3EA
  8
0
 10
4686.4599732224623949
 20
250.0159736422228036
 30
0.0
 11
4686.4599823610624298
 21
252.3925422076227107
 31
0.0
  0
ARC
  5
D3EB
  8
0
 10
4679.2412776889796078
 20
252.3868642136054916
 30
0.0
 40
0.082590736034968
 50
98.7086293287310923
 51
176.0578882937666947
  0
LINE
  5
D3EC
  8
0
 10
4679.2287726507620391
 20
252.4685027688227876
 30
0.0
 11
4686.3698825826622851
 21
252.4709853204226988
 31
0.0
  0
ARC
  5
D3ED
  8
0
 10
4686.3606146316133163
 20
252.3855389516405126
 30
0.0
 40
0.0859475238429649
 50
4.6549835224746277
 51
83.8096064398093432
  0
LINE
  5
D3EE
  8
0
 10
4686.4462786538615546
 20
252.3925140607227036
 30
0.0
 11
4686.4462695087622706
 21
250.0159454655118054
 31
0.0
  0
ARC
  5
D3EF
  8
0
 10
4686.364035197640078
 20
250.0214753309660978
 30
0.0
 40
0.0824200299533133
 50
278.6135839955027791
 51
356.1529236846308208
  0
LINE
  5
D3F0
  8
0
 10
4686.3763792256631859
 20
249.9399849247226086
 30
0.0
 11
4679.2352693008615461
 21
249.9375023730227952
 31
0.0
  0
ARC
  5
D3F1
  8
0
 10
4679.2445313743892257
 20
250.0229430267295072
 30
0.0
 40
0.0859412084614658
 50
184.6514972331663103
 51
263.813091192919785
  0
LINE
  5
D3F2
  8
0
 10
4679.158873222461807
 20
250.0159736422228036
 30
0.0
 11
4679.1588823610627514
 21
252.3925422076227107
 31
0.0
  0
ARC
  5
D3F3
  8
0
 10
4671.9401776889808389
 20
252.3868642136054916
 30
0.0
 40
0.082590736034968
 50
98.7086293287310923
 51
176.0578882937666947
  0
LINE
  5
D3F4
  8
0
 10
4671.9276726507623607
 20
252.4685027688227876
 30
0.0
 11
4679.0687825826626067
 21
252.4709853204226988
 31
0.0
  0
ARC
  5
D3F5
  8
0
 10
4679.0595146316127284
 20
252.3855389516405126
 30
0.0
 40
0.0859475238429649
 50
4.6549835224746277
 51
83.8096064398093432
  0
LINE
  5
D3F6
  8
0
 10
4679.1451786538627857
 20
252.3925140607227036
 30
0.0
 11
4679.1451695087616827
 21
250.0159454655118054
 31
0.0
  0
ARC
  5
D3F7
  8
0
 10
4679.0629351976413091
 20
250.0214753309660978
 30
0.0
 40
0.0824200299533133
 50
278.6135839955027791
 51
356.1529236846308208
  0
LINE
  5
D3F8
  8
0
 10
4679.075279225662598
 20
249.9399849247226086
 30
0.0
 11
4671.9341693008627772
 21
249.9375023730227952
 31
0.0
  0
ARC
  5
D3F9
  8
0
 10
4671.9434313743886378
 20
250.0229430267295072
 30
0.0
 40
0.0859412084614658
 50
184.6514972331663103
 51
263.813091192919785
  0
LINE
  5
D3FA
  8
0
 10
4671.8577732224621286
 20
250.0159736422228036
 30
0.0
 11
4671.8577823610621635
 21
252.3925422076227107
 31
0.0
  0
ARC
  5
D3FB
  8
0
 10
4675.5907276889793138
 20
249.8388142136055023
 30
0.0
 40
0.082590736034968
 50
98.7086293287310923
 51
176.0578882937666947
  0
LINE
  5
D3FC
  8
0
 10
4675.5782226507617452
 20
249.9204527688227131
 30
0.0
 11
4682.7193325826629007
 21
249.9229353204227095
 31
0.0
  0
ARC
  5
D3FD
  8
0
 10
4682.7100646316130224
 20
249.8374889516404949
 30
0.0
 40
0.0859475238429649
 50
4.6549835224746277
 51
83.8096064398093432
  0
LINE
  5
D3FE
  8
0
 10
4682.7957286538621702
 20
249.8444640607227996
 30
0.0
 11
4682.7957195087628861
 21
247.4678954655117877
 31
0.0
  0
ARC
  5
D3FF
  8
0
 10
4682.713485197639784
 20
247.4734253309661085
 30
0.0
 40
0.0824200299533133
 50
278.6135839955027791
 51
356.1529236846308208
  0
LINE
  5
D400
  8
0
 10
4682.7258292256619825
 20
247.3919349247227899
 30
0.0
 11
4675.5847193008621616
 21
247.3894523730226922
 31
0.0
  0
ARC
  5
D401
  8
0
 10
4675.5939813743889317
 20
247.4748930267292906
 30
0.0
 40
0.0859412084614658
 50
184.6514972331663103
 51
263.813091192919785
  0
LINE
  5
D402
  8
0
 10
4675.5083232224624226
 20
247.4679236422227007
 30
0.0
 11
4675.508332361061548
 21
249.8444922076226931
 31
0.0
  0
ARC
  5
D403
  8
0
 10
4682.8918276889808112
 20
249.8388142136055023
 30
0.0
 40
0.082590736034968
 50
98.7086293287310923
 51
176.0578882937666947
  0
LINE
  5
D404
  8
0
 10
4682.8793226507614236
 20
249.9204527688227131
 30
0.0
 11
4690.0204325826616696
 21
249.9229353204227095
 31
0.0
  0
ARC
  5
D405
  8
0
 10
4690.0111646316117913
 20
249.8374889516404949
 30
0.0
 40
0.0859475238429649
 50
4.6549835224746277
 51
83.8096064398093432
  0
LINE
  5
D406
  8
0
 10
4690.0968286538627581
 20
249.8444640607227996
 30
0.0
 11
4690.096819508761655
 21
247.4678954655117877
 31
0.0
  0
ARC
  5
D407
  8
0
 10
4690.0145851976403719
 20
247.4734253309661085
 30
0.0
 40
0.0824200299533133
 50
278.6135839955027791
 51
356.1529236846308208
  0
LINE
  5
D408
  8
0
 10
4690.0269292256616609
 20
247.3919349247227899
 30
0.0
 11
4682.8858193008627495
 21
247.3894523730226922
 31
0.0
  0
ARC
  5
D409
  8
0
 10
4682.8950813743886101
 20
247.4748930267292906
 30
0.0
 40
0.0859412084614658
 50
184.6514972331663103
 51
263.813091192919785
  0
LINE
  5
D40A
  8
0
 10
4682.809423222462101
 20
247.4679236422227007
 30
0.0
 11
4682.8094323610621359
 21
249.8444922076226931
 31
0.0
  0
ARC
  5
D40B
  8
0
 10
4690.1929276889795801
 20
249.8388142136055023
 30
0.0
 40
0.082590736034968
 50
98.7086293287310923
 51
176.0578882937666947
  0
LINE
  5
D40C
  8
0
 10
4690.1804226507620115
 20
249.9204527688227131
 30
0.0
 11
4697.3215325826622575
 21
249.9229353204227095
 31
0.0
  0
ARC
  5
D40D
  8
0
 10
4697.3122646316132887
 20
249.8374889516404949
 30
0.0
 40
0.0859475238429649
 50
4.6549835224746277
 51
83.8096064398093432
  0
LINE
  5
D40E
  8
0
 10
4697.3979286538624365
 20
249.8444640607227996
 30
0.0
 11
4697.3979195087622429
 21
247.4678954655117877
 31
0.0
  0
ARC
  5
D40F
  8
0
 10
4697.3156851976409598
 20
247.4734253309661085
 30
0.0
 40
0.0824200299533133
 50
278.6135839955027791
 51
356.1529236846308208
  0
LINE
  5
D410
  8
0
 10
4697.3280292256631583
 20
247.3919349247227899
 30
0.0
 11
4690.1869193008624279
 21
247.3894523730226922
 31
0.0
  0
ARC
  5
D411
  8
0
 10
4690.196181374389198
 20
247.4748930267292906
 30
0.0
 40
0.0859412084614658
 50
184.6514972331663103
 51
263.813091192919785
  0
LINE
  5
D412
  8
0
 10
4690.1105232224626889
 20
247.4679236422227007
 30
0.0
 11
4690.1105323610627238
 21
249.8444922076226931
 31
0.0
  0
ARC
  5
D413
  8
0
 10
4686.5427017812571648
 20
247.2906983691505047
 30
0.0
 40
0.082590736034968
 50
98.7086293287310923
 51
176.0578882937666947
  0
LINE
  5
D414
  8
0
 10
4686.5301967430386867
 20
247.3723369243676871
 30
0.0
 11
4693.6713066749380232
 21
247.3748194759677119
 31
0.0
  0
ARC
  5
D415
  8
0
 10
4693.6620387238881449
 20
247.2893731071854972
 30
0.0
 40
0.0859475238429649
 50
4.6549835224746277
 51
83.8096064398093432
  0
LINE
  5
D416
  8
0
 10
4693.7477027461391117
 20
247.2963482162678019
 30
0.0
 11
4693.7476936010380086
 21
244.9197796210567901
 31
0.0
  0
ARC
  5
D417
  8
0
 10
4693.665459289915816
 20
244.9253094865111109
 30
0.0
 40
0.0824200299533133
 50
278.6135839955027791
 51
356.1529236846308208
  0
LINE
  5
D418
  8
0
 10
4693.6778033179380145
 20
244.843819080267707
 30
0.0
 11
4686.5366933931391031
 21
244.8413365285676946
 31
0.0
  0
ARC
  5
D419
  8
0
 10
4686.5459554666649638
 20
244.9267771822744066
 30
0.0
 40
0.0859412084614658
 50
184.6514972331663103
 51
263.813091192919785
  0
LINE
  5
D41A
  8
0
 10
4686.4602973147393641
 20
244.9198077977677031
 30
0.0
 11
4686.4603064533403085
 21
247.2963763631676954
 31
0.0
  0
ARC
  5
D41B
  8
0
 10
4679.2412776889796078
 20
247.2907642136055131
 30
0.0
 40
0.082590736034968
 50
98.7086293287310923
 51
176.0578882937666947
  0
LINE
  5
D41C
  8
0
 10
4679.2287726507620391
 20
247.3724027688228091
 30
0.0
 11
4686.3698825826622851
 21
247.3748853204226918
 31
0.0
  0
ARC
  5
D41D
  8
0
 10
4686.3606146316133163
 20
247.2894389516403919
 30
0.0
 40
0.0859475238429649
 50
4.6549835224746277
 51
83.8096064398093432
  0
LINE
  5
D41E
  8
0
 10
4686.4462786538615546
 20
247.2964140607226966
 30
0.0
 11
4686.4462695087622706
 21
244.9198454655117985
 31
0.0
  0
ARC
  5
D41F
  8
0
 10
4686.364035197640078
 20
244.9253753309660908
 30
0.0
 40
0.0824200299533133
 50
278.6135839955027791
 51
356.1529236846308208
  0
LINE
  5
D420
  8
0
 10
4686.3763792256631859
 20
244.8438849247226017
 30
0.0
 11
4679.2352693008615461
 21
244.8414023730227882
 31
0.0
  0
ARC
  5
D421
  8
0
 10
4679.2445313743892257
 20
244.9268430267293866
 30
0.0
 40
0.0859412084614658
 50
184.6514972331663103
 51
263.813091192919785
  0
LINE
  5
D422
  8
0
 10
4679.158873222461807
 20
244.9198736422227114
 30
0.0
 11
4679.1588823610627514
 21
247.2964422076227038
 31
0.0
  0
ARC
  5
D423
  8
0
 10
4671.9401776889808389
 20
247.2907642136055131
 30
0.0
 40
0.082590736034968
 50
98.7086293287310923
 51
176.0578882937666947
  0
LINE
  5
D424
  8
0
 10
4671.9276726507623607
 20
247.3724027688228091
 30
0.0
 11
4679.0687825826626067
 21
247.3748853204226918
 31
0.0
  0
ARC
  5
D425
  8
0
 10
4679.0595146316127284
 20
247.2894389516403919
 30
0.0
 40
0.0859475238429649
 50
4.6549835224746277
 51
83.8096064398093432
  0
LINE
  5
D426
  8
0
 10
4679.1451786538627857
 20
247.2964140607226966
 30
0.0
 11
4679.1451695087616827
 21
244.9198454655117985
 31
0.0
  0
ARC
  5
D427
  8
0
 10
4679.0629351976413091
 20
244.9253753309660908
 30
0.0
 40
0.0824200299533133
 50
278.6135839955027791
 51
356.1529236846308208
  0
LINE
  5
D428
  8
0
 10
4679.075279225662598
 20
244.8438849247226017
 30
0.0
 11
4671.9341693008627772
 21
244.8414023730227882
 31
0.0
  0
ARC
  5
D429
  8
0
 10
4671.9434313743886378
 20
244.9268430267293866
 30
0.0
 40
0.0859412084614658
 50
184.6514972331663103
 51
263.813091192919785
  0
LINE
  5
D42A
  8
0
 10
4671.8577732224621286
 20
244.9198736422227114
 30
0.0
 11
4671.8577823610621635
 21
247.2964422076227038
 31
0.0
  0
ARC
  5
D42B
  8
0
 10
4675.5907276889793138
 20
244.7427142136054954
 30
0.0
 40
0.082590736034968
 50
98.7086293287310923
 51
176.0578882937666947
  0
LINE
  5
D42C
  8
0
 10
4675.5782226507617452
 20
244.8243527688227061
 30
0.0
 11
4682.7193325826629007
 21
244.8268353204227026
 31
0.0
  0
ARC
  5
D42D
  8
0
 10
4682.7100646316130224
 20
244.7413889516404879
 30
0.0
 40
0.0859475238429649
 50
4.6549835224746277
 51
83.8096064398093432
  0
LINE
  5
D42E
  8
0
 10
4682.7957286538621702
 20
244.7483640607227073
 30
0.0
 11
4682.7957195087628861
 21
242.3717954655118092
 31
0.0
  0
ARC
  5
D42F
  8
0
 10
4682.713485197639784
 20
242.3773253309661015
 30
0.0
 40
0.0824200299533133
 50
278.6135839955027791
 51
356.1529236846308208
  0
LINE
  5
D430
  8
0
 10
4682.7258292256619825
 20
242.2958349247226977
 30
0.0
 11
4675.5847193008621616
 21
242.2933523730227137
 31
0.0
  0
ARC
  5
D431
  8
0
 10
4675.5939813743889317
 20
242.3787930267293973
 30
0.0
 40
0.0859412084614658
 50
184.6514972331663103
 51
263.813091192919785
  0
LINE
  5
D432
  8
0
 10
4675.5083232224624226
 20
242.3718236422226937
 30
0.0
 11
4675.508332361061548
 21
244.7483922076226861
 31
0.0
  0
ARC
  5
D433
  8
0
 10
4682.8918276889808112
 20
244.7427142136054954
 30
0.0
 40
0.082590736034968
 50
98.7086293287310923
 51
176.0578882937666947
  0
LINE
  5
D434
  8
0
 10
4682.8793226507614236
 20
244.8243527688227061
 30
0.0
 11
4690.0204325826616696
 21
244.8268353204227026
 31
0.0
  0
ARC
  5
D435
  8
0
 10
4690.0111646316117913
 20
244.7413889516404879
 30
0.0
 40
0.0859475238429649
 50
4.6549835224746277
 51
83.8096064398093432
  0
LINE
  5
D436
  8
0
 10
4690.0968286538627581
 20
244.7483640607227073
 30
0.0
 11
4690.096819508761655
 21
242.3717954655118092
 31
0.0
  0
ARC
  5
D437
  8
0
 10
4690.0145851976403719
 20
242.3773253309661015
 30
0.0
 40
0.0824200299533133
 50
278.6135839955027791
 51
356.1529236846308208
  0
LINE
  5
D438
  8
0
 10
4690.0269292256616609
 20
242.2958349247226977
 30
0.0
 11
4682.8858193008627495
 21
242.2933523730227137
 31
0.0
  0
ARC
  5
D439
  8
0
 10
4682.8950813743886101
 20
242.3787930267293973
 30
0.0
 40
0.0859412084614658
 50
184.6514972331663103
 51
263.813091192919785
  0
LINE
  5
D43A
  8
0
 10
4682.809423222462101
 20
242.3718236422226937
 30
0.0
 11
4682.8094323610621359
 21
244.7483922076226861
 31
0.0
  0
ARC
  5
D43B
  8
0
 10
4690.1929276889795801
 20
244.7427142136054954
 30
0.0
 40
0.082590736034968
 50
98.7086293287310923
 51
176.0578882937666947
  0
LINE
  5
D43C
  8
0
 10
4690.1804226507620115
 20
244.8243527688227061
 30
0.0
 11
4697.3215325826622575
 21
244.8268353204227026
 31
0.0
  0
ARC
  5
D43D
  8
0
 10
4697.3122646316132887
 20
244.7413889516404879
 30
0.0
 40
0.0859475238429649
 50
4.6549835224746277
 51
83.8096064398093432
  0
LINE
  5
D43E
  8
0
 10
4697.3979286538624365
 20
244.7483640607227073
 30
0.0
 11
4697.3979195087622429
 21
242.3717954655118092
 31
0.0
  0
ARC
  5
D43F
  8
0
 10
4697.3156851976409598
 20
242.3773253309661015
 30
0.0
 40
0.0824200299533133
 50
278.6135839955027791
 51
356.1529236846308208
  0
LINE
  5
D440
  8
0
 10
4697.3280292256631583
 20
242.2958349247226977
 30
0.0
 11
4690.1869193008624279
 21
242.2933523730227137
 31
0.0
  0
ARC
  5
D441
  8
0
 10
4690.196181374389198
 20
242.3787930267293973
 30
0.0
 40
0.0859412084614658
 50
184.6514972331663103
 51
263.813091192919785
  0
LINE
  5
D442
  8
0
 10
4690.1105232224626889
 20
242.3718236422226937
 30
0.0
 11
4690.1105323610627238
 21
244.7483922076226861
 31
0.0
  0
ARC
  5
D443
  8
0
 10
4686.5423776889801957
 20
242.1946642136055914
 30
0.0
 40
0.082590736034968
 50
98.7086293287310923
 51
176.0578882937666947
  0
LINE
  5
D444
  8
0
 10
4686.5298726507617175
 20
242.2763027688226884
 30
0.0
 11
4693.670982582662873
 21
242.2787853204227133
 31
0.0
  0
ARC
  5
D445
  8
0
 10
4693.6617146316129947
 20
242.1933389516404134
 30
0.0
 40
0.0859475238429649
 50
4.6549835224746277
 51
83.8096064398093432
  0
LINE
  5
D446
  8
0
 10
4693.747378653863052
 20
242.2003140607226896
 30
0.0
 11
4693.7473695087628585
 21
239.8237454655117915
 31
0.0
  0
ARC
  5
D447
  8
0
 10
4693.6651351976397564
 20
239.8292753309659986
 30
0.0
 40
0.0824200299533133
 50
278.6135839955027791
 51
356.1529236846308208
  0
LINE
  5
D448
  8
0
 10
4693.6774792256619548
 20
239.7477849247227084
 30
0.0
 11
4686.5363693008630435
 21
239.745302373022696
 31
0.0
  0
ARC
  5
D449
  8
0
 10
4686.5456313743879946
 20
239.830743026729408
 30
0.0
 40
0.0859412084614658
 50
184.6514972331663103
 51
263.813091192919785
  0
LINE
  5
D44A
  8
0
 10
4686.4599732224623949
 20
239.8237736422227897
 30
0.0
 11
4686.4599823610624298
 21
242.2003422076226968
 31
0.0
  0
ARC
  5
D44B
  8
0
 10
4679.2412776889796078
 20
242.1946642136055914
 30
0.0
 40
0.082590736034968
 50
98.7086293287310923
 51
176.0578882937666947
  0
LINE
  5
D44C
  8
0
 10
4679.2287726507620391
 20
242.2763027688226884
 30
0.0
 11
4686.3698825826622851
 21
242.2787853204227133
 31
0.0
  0
ARC
  5
D44D
  8
0
 10
4686.3606146316133163
 20
242.1933389516404134
 30
0.0
 40
0.0859475238429649
 50
4.6549835224746277
 51
83.8096064398093432
  0
LINE
  5
D44E
  8
0
 10
4686.4462786538615546
 20
242.2003140607226896
 30
0.0
 11
4686.4462695087622706
 21
239.8237454655117915
 31
0.0
  0
ARC
  5
D44F
  8
0
 10
4686.364035197640078
 20
239.8292753309659986
 30
0.0
 40
0.0824200299533133
 50
278.6135839955027791
 51
356.1529236846308208
  0
LINE
  5
D450
  8
0
 10
4686.3763792256631859
 20
239.7477849247227084
 30
0.0
 11
4679.2352693008615461
 21
239.745302373022696
 31
0.0
  0
ARC
  5
D451
  8
0
 10
4679.2445313743892257
 20
239.830743026729408
 30
0.0
 40
0.0859412084614658
 50
184.6514972331663103
 51
263.813091192919785
  0
LINE
  5
D452
  8
0
 10
4679.158873222461807
 20
239.8237736422227897
 30
0.0
 11
4679.1588823610627514
 21
242.2003422076226968
 31
0.0
  0
ARC
  5
D453
  8
0
 10
4671.9401776889808389
 20
242.1946642136055914
 30
0.0
 40
0.082590736034968
 50
98.7086293287310923
 51
176.0578882937666947
  0
LINE
  5
D454
  8
0
 10
4671.9276726507623607
 20
242.2763027688226884
 30
0.0
 11
4679.0687825826626067
 21
242.2787853204227133
 31
0.0
  0
ARC
  5
D455
  8
0
 10
4679.0595146316127284
 20
242.1933389516404134
 30
0.0
 40
0.0859475238429649
 50
4.6549835224746277
 51
83.8096064398093432
  0
LINE
  5
D456
  8
0
 10
4679.1451786538627857
 20
242.2003140607226896
 30
0.0
 11
4679.1451695087616827
 21
239.8237454655117915
 31
0.0
  0
ARC
  5
D457
  8
0
 10
4679.0629351976413091
 20
239.8292753309659986
 30
0.0
 40
0.0824200299533133
 50
278.6135839955027791
 51
356.1529236846308208
  0
LINE
  5
D458
  8
0
 10
4679.075279225662598
 20
239.7477849247227084
 30
0.0
 11
4671.9341693008627772
 21
239.745302373022696
 31
0.0
  0
ARC
  5
D459
  8
0
 10
4671.9434313743886378
 20
239.830743026729408
 30
0.0
 40
0.0859412084614658
 50
184.6514972331663103
 51
263.813091192919785
  0
LINE
  5
D45A
  8
0
 10
4671.8577732224621286
 20
239.8237736422227897
 30
0.0
 11
4671.8577823610621635
 21
242.2003422076226968
 31
0.0
  0
ARC
  5
D45B
  8
0
 10
4702.0978642218724417
 20
259.7257300211356892
 30
0.0
 40
1.6165649126030699
 50
166.0368440684484028
 51
178.7003171073774013
  0
LINE
  5
D45C
  8
0
 10
4700.4817151950473999
 20
259.7623966238642197
 30
0.0
 11
4700.4817151943625504
 21
257.9343938467235944
 31
0.0
  0
ARC
  5
D45D
  8
0
 10
4702.0995090009555497
 20
257.9712777659486846
 30
0.0
 40
1.618214208364283
 50
181.3060544878958069
 51
193.9566661938889069
  0
ARC
  5
D45E
  8
0
 10
4697.4917908553816233
 20
260.0361657459546905
 30
0.0
 40
0.0796300539901669
 50
89.0823246575048557
 51
183.0096542621313063
  0
LINE
  5
D45F
  8
0
 10
4697.4930661921243882
 20
260.115785586538891
 30
0.0
 11
4700.5290670345621038
 21
260.1158037343640217
 31
0.0
  0
LINE
  5
D460
  8
0
 10
4700.5290670351760127
 20
257.5809839583235998
 30
0.0
 11
4697.4932144358099322
 21
257.5808499808820784
 31
0.0
  0
ARC
  5
D461
  8
0
 10
4697.4919749767032044
 20
257.6607198312913738
 30
0.0
 40
0.0798794670943839
 50
177.0077559573169026
 51
270.8890723521359973
  0
LINE
  5
D462
  8
0
 10
4697.412204416462373
 20
257.6648896013235799
 30
0.0
 11
4697.4122706349617147
 21
260.031984831823479
 31
0.0
  0
ARC
  5
D463
  8
0
 10
4697.4917908553816233
 20
254.9400657459547972
 30
0.0
 40
0.0796300539901669
 50
89.0823246575048557
 51
183.0096542621313063
  0
LINE
  5
D464
  8
0
 10
4697.4930661921243882
 20
255.0196855865391967
 30
0.0
 11
4700.5290670345621038
 21
255.0197037343642137
 31
0.0
  0
LINE
  5
D465
  8
0
 10
4700.5290670351760127
 20
252.4848839583239055
 30
0.0
 11
4697.4932144358099322
 21
252.4847499808824125
 31
0.0
  0
ARC
  5
D466
  8
0
 10
4697.4919749767032044
 20
252.5646198312917079
 30
0.0
 40
0.0798794670943839
 50
177.0077559573169026
 51
270.8890723521359973
  0
LINE
  5
D467
  8
0
 10
4697.412204416462373
 20
252.5687896013236013
 30
0.0
 11
4697.4122706349617147
 21
254.9358848318238131
 31
0.0
  0
ARC
  5
D468
  8
0
 10
4702.0978523286539712
 20
249.5335300202445978
 30
0.0
 40
1.6165649126030699
 50
166.0368440684484028
 51
178.7003171073774013
  0
LINE
  5
D469
  8
0
 10
4700.4817033018298389
 20
249.5701966229732136
 30
0.0
 11
4700.4817033011458989
 21
247.742193845832503
 31
0.0
  0
ARC
  5
D46A
  8
0
 10
4702.0994971077398077
 20
247.779077765057707
 30
0.0
 40
1.618214208364283
 50
181.3060544878958069
 51
193.9566661938889069
  0
ARC
  5
D46B
  8
0
 10
4697.4917789621649717
 20
249.8439657450637128
 30
0.0
 40
0.0796300539901669
 50
89.0823246575048557
 51
183.0096542621313063
  0
LINE
  5
D46C
  8
0
 10
4697.4930542989077367
 20
249.9235855856479134
 30
0.0
 11
4700.5290551413454523
 21
249.9236037334729872
 31
0.0
  0
LINE
  5
D46D
  8
0
 10
4700.5290551419602707
 20
247.3887839574327074
 30
0.0
 11
4697.4932025425932807
 21
247.3886499799911007
 31
0.0
  0
ARC
  5
D46E
  8
0
 10
4697.4919630834865529
 20
247.4685198304003961
 30
0.0
 40
0.0798794670943839
 50
177.0077559573169026
 51
270.8890723521359973
  0
LINE
  5
D46F
  8
0
 10
4697.4121925232457215
 20
247.4726896004326022
 30
0.0
 11
4697.4122587417459727
 21
249.8397848309325013
 31
0.0
  0
ARC
  5
D470
  8
0
 10
4702.0978645471459458
 20
244.4374299786722986
 30
0.0
 40
1.616565238696688
 50
166.0368453636451136
 51
178.7003164681011071
  0
LINE
  5
D471
  8
0
 10
4700.4817151947218008
 20
244.4740966068291925
 30
0.0
 11
4700.4817151940378608
 21
242.6460938296885956
 31
0.0
  0
ARC
  5
D472
  8
0
 10
4702.0995086365455791
 20
242.6829777204596894
 30
0.0
 40
1.6182138437253071
 50
181.3060537745172098
 51
193.9566677405146891
  0
ARC
  5
D473
  8
0
 10
4697.4917908856887152
 20
244.7478657186935891
 30
0.0
 40
0.0796300831407492
 50
89.0823468040049704
 51
183.0096337336011914
  0
LINE
  5
D474
  8
0
 10
4697.4930661921243882
 20
244.8274855889175967
 30
0.0
 11
4700.5290670345621038
 21
244.8275037351228036
 31
0.0
  0
LINE
  5
D475
  8
0
 10
4700.5290670351760127
 20
242.2926839583894036
 30
0.0
 11
4697.4932168828399881
 21
242.2925499421793063
 31
0.0
  0
ARC
  5
D476
  8
0
 10
4697.4919744717635695
 20
242.3724184056927129
 30
0.0
 40
0.0798781262253188
 50
177.0066720221026912
 51
270.8912049506047879
  0
LINE
  5
D477
  8
0
 10
4697.4122053294622674
 20
242.376589614822791
 30
0.0
 11
4697.4122706346634004
 21
244.7436848315232112
 31
0.0
  0
ARC
  5
D478
  8
0
 10
4693.8434776889807836
 20
262.5790642136054203
 30
0.0
 40
0.082590736034968
 50
98.7086293287310923
 51
176.0578882937666947
  0
LINE
  5
D479
  8
0
 10
4693.8309726507623054
 20
262.6607027688227163
 30
0.0
 11
4700.5290670321883226
 21
262.6630313094951816
 31
0.0
  0
LINE
  5
D47A
  8
0
 10
4700.5290670345621038
 20
260.1320286552818857
 30
0.0
 11
4693.8374693008618124
 21
260.1297023730227238
 31
0.0
  0
ARC
  5
D47B
  8
0
 10
4693.8467313743885825
 20
260.215143026729379
 30
0.0
 40
0.0859412084614658
 50
184.6514972331663103
 51
263.813091192919785
  0
LINE
  5
D47C
  8
0
 10
4693.7610732224629828
 20
260.2081736422226754
 30
0.0
 11
4693.7610823610630177
 21
262.5847422076228099
 31
0.0
  0
ARC
  5
D47D
  8
0
 10
4701.9952885085203889
 20
260.50181303702891
 30
0.0
 40
1.4985765344588109
 50
180.7402684163834863
 51
191.0635674596516083
  0
LINE
  5
D47E
  8
0
 10
4700.4968370506621795
 20
260.4824517852259191
 30
0.0
 11
4700.4968479844310423
 21
262.310458265775992
 31
0.0
  0
ARC
  5
D47F
  8
0
 10
4702.0249702990331571
 20
262.2881271955716898
 30
0.0
 40
1.5282854723783981
 50
169.0872382838994099
 51
179.1627731654062075
  0
ARC
  5
D480
  8
0
 10
4693.8434776889807836
 20
257.4829642136053849
 30
0.0
 40
0.082590736034968
 50
98.7086293287310923
 51
176.0578882937666947
  0
LINE
  5
D481
  8
0
 10
4693.8309726507623054
 20
257.5646027688227946
 30
0.0
 11
4700.5290670350623259
 21
257.5669313094962263
 31
0.0
  0
LINE
  5
D482
  8
0
 10
4700.5290670350432265
 20
255.0359286552819924
 30
0.0
 11
4693.8374693008618124
 21
255.0336023730228021
 31
0.0
  0
ARC
  5
D483
  8
0
 10
4693.8467313743885825
 20
255.1190430267294005
 30
0.0
 40
0.0859412084614658
 50
184.6514972331663103
 51
263.813091192919785
  0
LINE
  5
D484
  8
0
 10
4693.7610732224629828
 20
255.1120736422228106
 30
0.0
 11
4693.7610823610630177
 21
257.4886422076227745
 31
0.0
  0
ARC
  5
D485
  8
0
 10
4701.9952885085203889
 20
255.405713037028903
 30
0.0
 40
1.4985765344588109
 50
180.7402684163834863
 51
191.0635674596516083
  0
LINE
  5
D486
  8
0
 10
4700.4968370506621795
 20
255.3863517852259122
 30
0.0
 11
4700.4968479844310423
 21
257.2143582657760135
 31
0.0
  0
ARC
  5
D487
  8
0
 10
4702.0249702990331571
 20
257.1920271955718249
 30
0.0
 40
1.528285472378337
 50
169.0872382838994099
 51
179.1627731654062075
  0
ARC
  5
D488
  8
0
 10
4693.8434776889807836
 20
252.3868642136054916
 30
0.0
 40
0.082590736034968
 50
98.7086293287310923
 51
176.0578882937666947
  0
LINE
  5
D489
  8
0
 10
4693.8309726507623054
 20
252.4685027688227876
 30
0.0
 11
4700.5290670350623259
 21
252.4708313094963046
 31
0.0
  0
LINE
  5
D48A
  8
0
 10
4700.5290577289952125
 20
249.9398286520469128
 30
0.0
 11
4693.8374693008618124
 21
249.9375023730227952
 31
0.0
  0
ARC
  5
D48B
  8
0
 10
4693.8467313743885825
 20
250.0229430267295072
 30
0.0
 40
0.0859412084614658
 50
184.6514972331663103
 51
263.813091192919785
  0
LINE
  5
D48C
  8
0
 10
4693.7610732224629828
 20
250.0159736422228036
 30
0.0
 11
4693.7610823610630177
 21
252.3925422076227107
 31
0.0
  0
ARC
  5
D48D
  8
0
 10
4701.9952885085203889
 20
250.3096130370288108
 30
0.0
 40
1.4985765344588109
 50
180.7402684163834863
 51
191.0635674596516083
  0
LINE
  5
D48E
  8
0
 10
4700.4968370506621795
 20
250.2902517852259052
 30
0.0
 11
4700.4968479844310423
 21
252.1182582657760918
 31
0.0
  0
ARC
  5
D48F
  8
0
 10
4702.0249702990331571
 20
252.0959271955717043
 30
0.0
 40
1.5282854723784089
 50
169.0872382838994099
 51
179.1627731654045874
  0
ARC
  5
D490
  8
0
 10
4693.8434776889807836
 20
247.2907642136055131
 30
0.0
 40
0.082590736034968
 50
98.7086293287310923
 51
176.0578882937666947
  0
LINE
  5
D491
  8
0
 10
4693.8309726507623054
 20
247.3724027688228091
 30
0.0
 11
4700.5290573866814157
 21
247.3747313061419959
 31
0.0
  0
LINE
  5
D492
  8
0
 10
4700.5290670345621038
 20
244.8437286552818932
 30
0.0
 11
4693.8374693008618124
 21
244.8414023730227882
 31
0.0
  0
ARC
  5
D493
  8
0
 10
4693.8467313743885825
 20
244.9268430267293866
 30
0.0
 40
0.0859412084614658
 50
184.6514972331663103
 51
263.813091192919785
  0
LINE
  5
D494
  8
0
 10
4693.7610732224629828
 20
244.9198736422227114
 30
0.0
 11
4693.7610823610630177
 21
247.2964422076227038
 31
0.0
  0
ARC
  5
D495
  8
0
 10
4701.9952885085203889
 20
245.2135130370288891
 30
0.0
 40
1.4985765344588109
 50
180.7402684163834863
 51
191.0635674596516083
  0
LINE
  5
D496
  8
0
 10
4700.4968370506621795
 20
245.1941517852258983
 30
0.0
 11
4700.4968479844310423
 21
247.0221582657761132
 31
0.0
  0
ARC
  5
D497
  8
0
 10
4702.0249702990340666
 20
246.999827195571612
 30
0.0
 40
1.5282854723786361
 50
169.0872382838994099
 51
179.1627731653996989
  0
ARC
  5
D498
  8
0
 10
4693.8434776889807836
 20
242.1946642136055914
 30
0.0
 40
0.082590736034968
 50
98.7086293287310923
 51
176.0578882937666947
  0
LINE
  5
D499
  8
0
 10
4693.8309726507623054
 20
242.2763027688226884
 30
0.0
 11
4700.529067036325614
 21
242.2786313094966886
 31
0.0
  0
LINE
  5
D49A
  8
0
 10
4700.5290672615792573
 20
239.7476286553608986
 30
0.0
 11
4693.8374693008618124
 21
239.745302373022696
 31
0.0
  0
ARC
  5
D49B
  8
0
 10
4693.8467313743885825
 20
239.830743026729408
 30
0.0
 40
0.0859412084614658
 50
184.6514972331663103
 51
263.813091192919785
  0
LINE
  5
D49C
  8
0
 10
4693.7610732224629828
 20
239.8237736422227897
 30
0.0
 11
4693.7610823610630177
 21
242.2003422076226968
 31
0.0
  0
ARC
  5
D49D
  8
0
 10
4701.9952885085203889
 20
240.1174130370289106
 30
0.0
 40
1.4985765344588109
 50
180.7402684163834863
 51
191.0635674596516083
  0
LINE
  5
D49E
  8
0
 10
4700.4968370506621795
 20
240.098051785225806
 30
0.0
 11
4700.4968479844310423
 21
241.9260582657759926
 31
0.0
  0
ARC
  5
D49F
  8
0
 10
4702.0249702990331571
 20
241.9037271955716903
 30
0.0
 40
1.5282854723784429
 50
169.0872382838994099
 51
179.1627731654062075
  0
LINE
  5
D4A0
  8
0
 10
4700.5290670316353498
 20
262.677083958322612
 30
0.0
 11
4700.5290670345621038
 21
262.6026327182963769
 31
0.0
  0
LINE
  5
D4A1
  8
0
 10
4700.5290670345621038
 20
262.6026327182963769
 30
0.0
 11
4700.5243214694628477
 21
262.5774532666226833
 31
0.0
  0
LINE
  5
D4A2
  8
0
 10
4700.5290670345621038
 20
260.1158037343640217
 30
0.0
 11
4700.5290670345621038
 21
260.1903758424227249
 31
0.0
  0
LINE
  5
D4A3
  8
0
 10
4700.5290670345621038
 20
260.1903758424227249
 30
0.0
 11
4700.5245631926127317
 21
260.2142392642725781
 31
0.0
  0
LINE
  5
D4A4
  8
0
 10
4700.5290670351787412
 20
257.5809839583153007
 30
0.0
 11
4700.5290670345621038
 21
257.5065325587227107
 31
0.0
  0
LINE
  5
D4A5
  8
0
 10
4700.5290670345621038
 20
257.5065325587227107
 30
0.0
 11
4700.5243214694628477
 21
257.4813532666227047
 31
0.0
  0
LINE
  5
D4A6
  8
0
 10
4700.5290670351760127
 20
255.0197037342636008
 30
0.0
 11
4700.5290670345621038
 21
255.0942758424226895
 31
0.0
  0
LINE
  5
D4A7
  8
0
 10
4700.5290670345621038
 20
255.0942758424226895
 30
0.0
 11
4700.5245631926127317
 21
255.1181392642718038
 31
0.0
  0
LINE
  5
D4A8
  8
0
 10
4700.5290670351760127
 20
252.4848839583848985
 30
0.0
 11
4700.5290670345621038
 21
252.4104325587227891
 31
0.0
  0
LINE
  5
D4A9
  8
0
 10
4700.5290670345621038
 20
252.4104325587227891
 30
0.0
 11
4700.5243214694628477
 21
252.3852532666228115
 31
0.0
  0
LINE
  5
D4AA
  8
0
 10
4700.5290551413454523
 20
249.9236037334729872
 30
0.0
 11
4700.5290670345621038
 21
249.998175842422711
 31
0.0
  0
LINE
  5
D4AB
  8
0
 10
4700.5290670345621038
 20
249.998175842422711
 30
0.0
 11
4700.5245631926127317
 21
250.0220392642717968
 31
0.0
  0
LINE
  5
D4AC
  8
0
 10
4700.5290551419602707
 20
247.3887839574325938
 30
0.0
 11
4700.5290670345621038
 21
247.3143325587228105
 31
0.0
  0
LINE
  5
D4AD
  8
0
 10
4700.5290670345621038
 20
247.3143325587228105
 30
0.0
 11
4700.5243214694628477
 21
247.2891532666228045
 31
0.0
  0
LINE
  5
D4AE
  8
0
 10
4700.5290670345621038
 20
244.8275037351228036
 30
0.0
 11
4700.5290670345621038
 21
244.9020758424227893
 31
0.0
  0
LINE
  5
D4AF
  8
0
 10
4700.5290670345621038
 20
244.9020758424227893
 30
0.0
 11
4700.5245631920060987
 21
244.9259392673737921
 31
0.0
  0
LINE
  5
D4B0
  8
0
 10
4700.5290670351760127
 20
242.2926839583894036
 30
0.0
 11
4700.5290670412623513
 21
242.2182325935227141
 31
0.0
  0
LINE
  5
D4B1
  8
0
 10
4700.5290670412623513
 20
242.2182325935227141
 30
0.0
 11
4700.5243214694628477
 21
242.1930532666227975
 31
0.0
  0
LINE
  5
D4B2
  8
0
 10
4700.5240953916872968
 20
239.6586656947301037
 30
0.0
 11
4700.5290672673590961
 21
239.6829735730597974
 31
0.0
  0
LINE
  5
D4B3
  8
0
 10
4700.5290672673590961
 20
239.6829735730597974
 30
0.0
 11
4700.5290672563623957
 21
239.8059746848227007
 31
0.0
  0
LINE
  5
D4B4
  8
0
 10
4700.5290672563623957
 20
239.8059746848227007
 30
0.0
 11
4700.5245631926127317
 21
239.8298392642716124
 31
0.0
  0
ARC
  5
D4B5
  8
0
 10
4701.9413744617449993
 20
239.3648072011926899
 30
0.0
 40
1.447422805074277
 50
168.2862739863302863
 51
179.4780272873441902
  0
LINE
  5
D4B6
  8
0
 10
4700.4940117204623675
 20
239.3779932467226956
 30
0.0
 11
4700.4940117204623675
 21
237.5499932467226927
 31
0.0
  0
ARC
  5
D4B7
  8
0
 10
4702.0779409983806545
 20
237.5758985745086989
 30
0.0
 40
1.584141105917636
 50
180.9369948830079124
 51
193.6039619736496036
  0
LINE
  5
D4B8
  8
0
 10
4700.359707516961862
 20
239.7315915579227124
 30
0.0
 11
4643.342144359361555
 21
239.7315915579227124
 31
0.0
  0
ARC
  5
D4B9
  8
0
 10
4700.3540466995200404
 20
238.1603634428863927
 30
0.0
 40
1.5712383123939999
 50
86.0320775262706547
 51
89.7935757757743431
  0
LINE
  5
D4BA
  8
0
 10
4700.3298560530620307
 20
237.2642501378228133
 30
0.0
 11
4643.3719931004998216
 21
237.2642501378228133
 31
0.0
  0
ARC
  5
D4BB
  8
0
 10
4699.9150969290403737
 20
191.4535286146777935
 30
0.0
 40
45.8125990487561694
 50
89.2369514716125565
 51
89.481272129122658
  0
ARC
  5
D4BC
  8
0
 10
4671.9402353438099453
 20
237.098508153097697
 30
0.0
 40
0.0826573140842531
 50
98.7882941876520562
 51
176.0416938207403064
  0
LINE
  5
D4BD
  8
0
 10
4671.9276066342617924
 20
237.1801950386227134
 30
0.0
 11
4679.0753449932626609
 21
237.180193582422703
 31
0.0
  0
ARC
  5
D4BE
  8
0
 10
4679.0627289919530085
 20
237.0985264490005022
 30
0.0
 40
0.0826358528148742
 50
3.9639699068362289
 51
81.218321251867124
  0
LINE
  5
D4BF
  8
0
 10
4679.1451671565819197
 20
237.1042389951055895
 30
0.0
 11
4679.145176671304398
 21
234.7276736609306909
 31
0.0
  0
ARC
  5
D4C0
  8
0
 10
4679.0626986913021028
 20
234.7333959374037988
 30
0.0
 40
0.0826762458821125
 50
278.7987771596701805
 51
356.0312104063303877
  0
LINE
  5
D4C1
  8
0
 10
4679.0753452421622569
 20
234.6516926548227104
 30
0.0
 11
4671.9276068861609019
 21
234.6519437670226864
 31
0.0
  0
ARC
  5
D4C2
  8
0
 10
4671.9396770396797365
 20
234.7331269451998139
 30
0.0
 40
0.0820755568051146
 50
183.8293813992409014
 51
261.5433263201658178
  0
LINE
  5
D4C3
  8
0
 10
4671.8577847287260738
 20
234.7276454826505017
 30
0.0
 11
4671.8577752048186085
 21
237.1042140315879863
 31
0.0
  0
ARC
  5
D4C4
  8
0
 10
4679.2413353438087142
 20
237.098508153097697
 30
0.0
 40
0.0826573140842531
 50
98.7882941876520562
 51
176.0416938207403064
  0
LINE
  5
D4C5
  8
0
 10
4679.2287066342623802
 20
237.1801950386227134
 30
0.0
 11
4686.3764449932623393
 21
237.180193582422703
 31
0.0
  0
ARC
  5
D4C6
  8
0
 10
4686.3638289919526869
 20
237.0985264490005022
 30
0.0
 40
0.0826358528148742
 50
3.9639699068362289
 51
81.218321251867124
  0
LINE
  5
D4C7
  8
0
 10
4686.4462671565815981
 20
237.1042389951055895
 30
0.0
 11
4686.4462766713031669
 21
234.7276736609306056
 31
0.0
  0
ARC
  5
D4C8
  8
0
 10
4686.3637986913017812
 20
234.7333959374037988
 30
0.0
 40
0.0826762458821125
 50
278.7987771596701805
 51
356.0312104063303877
  0
LINE
  5
D4C9
  8
0
 10
4686.3764452421628448
 20
234.6516926548227104
 30
0.0
 11
4679.2287068861633088
 21
234.6519437670226864
 31
0.0
  0
ARC
  5
D4CA
  8
0
 10
4679.2407770396794149
 20
234.7331269451998139
 30
0.0
 40
0.0820755568051146
 50
183.8293813992409014
 51
261.5433263201658178
  0
LINE
  5
D4CB
  8
0
 10
4679.1588847287257522
 20
234.7276454826505017
 30
0.0
 11
4679.1588752048182869
 21
237.1042140315879863
 31
0.0
  0
ARC
  5
D4CC
  8
0
 10
4686.5424353438102116
 20
237.098508153097697
 30
0.0
 40
0.0826573140842531
 50
98.7882941876520562
 51
176.0416938207403064
  0
LINE
  5
D4CD
  8
0
 10
4686.5298066342620587
 20
237.1801950386227134
 30
0.0
 11
4693.6775449932620177
 21
237.180193582422703
 31
0.0
  0
ARC
  5
D4CE
  8
0
 10
4693.6649289919532748
 20
237.0985264490005022
 30
0.0
 40
0.0826358528148742
 50
3.9639699068362289
 51
81.218321251867124
  0
LINE
  5
D4CF
  8
0
 10
4693.747367156582186
 20
237.1042389951055895
 30
0.0
 11
4693.7473766713037548
 21
234.7276736609306056
 31
0.0
  0
ARC
  5
D4D0
  8
0
 10
4693.6648986913005501
 20
234.7333959374037988
 30
0.0
 40
0.0826762458821125
 50
278.7987771596701805
 51
356.0312104063303877
  0
LINE
  5
D4D1
  8
0
 10
4693.6775452421616137
 20
234.6516926548227104
 30
0.0
 11
4686.5298068861620777
 21
234.6519437670226864
 31
0.0
  0
ARC
  5
D4D2
  8
0
 10
4686.5418770396800028
 20
234.7331269451998139
 30
0.0
 40
0.0820755568051146
 50
183.8293813992409014
 51
261.5433263201658178
  0
LINE
  5
D4D3
  8
0
 10
4686.4599847287272496
 20
234.7276454826505017
 30
0.0
 11
4686.4599752048197843
 21
237.1042140315879863
 31
0.0
  0
ARC
  5
D4D4
  8
0
 10
4690.1929853438086866
 20
234.550458153097594
 30
0.0
 40
0.0826573140842531
 50
98.7882941876520562
 51
176.0416938207403064
  0
LINE
  5
D4D5
  8
0
 10
4690.1803566342623526
 20
234.6321450386228094
 30
0.0
 11
4697.3280949932623116
 21
234.6321435824227137
 31
0.0
  0
ARC
  5
D4D6
  8
0
 10
4697.3154789919526593
 20
234.550476449000513
 30
0.0
 40
0.0826358528148742
 50
3.9639699068362289
 51
81.218321251867124
  0
LINE
  5
D4D7
  8
0
 10
4697.3979171565815705
 20
234.5561889951056003
 30
0.0
 11
4697.3979266713040488
 21
232.1796236609305879
 31
0.0
  0
ARC
  5
D4D8
  8
0
 10
4697.3154486913008441
 20
232.1853459374036959
 30
0.0
 40
0.0826762458821125
 50
278.7987771596701805
 51
356.0312104063303877
  0
LINE
  5
D4D9
  8
0
 10
4697.3280952421628172
 20
232.1036426548226927
 30
0.0
 11
4690.1803568861623717
 21
232.1038937670226971
 31
0.0
  0
ARC
  5
D4DA
  8
0
 10
4690.1924270396793872
 20
232.1850769451999099
 30
0.0
 40
0.0820755568051146
 50
183.8293813992409014
 51
261.5433263201658178
  0
LINE
  5
D4DB
  8
0
 10
4690.1105347287257246
 20
232.1795954826503987
 30
0.0
 11
4690.1105252048182592
 21
234.556164031587997
 31
0.0
  0
ARC
  5
D4DC
  8
0
 10
4682.8918853438090082
 20
234.550458153097594
 30
0.0
 40
0.0826573140842531
 50
98.7882941876520562
 51
176.0416938207403064
  0
LINE
  5
D4DD
  8
0
 10
4682.8792566342617647
 20
234.6321450386228094
 30
0.0
 11
4690.0269949932626332
 21
234.6321435824227137
 31
0.0
  0
ARC
  5
D4DE
  8
0
 10
4690.0143789919529809
 20
234.550476449000513
 30
0.0
 40
0.0826358528148742
 50
3.9639699068362289
 51
81.218321251867124
  0
LINE
  5
D4DF
  8
0
 10
4690.0968171565809826
 20
234.5561889951056003
 30
0.0
 11
4690.0968266713043704
 21
232.1796236609305879
 31
0.0
  0
ARC
  5
D4E0
  8
0
 10
4690.0143486913020752
 20
232.1853459374036959
 30
0.0
 40
0.0826762458821125
 50
278.7987771596701805
 51
356.0312104063303877
  0
LINE
  5
D4E1
  8
0
 10
4690.0269952421622293
 20
232.1036426548226927
 30
0.0
 11
4682.8792568861608743
 21
232.1038937670226971
 31
0.0
  0
ARC
  5
D4E2
  8
0
 10
4682.8913270396787993
 20
232.1850769451999099
 30
0.0
 40
0.0820755568051146
 50
183.8293813992409014
 51
261.5433263201658178
  0
LINE
  5
D4E3
  8
0
 10
4682.8094347287260462
 20
232.1795954826503987
 30
0.0
 11
4682.8094252048185808
 21
234.556164031587997
 31
0.0
  0
ARC
  5
D4E4
  8
0
 10
4675.5907853438102393
 20
234.550458153097594
 30
0.0
 40
0.0826573140842531
 50
98.7882941876520562
 51
176.0416938207403064
  0
LINE
  5
D4E5
  8
0
 10
4675.5781566342611768
 20
234.6321450386228094
 30
0.0
 11
4682.7258949932620453
 21
234.6321435824227137
 31
0.0
  0
ARC
  5
D4E6
  8
0
 10
4682.7132789919533025
 20
234.550476449000513
 30
0.0
 40
0.0826358528148742
 50
3.9639699068362289
 51
81.218321251867124
  0
LINE
  5
D4E7
  8
0
 10
4682.7957171565822136
 20
234.5561889951056003
 30
0.0
 11
4682.7957266713037825
 21
232.1796236609305879
 31
0.0
  0
ARC
  5
D4E8
  8
0
 10
4682.7132486913005778
 20
232.1853459374036959
 30
0.0
 40
0.0826762458821125
 50
278.7987771596701805
 51
356.0312104063303877
  0
LINE
  5
D4E9
  8
0
 10
4682.7258952421616414
 20
232.1036426548226927
 30
0.0
 11
4675.5781568861621054
 21
232.1038937670226971
 31
0.0
  0
ARC
  5
D4EA
  8
0
 10
4675.5902270396800304
 20
232.1850769451999099
 30
0.0
 40
0.0820755568051146
 50
183.8293813992409014
 51
261.5433263201658178
  0
LINE
  5
D4EB
  8
0
 10
4675.5083347287263678
 20
232.1795954826503987
 30
0.0
 11
4675.5083252048198119
 21
234.556164031587997
 31
0.0
  0
ARC
  5
D4EC
  8
0
 10
4671.9402353438099453
 20
232.0024081530976048
 30
0.0
 40
0.0826573140842531
 50
98.7882941876520562
 51
176.0416938207403064
  0
LINE
  5
D4ED
  8
0
 10
4671.9276066342617924
 20
232.0840950386227064
 30
0.0
 11
4679.0753449932626609
 21
232.084093582422696
 31
0.0
  0
ARC
  5
D4EE
  8
0
 10
4679.0627289919530085
 20
232.0024264490004953
 30
0.0
 40
0.0826358528148742
 50
3.9639699068362289
 51
81.218321251867124
  0
LINE
  5
D4EF
  8
0
 10
4679.1451671565819197
 20
232.0081389951054973
 30
0.0
 11
4679.145176671304398
 21
229.6315736609305986
 31
0.0
  0
ARC
  5
D4F0
  8
0
 10
4679.0626986913021028
 20
229.6372959374037066
 30
0.0
 40
0.0826762458821125
 50
278.7987771596701805
 51
356.0312104063303877
  0
LINE
  5
D4F1
  8
0
 10
4679.0753452421622569
 20
229.5555926548227035
 30
0.0
 11
4671.9276068861609019
 21
229.5558437670227079
 31
0.0
  0
ARC
  5
D4F2
  8
0
 10
4671.9396770396797365
 20
229.6370269451998922
 30
0.0
 40
0.0820755568051146
 50
183.8293813992409014
 51
261.5433263201658178
  0
LINE
  5
D4F3
  8
0
 10
4671.8577847287260738
 20
229.6315454826504094
 30
0.0
 11
4671.8577752048186085
 21
232.0081140315880077
 31
0.0
  0
ARC
  5
D4F4
  8
0
 10
4679.2413353438087142
 20
232.0024081530976048
 30
0.0
 40
0.0826573140842531
 50
98.7882941876520562
 51
176.0416938207403064
  0
LINE
  5
D4F5
  8
0
 10
4679.2287066342623802
 20
232.0840950386227064
 30
0.0
 11
4686.3764449932623393
 21
232.084093582422696
 31
0.0
  0
ARC
  5
D4F6
  8
0
 10
4686.3638289919526869
 20
232.0024264490004953
 30
0.0
 40
0.0826358528148742
 50
3.9639699068362289
 51
81.218321251867124
  0
LINE
  5
D4F7
  8
0
 10
4686.4462671565815981
 20
232.0081389951054973
 30
0.0
 11
4686.4462766713031669
 21
229.6315736609305986
 31
0.0
  0
ARC
  5
D4F8
  8
0
 10
4686.3637986913017812
 20
229.6372959374037066
 30
0.0
 40
0.0826762458821125
 50
278.7987771596701805
 51
356.0312104063303877
  0
LINE
  5
D4F9
  8
0
 10
4686.3764452421628448
 20
229.5555926548227035
 30
0.0
 11
4679.2287068861633088
 21
229.5558437670227079
 31
0.0
  0
ARC
  5
D4FA
  8
0
 10
4679.2407770396794149
 20
229.6370269451998922
 30
0.0
 40
0.0820755568051146
 50
183.8293813992409014
 51
261.5433263201658178
  0
LINE
  5
D4FB
  8
0
 10
4679.1588847287257522
 20
229.6315454826504094
 30
0.0
 11
4679.1588752048182869
 21
232.0081140315880077
 31
0.0
  0
ARC
  5
D4FC
  8
0
 10
4686.5424353438102116
 20
232.0024081530976048
 30
0.0
 40
0.0826573140842531
 50
98.7882941876520562
 51
176.0416938207403064
  0
LINE
  5
D4FD
  8
0
 10
4686.5298066342620587
 20
232.0840950386227064
 30
0.0
 11
4693.6775449932620177
 21
232.084093582422696
 31
0.0
  0
ARC
  5
D4FE
  8
0
 10
4693.6649289919532748
 20
232.0024264490004953
 30
0.0
 40
0.0826358528148742
 50
3.9639699068362289
 51
81.218321251867124
  0
LINE
  5
D4FF
  8
0
 10
4693.747367156582186
 20
232.0081389951054973
 30
0.0
 11
4693.7473766713037548
 21
229.6315736609305986
 31
0.0
  0
ARC
  5
D500
  8
0
 10
4693.6648986913005501
 20
229.6372959374037066
 30
0.0
 40
0.0826762458821125
 50
278.7987771596701805
 51
356.0312104063303877
  0
LINE
  5
D501
  8
0
 10
4693.6775452421616137
 20
229.5555926548227035
 30
0.0
 11
4686.5298068861620777
 21
229.5558437670227079
 31
0.0
  0
ARC
  5
D502
  8
0
 10
4686.5418770396800028
 20
229.6370269451998922
 30
0.0
 40
0.0820755568051146
 50
183.8293813992409014
 51
261.5433263201658178
  0
LINE
  5
D503
  8
0
 10
4686.4599847287272496
 20
229.6315454826504094
 30
0.0
 11
4686.4599752048197843
 21
232.0081140315880077
 31
0.0
  0
ARC
  5
D504
  8
0
 10
4675.5907853438102393
 20
229.4543581530975871
 30
0.0
 40
0.0826573140842531
 50
98.7882941876520562
 51
176.0416938207403064
  0
LINE
  5
D505
  8
0
 10
4675.5781566342611768
 20
229.5360450386228024
 30
0.0
 11
4682.7258949932620453
 21
229.536043582422792
 31
0.0
  0
ARC
  5
D506
  8
0
 10
4682.7132789919533025
 20
229.454376449000506
 30
0.0
 40
0.0826358528148742
 50
3.9639699068362289
 51
81.218321251867124
  0
LINE
  5
D507
  8
0
 10
4682.7957171565822136
 20
229.4600889951055933
 30
0.0
 11
4682.7957266713037825
 21
227.0835236609306094
 31
0.0
  0
ARC
  5
D508
  8
0
 10
4682.7132486913005778
 20
227.0892459374036889
 30
0.0
 40
0.0826762458821125
 50
278.7987771596701805
 51
356.0312104063303877
  0
LINE
  5
D509
  8
0
 10
4682.7258952421616414
 20
227.0075426548227995
 30
0.0
 11
4675.5781568861621054
 21
227.0077937670226902
 31
0.0
  0
ARC
  5
D50A
  8
0
 10
4675.5902270396800304
 20
227.088976945199903
 30
0.0
 40
0.0820755568051146
 50
183.8293813992409014
 51
261.5433263201658178
  0
LINE
  5
D50B
  8
0
 10
4675.5083347287263678
 20
227.0834954826503918
 30
0.0
 11
4675.5083252048198119
 21
229.4600640315879048
 31
0.0
  0
ARC
  5
D50C
  8
0
 10
4682.8918853438090082
 20
229.4543581530975871
 30
0.0
 40
0.0826573140842531
 50
98.7882941876520562
 51
176.0416938207403064
  0
LINE
  5
D50D
  8
0
 10
4682.8792566342617647
 20
229.5360450386228024
 30
0.0
 11
4690.0269949932626332
 21
229.536043582422792
 31
0.0
  0
ARC
  5
D50E
  8
0
 10
4690.0143789919529809
 20
229.454376449000506
 30
0.0
 40
0.0826358528148742
 50
3.9639699068362289
 51
81.218321251867124
  0
LINE
  5
D50F
  8
0
 10
4690.0968171565809826
 20
229.4600889951055933
 30
0.0
 11
4690.0968266713043704
 21
227.0835236609306094
 31
0.0
  0
ARC
  5
D510
  8
0
 10
4690.0143486913020752
 20
227.0892459374036889
 30
0.0
 40
0.0826762458821125
 50
278.7987771596701805
 51
356.0312104063303877
  0
LINE
  5
D511
  8
0
 10
4690.0269952421622293
 20
227.0075426548227995
 30
0.0
 11
4682.8792568861608743
 21
227.0077937670226902
 31
0.0
  0
ARC
  5
D512
  8
0
 10
4682.8913270396787993
 20
227.088976945199903
 30
0.0
 40
0.0820755568051146
 50
183.8293813992409014
 51
261.5433263201658178
  0
LINE
  5
D513
  8
0
 10
4682.8094347287260462
 20
227.0834954826503918
 30
0.0
 11
4682.8094252048185808
 21
229.4600640315879048
 31
0.0
  0
ARC
  5
D514
  8
0
 10
4690.1929853438086866
 20
229.4543581530975871
 30
0.0
 40
0.0826573140842531
 50
98.7882941876520562
 51
176.0416938207403064
  0
LINE
  5
D515
  8
0
 10
4690.1803566342623526
 20
229.5360450386228024
 30
0.0
 11
4697.3280949932623116
 21
229.536043582422792
 31
0.0
  0
ARC
  5
D516
  8
0
 10
4697.3154789919526593
 20
229.454376449000506
 30
0.0
 40
0.0826358528148742
 50
3.9639699068362289
 51
81.218321251867124
  0
LINE
  5
D517
  8
0
 10
4697.3979171565815705
 20
229.4600889951055933
 30
0.0
 11
4697.3979266713040488
 21
227.0835236609306094
 31
0.0
  0
ARC
  5
D518
  8
0
 10
4697.3154486913008441
 20
227.0892459374036889
 30
0.0
 40
0.0826762458821125
 50
278.7987771596701805
 51
356.0312104063303877
  0
LINE
  5
D519
  8
0
 10
4697.3280952421628172
 20
227.0075426548227995
 30
0.0
 11
4690.1803568861623717
 21
227.0077937670226902
 31
0.0
  0
ARC
  5
D51A
  8
0
 10
4690.1924270396793872
 20
227.088976945199903
 30
0.0
 40
0.0820755568051146
 50
183.8293813992409014
 51
261.5433263201658178
  0
LINE
  5
D51B
  8
0
 10
4690.1105347287257246
 20
227.0834954826503918
 30
0.0
 11
4690.1105252048182592
 21
229.4600640315879048
 31
0.0
  0
ARC
  5
D51C
  8
0
 10
4671.9402353438099453
 20
226.9063081530975978
 30
0.0
 40
0.0826573140842531
 50
98.7882941876520562
 51
176.0416938207403064
  0
LINE
  5
D51D
  8
0
 10
4671.9276066342617924
 20
226.9879950386226994
 30
0.0
 11
4679.0753449932626609
 21
226.9879935824228028
 31
0.0
  0
ARC
  5
D51E
  8
0
 10
4679.0627289919530085
 20
226.9063264490004883
 30
0.0
 40
0.0826358528148742
 50
3.9639699068362289
 51
81.218321251867124
  0
LINE
  5
D51F
  8
0
 10
4679.1451671565819197
 20
226.9120389951054904
 30
0.0
 11
4679.145176671304398
 21
224.5354736609307054
 31
0.0
  0
ARC
  5
D520
  8
0
 10
4679.0626986913021028
 20
224.5411959374036996
 30
0.0
 40
0.0826762458821125
 50
278.7987771596701805
 51
356.0312104063303877
  0
LINE
  5
D521
  8
0
 10
4679.0753452421622569
 20
224.4594926548228102
 30
0.0
 11
4671.9276068861609019
 21
224.4597437670227009
 31
0.0
  0
ARC
  5
D522
  8
0
 10
4671.9396770396797365
 20
224.5409269451999137
 30
0.0
 40
0.0820755568051146
 50
183.8293813992409014
 51
261.5433263201658178
  0
LINE
  5
D523
  8
0
 10
4671.8577847287260738
 20
224.5354454826504025
 30
0.0
 11
4671.8577752048186085
 21
226.9120140315880008
 31
0.0
  0
ARC
  5
D524
  8
0
 10
4679.2413353438087142
 20
226.9063081530975978
 30
0.0
 40
0.0826573140842531
 50
98.7882941876520562
 51
176.0416938207403064
  0
LINE
  5
D525
  8
0
 10
4679.2287066342623802
 20
226.9879950386226994
 30
0.0
 11
4686.3764449932623393
 21
226.9879935824228028
 31
0.0
  0
ARC
  5
D526
  8
0
 10
4686.3638289919526869
 20
226.9063264490004883
 30
0.0
 40
0.0826358528148742
 50
3.9639699068362289
 51
81.218321251867124
  0
LINE
  5
D527
  8
0
 10
4686.4462671565815981
 20
226.9120389951054904
 30
0.0
 11
4686.4462766713031669
 21
224.5354736609307054
 31
0.0
  0
ARC
  5
D528
  8
0
 10
4686.3637986913017812
 20
224.5411959374036996
 30
0.0
 40
0.0826762458821125
 50
278.7987771596701805
 51
356.0312104063303877
  0
LINE
  5
D529
  8
0
 10
4686.3764452421628448
 20
224.4594926548228102
 30
0.0
 11
4679.2287068861633088
 21
224.4597437670227009
 31
0.0
  0
ARC
  5
D52A
  8
0
 10
4679.2407770396794149
 20
224.5409269451999137
 30
0.0
 40
0.0820755568051146
 50
183.8293813992409014
 51
261.5433263201658178
  0
LINE
  5
D52B
  8
0
 10
4679.1588847287257522
 20
224.5354454826504025
 30
0.0
 11
4679.1588752048182869
 21
226.9120140315880008
 31
0.0
  0
ARC
  5
D52C
  8
0
 10
4686.5424353438102116
 20
226.9063081530975978
 30
0.0
 40
0.0826573140842531
 50
98.7882941876520562
 51
176.0416938207403064
  0
LINE
  5
D52D
  8
0
 10
4686.5298066342620587
 20
226.9879950386226994
 30
0.0
 11
4693.6775449932620177
 21
226.9879935824228028
 31
0.0
  0
ARC
  5
D52E
  8
0
 10
4693.6649289919532748
 20
226.9063264490004883
 30
0.0
 40
0.0826358528148742
 50
3.9639699068362289
 51
81.218321251867124
  0
LINE
  5
D52F
  8
0
 10
4693.747367156582186
 20
226.9120389951054904
 30
0.0
 11
4693.7473766713037548
 21
224.5354736609307054
 31
0.0
  0
ARC
  5
D530
  8
0
 10
4693.6648986913005501
 20
224.5411959374036996
 30
0.0
 40
0.0826762458821125
 50
278.7987771596701805
 51
356.0312104063303877
  0
LINE
  5
D531
  8
0
 10
4693.6775452421616137
 20
224.4594926548228102
 30
0.0
 11
4686.5298068861620777
 21
224.4597437670227009
 31
0.0
  0
ARC
  5
D532
  8
0
 10
4686.5418770396800028
 20
224.5409269451999137
 30
0.0
 40
0.0820755568051146
 50
183.8293813992409014
 51
261.5433263201658178
  0
LINE
  5
D533
  8
0
 10
4686.4599847287272496
 20
224.5354454826504025
 30
0.0
 11
4686.4599752048197843
 21
226.9120140315880008
 31
0.0
  0
ARC
  5
D534
  8
0
 10
4675.5907853438102393
 20
224.3582581530976086
 30
0.0
 40
0.0826573140842531
 50
98.7882941876520562
 51
176.0416938207403064
  0
LINE
  5
D535
  8
0
 10
4675.5781566342611768
 20
224.4399450386227102
 30
0.0
 11
4682.7258949932620453
 21
224.4399435824226998
 31
0.0
  0
ARC
  5
D536
  8
0
 10
4682.7132789919533025
 20
224.358276449000499
 30
0.0
 40
0.0826358528148742
 50
3.9639699068362289
 51
81.218321251867124
  0
LINE
  5
D537
  8
0
 10
4682.7957171565822136
 20
224.3639889951055011
 30
0.0
 11
4682.7957266713037825
 21
221.9874236609306877
 31
0.0
  0
ARC
  5
D538
  8
0
 10
4682.7132486913005778
 20
221.9931459374037104
 30
0.0
 40
0.0826762458821125
 50
278.7987771596701805
 51
356.0312104063303877
  0
LINE
  5
D539
  8
0
 10
4682.7258952421616414
 20
221.9114426548227925
 30
0.0
 11
4675.5781568861621054
 21
221.9116937670227117
 31
0.0
  0
ARC
  5
D53A
  8
0
 10
4675.5902270396800304
 20
221.9928769451998107
 30
0.0
 40
0.0820755568051146
 50
183.8293813992409014
 51
261.5433263201658178
  0
LINE
  5
D53B
  8
0
 10
4675.5083347287263678
 20
221.9873954826504132
 30
0.0
 11
4675.5083252048198119
 21
224.3639640315878978
 31
0.0
  0
ARC
  5
D53C
  8
0
 10
4682.8918853438090082
 20
224.3582581530976086
 30
0.0
 40
0.0826573140842531
 50
98.7882941876520562
 51
176.0416938207403064
  0
LINE
  5
D53D
  8
0
 10
4682.8792566342617647
 20
224.4399450386227102
 30
0.0
 11
4690.0269949932626332
 21
224.4399435824226998
 31
0.0
  0
ARC
  5
D53E
  8
0
 10
4690.0143789919529809
 20
224.358276449000499
 30
0.0
 40
0.0826358528148742
 50
3.9639699068362289
 51
81.218321251867124
  0
LINE
  5
D53F
  8
0
 10
4690.0968171565809826
 20
224.3639889951055011
 30
0.0
 11
4690.0968266713043704
 21
221.9874236609306877
 31
0.0
  0
ARC
  5
D540
  8
0
 10
4690.0143486913020752
 20
221.9931459374037104
 30
0.0
 40
0.0826762458821125
 50
278.7987771596701805
 51
356.0312104063303877
  0
LINE
  5
D541
  8
0
 10
4690.0269952421622293
 20
221.9114426548227925
 30
0.0
 11
4682.8792568861608743
 21
221.9116937670227117
 31
0.0
  0
ARC
  5
D542
  8
0
 10
4682.8913270396787993
 20
221.9928769451998107
 30
0.0
 40
0.0820755568051146
 50
183.8293813992409014
 51
261.5433263201658178
  0
LINE
  5
D543
  8
0
 10
4682.8094347287260462
 20
221.9873954826504132
 30
0.0
 11
4682.8094252048185808
 21
224.3639640315878978
 31
0.0
  0
ARC
  5
D544
  8
0
 10
4690.1929853438086866
 20
224.3582581530976086
 30
0.0
 40
0.0826573140842531
 50
98.7882941876520562
 51
176.0416938207403064
  0
LINE
  5
D545
  8
0
 10
4690.1803566342623526
 20
224.4399450386227102
 30
0.0
 11
4697.3280949932623116
 21
224.4399435824226998
 31
0.0
  0
ARC
  5
D546
  8
0
 10
4697.3154789919526593
 20
224.358276449000499
 30
0.0
 40
0.0826358528148742
 50
3.9639699068362289
 51
81.218321251867124
  0
LINE
  5
D547
  8
0
 10
4697.3979171565815705
 20
224.3639889951055011
 30
0.0
 11
4697.3979266713040488
 21
221.9874236609306877
 31
0.0
  0
ARC
  5
D548
  8
0
 10
4697.3154486913008441
 20
221.9931459374037104
 30
0.0
 40
0.0826762458821125
 50
278.7987771596701805
 51
356.0312104063303877
  0
LINE
  5
D549
  8
0
 10
4697.3280952421628172
 20
221.9114426548227925
 30
0.0
 11
4690.1803568861623717
 21
221.9116937670227117
 31
0.0
  0
ARC
  5
D54A
  8
0
 10
4690.1924270396793872
 20
221.9928769451998107
 30
0.0
 40
0.0820755568051146
 50
183.8293813992409014
 51
261.5433263201658178
  0
LINE
  5
D54B
  8
0
 10
4690.1105347287257246
 20
221.9873954826504132
 30
0.0
 11
4690.1105252048182592
 21
224.3639640315878978
 31
0.0
  0
ARC
  5
D54C
  8
0
 10
4686.5424353438102116
 20
221.8102081530977046
 30
0.0
 40
0.0826573140842531
 50
98.7882941876520562
 51
176.0416938207403064
  0
LINE
  5
D54D
  8
0
 10
4686.5298066342620587
 20
221.8918950386226925
 30
0.0
 11
4693.6775449932620177
 21
221.8918935824227958
 31
0.0
  0
ARC
  5
D54E
  8
0
 10
4693.6649289919532748
 20
221.810226449000595
 30
0.0
 40
0.0826358528148742
 50
3.9639699068362289
 51
81.218321251867124
  0
LINE
  5
D54F
  8
0
 10
4693.747367156582186
 20
221.8159389951055118
 30
0.0
 11
4693.7473766713037548
 21
219.4393736609306984
 31
0.0
  0
ARC
  5
D550
  8
0
 10
4693.6648986913005501
 20
219.4450959374036927
 30
0.0
 40
0.0826762458821125
 50
278.7987771596701805
 51
356.0312104063303877
  0
LINE
  5
D551
  8
0
 10
4693.6775452421616137
 20
219.3633926548228033
 30
0.0
 11
4686.5298068861620777
 21
219.3636437670226087
 31
0.0
  0
ARC
  5
D552
  8
0
 10
4686.5418770396800028
 20
219.4448269451999067
 30
0.0
 40
0.0820755568051146
 50
183.8293813992409014
 51
261.5433263201658178
  0
LINE
  5
D553
  8
0
 10
4686.4599847287272496
 20
219.4393454826505092
 30
0.0
 11
4686.4599752048197843
 21
221.8159140315879085
 31
0.0
  0
ARC
  5
D554
  8
0
 10
4679.2413353438087142
 20
221.8102081530977046
 30
0.0
 40
0.0826573140842531
 50
98.7882941876520562
 51
176.0416938207403064
  0
LINE
  5
D555
  8
0
 10
4679.2287066342623802
 20
221.8918950386226925
 30
0.0
 11
4686.3764449932623393
 21
221.8918935824227958
 31
0.0
  0
ARC
  5
D556
  8
0
 10
4686.3638289919526869
 20
221.810226449000595
 30
0.0
 40
0.0826358528148742
 50
3.9639699068362289
 51
81.218321251867124
  0
LINE
  5
D557
  8
0
 10
4686.4462671565815981
 20
221.8159389951055118
 30
0.0
 11
4686.4462766713031669
 21
219.4393736609306984
 31
0.0
  0
ARC
  5
D558
  8
0
 10
4686.3637986913017812
 20
219.4450959374036927
 30
0.0
 40
0.0826762458821125
 50
278.7987771596701805
 51
356.0312104063303877
  0
LINE
  5
D559
  8
0
 10
4686.3764452421628448
 20
219.3633926548228033
 30
0.0
 11
4679.2287068861633088
 21
219.3636437670226087
 31
0.0
  0
ARC
  5
D55A
  8
0
 10
4679.2407770396794149
 20
219.4448269451999067
 30
0.0
 40
0.0820755568051146
 50
183.8293813992409014
 51
261.5433263201658178
  0
LINE
  5
D55B
  8
0
 10
4679.1588847287257522
 20
219.4393454826505092
 30
0.0
 11
4679.1588752048182869
 21
221.8159140315879085
 31
0.0
  0
ARC
  5
D55C
  8
0
 10
4671.9402353438099453
 20
221.8102081530977046
 30
0.0
 40
0.0826573140842531
 50
98.7882941876520562
 51
176.0416938207403064
  0
LINE
  5
D55D
  8
0
 10
4671.9276066342617924
 20
221.8918950386226925
 30
0.0
 11
4679.0753449932626609
 21
221.8918935824227958
 31
0.0
  0
ARC
  5
D55E
  8
0
 10
4679.0627289919530085
 20
221.810226449000595
 30
0.0
 40
0.0826358528148742
 50
3.9639699068362289
 51
81.218321251867124
  0
LINE
  5
D55F
  8
0
 10
4679.1451671565819197
 20
221.8159389951055118
 30
0.0
 11
4679.145176671304398
 21
219.4393736609306984
 31
0.0
  0
ARC
  5
D560
  8
0
 10
4679.0626986913021028
 20
219.4450959374036927
 30
0.0
 40
0.0826762458821125
 50
278.7987771596701805
 51
356.0312104063303877
  0
LINE
  5
D561
  8
0
 10
4679.0753452421622569
 20
219.3633926548228033
 30
0.0
 11
4671.9276068861609019
 21
219.3636437670226087
 31
0.0
  0
ARC
  5
D562
  8
0
 10
4671.9396770396797365
 20
219.4448269451999067
 30
0.0
 40
0.0820755568051146
 50
183.8293813992409014
 51
261.5433263201658178
  0
LINE
  5
D563
  8
0
 10
4671.8577847287260738
 20
219.4393454826505092
 30
0.0
 11
4671.8577752048186085
 21
221.8159140315879085
 31
0.0
  0
ARC
  5
D564
  8
0
 10
4675.5907853438102393
 20
219.2621581530976869
 30
0.0
 40
0.0826573140842531
 50
98.7882941876520562
 51
176.0416938207403064
  0
LINE
  5
D565
  8
0
 10
4675.5781566342611768
 20
219.3438450386227032
 30
0.0
 11
4682.7258949932620453
 21
219.3438435824226929
 31
0.0
  0
ARC
  5
D566
  8
0
 10
4682.7132789919533025
 20
219.2621764490006058
 30
0.0
 40
0.0826358528148742
 50
3.9639699068362289
 51
81.218321251867124
  0
LINE
  5
D567
  8
0
 10
4682.7957171565822136
 20
219.2678889951054941
 30
0.0
 11
4682.7957266713037825
 21
216.8913236609307091
 31
0.0
  0
ARC
  5
D568
  8
0
 10
4682.7132486913005778
 20
216.8970459374037887
 30
0.0
 40
0.0826762458821125
 50
278.7987771596701805
 51
356.0312104063303877
  0
LINE
  5
D569
  8
0
 10
4682.7258952421616414
 20
216.815342654822814
 30
0.0
 11
4675.5781568861621054
 21
216.81559376702279
 31
0.0
  0
ARC
  5
D56A
  8
0
 10
4675.5902270396800304
 20
216.8967769451998038
 30
0.0
 40
0.0820755568051146
 50
183.8293813992409014
 51
261.5433263201658178
  0
LINE
  5
D56B
  8
0
 10
4675.5083347287263678
 20
216.8912954826504915
 30
0.0
 11
4675.5083252048198119
 21
219.2678640315878908
 31
0.0
  0
ARC
  5
D56C
  8
0
 10
4682.8918853438090082
 20
219.2621581530976869
 30
0.0
 40
0.0826573140842531
 50
98.7882941876520562
 51
176.0416938207403064
  0
LINE
  5
D56D
  8
0
 10
4682.8792566342617647
 20
219.3438450386227032
 30
0.0
 11
4690.0269949932626332
 21
219.3438435824226929
 31
0.0
  0
ARC
  5
D56E
  8
0
 10
4690.0143789919529809
 20
219.2621764490006058
 30
0.0
 40
0.0826358528148742
 50
3.9639699068362289
 51
81.218321251867124
  0
LINE
  5
D56F
  8
0
 10
4690.0968171565809826
 20
219.2678889951054941
 30
0.0
 11
4690.0968266713043704
 21
216.8913236609307091
 31
0.0
  0
ARC
  5
D570
  8
0
 10
4690.0143486913020752
 20
216.8970459374037887
 30
0.0
 40
0.0826762458821125
 50
278.7987771596701805
 51
356.0312104063303877
  0
LINE
  5
D571
  8
0
 10
4690.0269952421622293
 20
216.815342654822814
 30
0.0
 11
4682.8792568861608743
 21
216.81559376702279
 31
0.0
  0
ARC
  5
D572
  8
0
 10
4682.8913270396787993
 20
216.8967769451998038
 30
0.0
 40
0.0820755568051146
 50
183.8293813992409014
 51
261.5433263201658178
  0
LINE
  5
D573
  8
0
 10
4682.8094347287260462
 20
216.8912954826504915
 30
0.0
 11
4682.8094252048185808
 21
219.2678640315878908
 31
0.0
  0
ARC
  5
D574
  8
0
 10
4690.1929853438086866
 20
219.2621581530976869
 30
0.0
 40
0.0826573140842531
 50
98.7882941876520562
 51
176.0416938207403064
  0
LINE
  5
D575
  8
0
 10
4690.1803566342623526
 20
219.3438450386227032
 30
0.0
 11
4697.3280949932623116
 21
219.3438435824226929
 31
0.0
  0
ARC
  5
D576
  8
0
 10
4697.3154789919526593
 20
219.2621764490006058
 30
0.0
 40
0.0826358528148742
 50
3.9639699068362289
 51
81.218321251867124
  0
LINE
  5
D577
  8
0
 10
4697.3979171565815705
 20
219.2678889951054941
 30
0.0
 11
4697.3979266713040488
 21
216.8913236609307091
 31
0.0
  0
ARC
  5
D578
  8
0
 10
4697.3154486913008441
 20
216.8970459374037887
 30
0.0
 40
0.0826762458821125
 50
278.7987771596701805
 51
356.0312104063303877
  0
LINE
  5
D579
  8
0
 10
4697.3280952421628172
 20
216.815342654822814
 30
0.0
 11
4690.1803568861623717
 21
216.81559376702279
 31
0.0
  0
ARC
  5
D57A
  8
0
 10
4690.1924270396793872
 20
216.8967769451998038
 30
0.0
 40
0.0820755568051146
 50
183.8293813992409014
 51
261.5433263201658178
  0
LINE
  5
D57B
  8
0
 10
4690.1105347287257246
 20
216.8912954826504915
 30
0.0
 11
4690.1105252048182592
 21
219.2678640315878908
 31
0.0
  0
ARC
  5
D57C
  8
0
 10
4686.5424353438102116
 20
216.7141081530976976
 30
0.0
 40
0.0826573140842531
 50
98.7882941876520562
 51
176.0416938207403064
  0
LINE
  5
D57D
  8
0
 10
4686.5298066342620587
 20
216.7957950386227139
 30
0.0
 11
4693.6775449932620177
 21
216.7957935824227036
 31
0.0
  0
ARC
  5
D57E
  8
0
 10
4693.6649289919532748
 20
216.7141264490005028
 30
0.0
 40
0.0826358528148742
 50
3.9639699068362289
 51
81.218321251867124
  0
LINE
  5
D57F
  8
0
 10
4693.747367156582186
 20
216.7198389951055901
 30
0.0
 11
4693.7473766713037548
 21
214.3432736609306062
 31
0.0
  0
ARC
  5
D580
  8
0
 10
4693.6648986913005501
 20
214.3489959374037994
 30
0.0
 40
0.0826762458821125
 50
278.7987771596701805
 51
356.0312104063303877
  0
LINE
  5
D581
  8
0
 10
4693.6775452421616137
 20
214.267292654822711
 30
0.0
 11
4686.5298068861620777
 21
214.267543767022687
 31
0.0
  0
ARC
  5
D582
  8
0
 10
4686.5418770396800028
 20
214.3487269451997861
 30
0.0
 40
0.0820755568051146
 50
183.8293813992409014
 51
261.5433263201658178
  0
LINE
  5
D583
  8
0
 10
4686.4599847287272496
 20
214.3432454826505023
 30
0.0
 11
4686.4599752048197843
 21
216.7198140315879868
 31
0.0
  0
ARC
  5
D584
  8
0
 10
4679.2413353438087142
 20
216.7141081530976976
 30
0.0
 40
0.0826573140842531
 50
98.7882941876520562
 51
176.0416938207403064
  0
LINE
  5
D585
  8
0
 10
4679.2287066342623802
 20
216.7957950386227139
 30
0.0
 11
4686.3764449932623393
 21
216.7957935824227036
 31
0.0
  0
ARC
  5
D586
  8
0
 10
4686.3638289919526869
 20
216.7141264490005028
 30
0.0
 40
0.0826358528148742
 50
3.9639699068362289
 51
81.218321251867124
  0
LINE
  5
D587
  8
0
 10
4686.4462671565815981
 20
216.7198389951055901
 30
0.0
 11
4686.4462766713031669
 21
214.3432736609306062
 31
0.0
  0
ARC
  5
D588
  8
0
 10
4686.3637986913017812
 20
214.3489959374037994
 30
0.0
 40
0.0826762458821125
 50
278.7987771596701805
 51
356.0312104063303877
  0
LINE
  5
D589
  8
0
 10
4686.3764452421628448
 20
214.267292654822711
 30
0.0
 11
4679.2287068861633088
 21
214.267543767022687
 31
0.0
  0
ARC
  5
D58A
  8
0
 10
4679.2407770396794149
 20
214.3487269451997861
 30
0.0
 40
0.0820755568051146
 50
183.8293813992409014
 51
261.5433263201658178
  0
LINE
  5
D58B
  8
0
 10
4679.1588847287257522
 20
214.3432454826505023
 30
0.0
 11
4679.1588752048182869
 21
216.7198140315879868
 31
0.0
  0
ARC
  5
D58C
  8
0
 10
4671.9402353438099453
 20
216.7141081530976976
 30
0.0
 40
0.0826573140842531
 50
98.7882941876520562
 51
176.0416938207403064
  0
LINE
  5
D58D
  8
0
 10
4671.9276066342617924
 20
216.7957950386227139
 30
0.0
 11
4679.0753449932626609
 21
216.7957935824227036
 31
0.0
  0
ARC
  5
D58E
  8
0
 10
4679.0627289919530085
 20
216.7141264490005028
 30
0.0
 40
0.0826358528148742
 50
3.9639699068362289
 51
81.218321251867124
  0
LINE
  5
D58F
  8
0
 10
4679.1451671565819197
 20
216.7198389951055901
 30
0.0
 11
4679.145176671304398
 21
214.3432736609306062
 31
0.0
  0
ARC
  5
D590
  8
0
 10
4679.0626986913021028
 20
214.3489959374037994
 30
0.0
 40
0.0826762458821125
 50
278.7987771596701805
 51
356.0312104063303877
  0
LINE
  5
D591
  8
0
 10
4679.0753452421622569
 20
214.267292654822711
 30
0.0
 11
4671.9276068861609019
 21
214.267543767022687
 31
0.0
  0
ARC
  5
D592
  8
0
 10
4671.9396770396797365
 20
214.3487269451997861
 30
0.0
 40
0.0820755568051146
 50
183.8293813992409014
 51
261.5433263201658178
  0
LINE
  5
D593
  8
0
 10
4671.8577847287260738
 20
214.3432454826505023
 30
0.0
 11
4671.8577752048186085
 21
216.7198140315879868
 31
0.0
  0
ARC
  5
D594
  8
0
 10
4675.5907853438102393
 20
214.1660581530977083
 30
0.0
 40
0.0826573140842531
 50
98.7882941876520562
 51
176.0416938207403064
  0
LINE
  5
D595
  8
0
 10
4675.5781566342611768
 20
214.2477450386226963
 30
0.0
 11
4682.7258949932620453
 21
214.2477435824226859
 31
0.0
  0
ARC
  5
D596
  8
0
 10
4682.7132789919533025
 20
214.1660764490005988
 30
0.0
 40
0.0826358528148742
 50
3.9639699068362289
 51
81.218321251867124
  0
LINE
  5
D597
  8
0
 10
4682.7957171565822136
 20
214.1717889951056009
 30
0.0
 11
4682.7957266713037825
 21
211.7952236609307022
 31
0.0
  0
ARC
  5
D598
  8
0
 10
4682.7132486913005778
 20
211.8009459374038101
 30
0.0
 40
0.0826762458821125
 50
278.7987771596701805
 51
356.0312104063303877
  0
LINE
  5
D599
  8
0
 10
4682.7258952421616414
 20
211.719242654822807
 30
0.0
 11
4675.5781568861621054
 21
211.7194937670226977
 31
0.0
  0
ARC
  5
D59A
  8
0
 10
4675.5902270396800304
 20
211.8006769451997968
 30
0.0
 40
0.0820755568051146
 50
183.8293813992409014
 51
261.5433263201658178
  0
LINE
  5
D59B
  8
0
 10
4675.5083347287263678
 20
211.795195482650513
 30
0.0
 11
4675.5083252048198119
 21
214.1717640315879976
 31
0.0
  0
ARC
  5
D59C
  8
0
 10
4682.8918853438090082
 20
214.1660581530977083
 30
0.0
 40
0.0826573140842531
 50
98.7882941876520562
 51
176.0416938207403064
  0
LINE
  5
D59D
  8
0
 10
4682.8792566342617647
 20
214.2477450386226963
 30
0.0
 11
4690.0269949932626332
 21
214.2477435824226859
 31
0.0
  0
ARC
  5
D59E
  8
0
 10
4690.0143789919529809
 20
214.1660764490005988
 30
0.0
 40
0.0826358528148742
 50
3.9639699068362289
 51
81.218321251867124
  0
LINE
  5
D59F
  8
0
 10
4690.0968171565809826
 20
214.1717889951056009
 30
0.0
 11
4690.0968266713043704
 21
211.7952236609307022
 31
0.0
  0
ARC
  5
D5A0
  8
0
 10
4690.0143486913020752
 20
211.8009459374038101
 30
0.0
 40
0.0826762458821125
 50
278.7987771596701805
 51
356.0312104063303877
  0
LINE
  5
D5A1
  8
0
 10
4690.0269952421622293
 20
211.719242654822807
 30
0.0
 11
4682.8792568861608743
 21
211.7194937670226977
 31
0.0
  0
ARC
  5
D5A2
  8
0
 10
4682.8913270396787993
 20
211.8006769451997968
 30
0.0
 40
0.0820755568051146
 50
183.8293813992409014
 51
261.5433263201658178
  0
LINE
  5
D5A3
  8
0
 10
4682.8094347287260462
 20
211.795195482650513
 30
0.0
 11
4682.8094252048185808
 21
214.1717640315879976
 31
0.0
  0
ARC
  5
D5A4
  8
0
 10
4690.1929853438086866
 20
214.1660581530977083
 30
0.0
 40
0.0826573140842531
 50
98.7882941876520562
 51
176.0416938207403064
  0
LINE
  5
D5A5
  8
0
 10
4690.1803566342623526
 20
214.2477450386226963
 30
0.0
 11
4697.3280949932623116
 21
214.2477435824226859
 31
0.0
  0
ARC
  5
D5A6
  8
0
 10
4697.3154789919526593
 20
214.1660764490005988
 30
0.0
 40
0.0826358528148742
 50
3.9639699068362289
 51
81.218321251867124
  0
LINE
  5
D5A7
  8
0
 10
4697.3979171565815705
 20
214.1717889951056009
 30
0.0
 11
4697.3979266713040488
 21
211.7952236609307022
 31
0.0
  0
ARC
  5
D5A8
  8
0
 10
4697.3154486913008441
 20
211.8009459374038101
 30
0.0
 40
0.0826762458821125
 50
278.7987771596701805
 51
356.0312104063303877
  0
LINE
  5
D5A9
  8
0
 10
4697.3280952421628172
 20
211.719242654822807
 30
0.0
 11
4690.1803568861623717
 21
211.7194937670226977
 31
0.0
  0
ARC
  5
D5AA
  8
0
 10
4690.1924270396793872
 20
211.8006769451997968
 30
0.0
 40
0.0820755568051146
 50
183.8293813992409014
 51
261.5433263201658178
  0
LINE
  5
D5AB
  8
0
 10
4690.1105347287257246
 20
211.795195482650513
 30
0.0
 11
4690.1105252048182592
 21
214.1717640315879976
 31
0.0
  0
ARC
  5
D5AC
  8
0
 10
4686.5424353438102116
 20
211.6180081530976054
 30
0.0
 40
0.0826573140842531
 50
98.7882941876520562
 51
176.0416938207403064
  0
LINE
  5
D5AD
  8
0
 10
4686.5298066342620587
 20
211.6996950386227923
 30
0.0
 11
4693.6775449932620177
 21
211.6996935824226966
 31
0.0
  0
ARC
  5
D5AE
  8
0
 10
4693.6649289919532748
 20
211.6180264490004959
 30
0.0
 40
0.0826358528148742
 50
3.9639699068362289
 51
81.218321251867124
  0
LINE
  5
D5AF
  8
0
 10
4693.747367156582186
 20
211.6237389951056116
 30
0.0
 11
4693.7473766713037548
 21
209.2471736609305992
 31
0.0
  0
ARC
  5
D5B0
  8
0
 10
4693.6648986913005501
 20
209.2528959374037072
 30
0.0
 40
0.0826762458821125
 50
278.7987771596701805
 51
356.0312104063303877
  0
LINE
  5
D5B1
  8
0
 10
4693.6775452421616137
 20
209.1711926548227041
 30
0.0
 11
4686.5298068861620777
 21
209.1714437670227085
 31
0.0
  0
ARC
  5
D5B2
  8
0
 10
4686.5418770396800028
 20
209.2526269451998928
 30
0.0
 40
0.0820755568051146
 50
183.8293813992409014
 51
261.5433263201658178
  0
LINE
  5
D5B3
  8
0
 10
4686.4599847287272496
 20
209.24714548265041
 30
0.0
 11
4686.4599752048197843
 21
211.6237140315880083
 31
0.0
  0
ARC
  5
D5B4
  8
0
 10
4679.2413353438087142
 20
211.6180081530976054
 30
0.0
 40
0.0826573140842531
 50
98.7882941876520562
 51
176.0416938207403064
  0
LINE
  5
D5B5
  8
0
 10
4679.2287066342623802
 20
211.6996950386227923
 30
0.0
 11
4686.3764449932623393
 21
211.6996935824226966
 31
0.0
  0
ARC
  5
D5B6
  8
0
 10
4686.3638289919526869
 20
211.6180264490004959
 30
0.0
 40
0.0826358528148742
 50
3.9639699068362289
 51
81.218321251867124
  0
LINE
  5
D5B7
  8
0
 10
4686.4462671565815981
 20
211.6237389951056116
 30
0.0
 11
4686.4462766713031669
 21
209.2471736609305992
 31
0.0
  0
ARC
  5
D5B8
  8
0
 10
4686.3637986913017812
 20
209.2528959374037072
 30
0.0
 40
0.0826762458821125
 50
278.7987771596701805
 51
356.0312104063303877
  0
LINE
  5
D5B9
  8
0
 10
4686.3764452421628448
 20
209.1711926548227041
 30
0.0
 11
4679.2287068861633088
 21
209.1714437670227085
 31
0.0
  0
ARC
  5
D5BA
  8
0
 10
4679.2407770396794149
 20
209.2526269451998928
 30
0.0
 40
0.0820755568051146
 50
183.8293813992409014
 51
261.5433263201658178
  0
LINE
  5
D5BB
  8
0
 10
4679.1588847287257522
 20
209.24714548265041
 30
0.0
 11
4679.1588752048182869
 21
211.6237140315880083
 31
0.0
  0
ARC
  5
D5BC
  8
0
 10
4671.9402353438099453
 20
211.6180081530976054
 30
0.0
 40
0.0826573140842531
 50
98.7882941876520562
 51
176.0416938207403064
  0
LINE
  5
D5BD
  8
0
 10
4671.9276066342617924
 20
211.6996950386227923
 30
0.0
 11
4679.0753449932626609
 21
211.6996935824226966
 31
0.0
  0
ARC
  5
D5BE
  8
0
 10
4679.0627289919530085
 20
211.6180264490004959
 30
0.0
 40
0.0826358528148742
 50
3.9639699068362289
 51
81.218321251867124
  0
LINE
  5
D5BF
  8
0
 10
4679.1451671565819197
 20
211.6237389951056116
 30
0.0
 11
4679.145176671304398
 21
209.2471736609305992
 31
0.0
  0
ARC
  5
D5C0
  8
0
 10
4679.0626986913021028
 20
209.2528959374037072
 30
0.0
 40
0.0826762458821125
 50
278.7987771596701805
 51
356.0312104063303877
  0
LINE
  5
D5C1
  8
0
 10
4679.0753452421622569
 20
209.1711926548227041
 30
0.0
 11
4671.9276068861609019
 21
209.1714437670227085
 31
0.0
  0
ARC
  5
D5C2
  8
0
 10
4671.9396770396797365
 20
209.2526269451998928
 30
0.0
 40
0.0820755568051146
 50
183.8293813992409014
 51
261.5433263201658178
  0
LINE
  5
D5C3
  8
0
 10
4671.8577847287260738
 20
209.24714548265041
 30
0.0
 11
4671.8577752048186085
 21
211.6237140315880083
 31
0.0
  0
ARC
  5
D5C4
  8
0
 10
4693.8433434751477762
 20
232.002584496312096
 30
0.0
 40
0.0824538872278029
 50
98.6752550162742068
 51
176.1547205045220892
  0
LINE
  5
D5C5
  8
0
 10
4693.8309066342617371
 20
232.0840950386227064
 30
0.0
 11
4700.5289609062838281
 21
232.0838433618770864
 31
0.0
  0
LINE
  5
D5C6
  8
0
 10
4700.52896092654737
 20
229.5558437758448918
 30
0.0
 11
4693.8309068861617561
 21
229.5558437670227931
 31
0.0
  0
ARC
  5
D5C7
  8
0
 10
4693.8425509765511379
 20
229.6366339730305128
 30
0.0
 40
0.0816250098177938
 50
183.5741281445181983
 51
261.7985800050288958
  0
LINE
  5
D5C8
  8
0
 10
4693.7610847290352467
 20
229.6315454817450927
 30
0.0
 11
4693.7610752095934004
 21
232.0081140534007034
 31
0.0
  0
ARC
  5
D5C9
  8
0
 10
4701.9788768838288888
 20
229.9235281439767959
 30
0.0
 40
1.48214524480013
 50
180.6836061534050089
 51
191.079612491997608
  0
LINE
  5
D5CA
  8
0
 10
4700.496837131697248
 20
229.9058448245490069
 30
0.0
 11
4700.4968476489948443
 21
231.7338355165227881
 31
0.0
  0
ARC
  5
D5CB
  8
0
 10
4702.0071940143898246
 20
231.713300099974191
 30
0.0
 40
1.5104859637853101
 50
169.0263617270144891
 51
179.2210262292830123
  0
LINE
  5
D5CC
  8
0
 10
4700.5289915595622006
 20
232.0256371705227991
 30
0.0
 11
4700.5243274819713406
 21
232.0008321744032003
 31
0.0
  0
LINE
  5
D5CD
  8
0
 10
4700.5289915595622006
 20
229.6141698268228026
 30
0.0
 11
4700.5243571859627991
 21
229.6387001692224885
 31
0.0
  0
ARC
  5
D5CE
  8
0
 10
4693.8433434751477762
 20
237.098684496312103
 30
0.0
 40
0.0824538872278029
 50
98.6752550162742068
 51
176.1547205045220892
  0
LINE
  5
D5CF
  8
0
 10
4693.8309066342617371
 20
237.1801950386227134
 30
0.0
 11
4699.8079997711729447
 21
237.1687757092707045
 31
0.0
  0
LINE
  5
D5D0
  8
0
 10
4700.5289609265437321
 20
234.6519437758448987
 30
0.0
 11
4693.8309068861617561
 21
234.6519437670228001
 31
0.0
  0
ARC
  5
D5D1
  8
0
 10
4693.8425509765511379
 20
234.7327339730304914
 30
0.0
 40
0.0816250098177938
 50
183.5741281445181983
 51
261.7985800050288958
  0
LINE
  5
D5D2
  8
0
 10
4693.7610847290352467
 20
234.7276454817450997
 30
0.0
 11
4693.7610752095934004
 21
237.1042140534007956
 31
0.0
  0
ARC
  5
D5D3
  8
0
 10
4701.9788768838288888
 20
235.0196281439768029
 30
0.0
 40
1.48214524480013
 50
180.6836061534050089
 51
191.079612491997608
  0
LINE
  5
D5D4
  8
0
 10
4700.496837131697248
 20
235.0019448245490992
 30
0.0
 11
4700.4968476489948443
 21
236.8299355165227098
 31
0.0
  0
ARC
  5
D5D5
  8
0
 10
4702.0071940143907341
 20
236.8094000999741979
 30
0.0
 40
1.510485963787308
 50
169.0932626300727009
 51
179.2210262292830123
  0
LINE
  5
D5D6
  8
0
 10
4700.5289915595622006
 20
237.1217371705226924
 30
0.0
 11
4700.5239927586590056
 21
237.0952005229815995
 31
0.0
  0
LINE
  5
D5D7
  8
0
 10
4700.5289915595622006
 20
234.7102698268226959
 30
0.0
 11
4700.5243571859627991
 21
234.7348001692224955
 31
0.0
  0
ARC
  5
D5D8
  8
0
 10
4693.8433434751477762
 20
226.9064844963122027
 30
0.0
 40
0.0824538872278029
 50
98.6752550162742068
 51
176.1547205045220892
  0
LINE
  5
D5D9
  8
0
 10
4693.8309066342617371
 20
226.9879950386226994
 30
0.0
 11
4700.5289609062856471
 21
226.9877433618771079
 31
0.0
  0
LINE
  5
D5DA
  8
0
 10
4700.5289609265410036
 20
224.4597437758449132
 30
0.0
 11
4693.8309068861617561
 21
224.4597437670227009
 31
0.0
  0
ARC
  5
D5DB
  8
0
 10
4693.8425509765511379
 20
224.5405339730305059
 30
0.0
 40
0.0816250098177938
 50
183.5741281445181983
 51
261.7985800050288958
  0
LINE
  5
D5DC
  8
0
 10
4693.7610847290352467
 20
224.5354454817450005
 30
0.0
 11
4693.7610752095934004
 21
226.9120140534006964
 31
0.0
  0
ARC
  5
D5DD
  8
0
 10
4701.9788768838288888
 20
224.8274281439769027
 30
0.0
 40
1.48214524480013
 50
180.6836061534050089
 51
191.079612491997608
  0
LINE
  5
D5DE
  8
0
 10
4700.496837131697248
 20
224.8097448245491137
 30
0.0
 11
4700.4968476489948443
 21
226.6377355165228096
 31
0.0
  0
ARC
  5
D5DF
  8
0
 10
4702.0071940143898246
 20
226.6172000999742124
 30
0.0
 40
1.5104859637853101
 50
169.0263617270144891
 51
179.2210262292830123
  0
LINE
  5
D5E0
  8
0
 10
4700.5289915595622006
 20
226.9295371705227069
 30
0.0
 11
4700.5243274819713406
 21
226.9047321744031933
 31
0.0
  0
LINE
  5
D5E1
  8
0
 10
4700.5289915595622006
 20
224.5180698268227957
 30
0.0
 11
4700.5243571859627991
 21
224.5426001692225952
 31
0.0
  0
ARC
  5
D5E2
  8
0
 10
4693.8433434751477762
 20
221.8103844963121958
 30
0.0
 40
0.0824538872278029
 50
98.6752550162742068
 51
176.1547205045220892
  0
LINE
  5
D5E3
  8
0
 10
4693.8309066342617371
 20
221.8918950386226925
 30
0.0
 11
4700.5289609062856471
 21
221.8916433618769872
 31
0.0
  0
LINE
  5
D5E4
  8
0
 10
4700.5289609265500985
 20
219.3636437758447926
 30
0.0
 11
4693.8309068861617561
 21
219.3636437670228077
 31
0.0
  0
ARC
  5
D5E5
  8
0
 10
4693.8425509765511379
 20
219.4444339730304989
 30
0.0
 40
0.0816250098177938
 50
183.5741281445181983
 51
261.7985800050288958
  0
LINE
  5
D5E6
  8
0
 10
4693.7610847290352467
 20
219.4393454817451072
 30
0.0
 11
4693.7610752095934004
 21
221.8159140534006895
 31
0.0
  0
ARC
  5
D5E7
  8
0
 10
4701.9788768838288888
 20
219.7313281439768957
 30
0.0
 40
1.48214524480013
 50
180.6836061534050089
 51
191.079612491997608
  0
LINE
  5
D5E8
  8
0
 10
4700.496837131697248
 20
219.7136448245491067
 30
0.0
 11
4700.4968476489948443
 21
221.5416355165226889
 31
0.0
  0
ARC
  5
D5E9
  8
0
 10
4702.0071940143898246
 20
221.5211000999742055
 30
0.0
 40
1.5104859637853101
 50
169.0263617270144891
 51
179.2210262292830123
  0
LINE
  5
D5EA
  8
0
 10
4700.5289915595622006
 20
221.8334371705228136
 30
0.0
 11
4700.5243274819713406
 21
221.8086321744031864
 31
0.0
  0
LINE
  5
D5EB
  8
0
 10
4700.5289915595622006
 20
219.4219698268227887
 30
0.0
 11
4700.5243571859627991
 21
219.4465001692225883
 31
0.0
  0
ARC
  5
D5EC
  8
0
 10
4693.8433434751477762
 20
216.7142844963121036
 30
0.0
 40
0.0824538872278029
 50
98.6752550162742068
 51
176.1547205045220892
  0
LINE
  5
D5ED
  8
0
 10
4693.8309066342617371
 20
216.7957950386227139
 30
0.0
 11
4700.5289609063029275
 21
216.7955433618770087
 31
0.0
  0
LINE
  5
D5EE
  8
0
 10
4700.5289609264746105
 20
214.267543775844814
 30
0.0
 11
4693.8309068861617561
 21
214.2675437670228007
 31
0.0
  0
ARC
  5
D5EF
  8
0
 10
4693.8425509765511379
 20
214.348333973030492
 30
0.0
 40
0.0816250098177938
 50
183.5741281445181983
 51
261.7985800050288958
  0
LINE
  5
D5F0
  8
0
 10
4693.7610847290352467
 20
214.3432454817451003
 30
0.0
 11
4693.7610752095934004
 21
216.7198140534007109
 31
0.0
  0
ARC
  5
D5F1
  8
0
 10
4701.9788768838288888
 20
214.6352281439768035
 30
0.0
 40
1.48214524480013
 50
180.6836061534050089
 51
191.079612491997608
  0
LINE
  5
D5F2
  8
0
 10
4700.496837131697248
 20
214.6175448245490998
 30
0.0
 11
4700.4968476489948443
 21
216.4455355165227104
 31
0.0
  0
ARC
  5
D5F3
  8
0
 10
4702.0071940143898246
 20
216.4250000999741985
 30
0.0
 40
1.5104859637853101
 50
169.0263617270144891
 51
179.2210262292830123
  0
LINE
  5
D5F4
  8
0
 10
4700.5289915595622006
 20
216.737337170522693
 30
0.0
 11
4700.5243274819713406
 21
216.7125321744032931
 31
0.0
  0
LINE
  5
D5F5
  8
0
 10
4700.5289915595622006
 20
214.3258698268226965
 30
0.0
 11
4700.5243571859627991
 21
214.3504001692226097
 31
0.0
  0
ARC
  5
D5F6
  8
0
 10
4693.8433434751477762
 20
211.6181844963120966
 30
0.0
 40
0.0824538872278029
 50
98.6752550162742068
 51
176.1547205045220892
  0
LINE
  5
D5F7
  8
0
 10
4693.8309066342617371
 20
211.6996950386227923
 30
0.0
 11
4700.5289609062128875
 21
211.699443361877087
 31
0.0
  0
LINE
  5
D5F8
  8
0
 10
4700.539002544162031
 20
209.1714437758581084
 30
0.0
 11
4693.8309068861617561
 21
209.1714437670227085
 31
0.0
  0
ARC
  5
D5F9
  8
0
 10
4693.8425509765511379
 20
209.2522339730305134
 30
0.0
 40
0.0816250098177938
 50
183.5741281445181983
 51
261.7985800050288958
  0
LINE
  5
D5FA
  8
0
 10
4693.7610847290352467
 20
209.2471454817450933
 30
0.0
 11
4693.7610752095934004
 21
211.623714053400704
 31
0.0
  0
ARC
  5
D5FB
  8
0
 10
4701.9788768838288888
 20
209.5391281439767965
 30
0.0
 40
1.48214524480013
 50
180.6836061534050089
 51
191.079612491997608
  0
LINE
  5
D5FC
  8
0
 10
4700.496837131697248
 20
209.5214448245490075
 30
0.0
 11
4700.4968476489948443
 21
211.3494355165227034
 31
0.0
  0
ARC
  5
D5FD
  8
0
 10
4702.0071940143898246
 20
211.3289000999743052
 30
0.0
 40
1.5104859637853101
 50
169.0263617270144891
 51
179.2210262292830123
  0
LINE
  5
D5FE
  8
0
 10
4700.5289915595622006
 20
211.641237170522686
 30
0.0
 11
4700.5243274819713406
 21
211.6164321744032861
 31
0.0
  0
LINE
  5
D5FF
  8
0
 10
4700.539002544162031
 20
209.1741326453227998
 30
0.0
 11
4700.5243571859627991
 21
209.2543001692226028
 31
0.0
  0
ARC
  5
D600
  8
0
 10
4702.0335833320868915
 20
234.2503099816347003
 30
0.0
 40
1.552264963746703
 50
165.7694696824596861
 51
178.8341249082600086
  0
LINE
  5
D601
  8
0
 10
4700.4816397193408193
 20
234.2818938467227099
 30
0.0
 11
4700.4816397192662407
 21
232.4538938467372873
 31
0.0
  0
ARC
  5
D602
  8
0
 10
4702.033586199147976
 20
232.4854778881951063
 30
0.0
 40
1.5522678338785421
 50
181.1658794470882867
 51
194.2305101639954898
  0
ARC
  5
D603
  8
0
 10
4697.4876410038377799
 20
234.5571498990647115
 30
0.0
 40
0.0755817696212508
 50
90.8347771827843644
 51
184.2985242068725995
  0
LINE
  5
D604
  8
0
 10
4697.4865398458623531
 20
234.6327236468227113
 30
0.0
 11
4700.5289503962640083
 21
234.6318938467422015
 31
0.0
  0
LINE
  5
D605
  8
0
 10
4700.528950347043974
 20
232.1038938467897026
 30
0.0
 11
4697.4932154115076628
 21
232.1003981965720016
 31
0.0
  0
ARC
  5
D606
  8
0
 10
4697.4918224814373389
 20
232.1801185688954092
 30
0.0
 40
0.0797325405187388
 50
176.9293652561642034
 51
271.0010100502126988
  0
LINE
  5
D607
  8
0
 10
4697.412204416462373
 20
232.1843896047226963
 30
0.0
 11
4697.4122718408625587
 21
234.5514848155229117
 31
0.0
  0
ARC
  5
D608
  8
0
 10
4702.0335833320923484
 20
229.1542099816346933
 30
0.0
 40
1.552264963746703
 50
165.7694696824596861
 51
178.8341249082600086
  0
LINE
  5
D609
  8
0
 10
4700.4816397193462763
 20
229.1857938467227882
 30
0.0
 11
4700.4816397192698787
 21
227.3577938467373087
 31
0.0
  0
ARC
  5
D60A
  8
0
 10
4702.033586199153433
 20
227.3893778881950993
 30
0.0
 40
1.5522678338785421
 50
181.1658794470882867
 51
194.2305101639954898
  0
ARC
  5
D60B
  8
0
 10
4697.4876410038414178
 20
229.4610498990647045
 30
0.0
 40
0.0755817696212508
 50
90.8347771827843644
 51
184.2985242068725995
  0
LINE
  5
D60C
  8
0
 10
4697.4865398458669006
 20
229.5366236468227044
 30
0.0
 11
4700.5289503962676463
 21
229.5357938467421945
 31
0.0
  0
LINE
  5
D60D
  8
0
 10
4700.528950347047612
 20
227.0077938467896956
 30
0.0
 11
4697.4932154115131198
 21
227.0042981965719946
 31
0.0
  0
ARC
  5
D60E
  8
0
 10
4697.4918224814427958
 20
227.0840185688954875
 30
0.0
 40
0.0797325405187388
 50
176.9293652561642034
 51
271.0010100502126988
  0
LINE
  5
D60F
  8
0
 10
4697.4122044164669205
 20
227.0882896047226893
 30
0.0
 11
4697.4122718408671062
 21
229.4553848155227911
 31
0.0
  0
ARC
  5
D610
  8
0
 10
4702.0335833320923484
 20
224.0581099816346011
 30
0.0
 40
1.552264963746703
 50
165.7694696824596861
 51
178.8341249082600086
  0
LINE
  5
D611
  8
0
 10
4700.4816397193462763
 20
224.0896938467228097
 30
0.0
 11
4700.4816397192698787
 21
222.2616938467373018
 31
0.0
  0
ARC
  5
D612
  8
0
 10
4702.033586199153433
 20
222.2932778881950924
 30
0.0
 40
1.5522678338785421
 50
181.1658794470882867
 51
194.2305101639954898
  0
ARC
  5
D613
  8
0
 10
4697.4876410038414178
 20
224.3649498990646975
 30
0.0
 40
0.0755817696212508
 50
90.8347771827843644
 51
184.2985242068725995
  0
LINE
  5
D614
  8
0
 10
4697.4865398458669006
 20
224.4405236468228111
 30
0.0
 11
4700.5289503962676463
 21
224.4396938467421876
 31
0.0
  0
LINE
  5
D615
  8
0
 10
4700.528950347047612
 20
221.9116938467898024
 30
0.0
 11
4697.4932154115131198
 21
221.9081981965719024
 31
0.0
  0
ARC
  5
D616
  8
0
 10
4697.4918224814427958
 20
221.987918568895509
 30
0.0
 40
0.0797325405187388
 50
176.9293652561642034
 51
271.0010100502126988
  0
LINE
  5
D617
  8
0
 10
4697.4122044164669205
 20
221.992189604722796
 30
0.0
 11
4697.4122718408671062
 21
224.3592848155228126
 31
0.0
  0
ARC
  5
D618
  8
0
 10
4702.0335833320923484
 20
218.9620099816347079
 30
0.0
 40
1.552264963746703
 50
165.7694696824596861
 51
178.8341249082600086
  0
LINE
  5
D619
  8
0
 10
4700.4816397193462763
 20
218.9935938467228027
 30
0.0
 11
4700.4816397192698787
 21
217.1655938467372948
 31
0.0
  0
ARC
  5
D61A
  8
0
 10
4702.033586199153433
 20
217.1971778881951138
 30
0.0
 40
1.5522678338785421
 50
181.1658794470882867
 51
194.2305101639954898
  0
ARC
  5
D61B
  8
0
 10
4697.4876410038414178
 20
219.2688498990646906
 30
0.0
 40
0.0755817696212508
 50
90.8347771827843644
 51
184.2985242068725995
  0
LINE
  5
D61C
  8
0
 10
4697.4865398458669006
 20
219.3444236468228041
 30
0.0
 11
4700.5289503962676463
 21
219.3435938467422943
 31
0.0
  0
LINE
  5
D61D
  8
0
 10
4700.528950347047612
 20
216.8155938467897954
 30
0.0
 11
4697.4932154115131198
 21
216.8120981965718954
 31
0.0
  0
ARC
  5
D61E
  8
0
 10
4697.4918224814427958
 20
216.891818568895502
 30
0.0
 40
0.0797325405187388
 50
176.9293652561642034
 51
271.0010100502126988
  0
LINE
  5
D61F
  8
0
 10
4697.4122044164669205
 20
216.8960896047227891
 30
0.0
 11
4697.4122718408671062
 21
219.2631848155228056
 31
0.0
  0
ARC
  5
D620
  8
0
 10
4702.033583331992304
 20
213.8659099816347009
 30
0.0
 40
1.552264963746703
 50
165.7694696824596861
 51
178.8341249082600086
  0
LINE
  5
D621
  8
0
 10
4700.4816397192462318
 20
213.8974938467227105
 30
0.0
 11
4700.4816397191698343
 21
212.0694938467372879
 31
0.0
  0
ARC
  5
D622
  8
0
 10
4702.0335861990515696
 20
212.1010778881951069
 30
0.0
 40
1.5522678338785421
 50
181.1658794470882867
 51
194.2305101639954898
  0
ARC
  5
D623
  8
0
 10
4697.4876410037422829
 20
214.1727498990647121
 30
0.0
 40
0.0755817696212508
 50
90.8347771827843644
 51
184.2985242068725995
  0
LINE
  5
D624
  8
0
 10
4697.4865398457659467
 20
214.2483236468227972
 30
0.0
 11
4700.5289503961676019
 21
214.2474938467422874
 31
0.0
  0
LINE
  5
D625
  8
0
 10
4700.5289503469475676
 20
211.7194938467897032
 30
0.0
 11
4697.4932154114121658
 21
211.7159981965720021
 31
0.0
  0
ARC
  5
D626
  8
0
 10
4697.4918224813418419
 20
211.7957185688954951
 30
0.0
 40
0.0797325405187388
 50
176.9293652561642034
 51
271.0010100502126988
  0
LINE
  5
D627
  8
0
 10
4697.4122044163668761
 20
211.7999896047226969
 30
0.0
 11
4697.4122718407670618
 21
214.1670848155227986
 31
0.0
  0
LINE
  5
D628
  8
0
 10
4700.5289915595622006
 20
211.641237170522686
 30
0.0
 11
4700.5289503469475676
 21
211.7194938467897032
 31
0.0
  0
LINE
  5
D629
  8
0
 10
4700.5289915595622006
 20
214.3258698268226965
 30
0.0
 11
4700.5289503961676019
 21
214.2474938467422874
 31
0.0
  0
LINE
  5
D62A
  8
0
 10
4700.5289503470703494
 20
216.8155938467897954
 30
0.0
 11
4700.5289915595622006
 21
216.737337170522693
 31
0.0
  0
LINE
  5
D62B
  8
0
 10
4700.5289915595622006
 20
219.4219698268227887
 30
0.0
 11
4700.5289503962676463
 21
219.3435938467422943
 31
0.0
  0
LINE
  5
D62C
  8
0
 10
4700.528950347047612
 20
221.9116938467898024
 30
0.0
 11
4700.5289915595622006
 21
221.8334371705228136
 31
0.0
  0
LINE
  5
D62D
  8
0
 10
4700.5289915595622006
 20
224.5180698268227957
 30
0.0
 11
4700.5289503962567323
 21
224.4396938467421876
 31
0.0
  0
LINE
  5
D62E
  8
0
 10
4700.528950347047612
 20
227.0077938467894967
 30
0.0
 11
4700.5289915595622006
 21
226.9295371705227069
 31
0.0
  0
LINE
  5
D62F
  8
0
 10
4700.5289503962649178
 20
229.5357938467469978
 30
0.0
 11
4700.5289915595622006
 21
229.6141698268228026
 31
0.0
  0
LINE
  5
D630
  8
0
 10
4700.528950347043974
 20
232.1038938467895889
 30
0.0
 11
4700.5289915595622006
 21
232.0256371705227991
 31
0.0
  0
LINE
  5
D631
  8
0
 10
4700.5289915595622006
 20
234.7102698268226959
 30
0.0
 11
4700.5289503962612798
 21
234.6318938467302075
 31
0.0
  0
ARC
  5
D632
  8
0
 10
4700.2334250289968622
 20
237.1965694726436027
 30
0.0
 40
0.3048925178335519
 50
345.7922624657296069
 51
1.2637496254914109
  0
LINE
  5
D633
  8
0
 10
4700.1012336410822172
 20
237.2501013012551141
 30
0.0
 11
4643.6006155124814541
 21
237.2501013012551141
 31
0.0
  0
ARC
  5
D634
  8
0
 10
4702.0995199811795828
 20
254.6294084583157087
 30
0.0
 40
1.618225219196606
 50
166.0433771215176932
 51
178.6939023676081035
  0
LINE
  5
D635
  8
0
 10
4700.4817151943880162
 20
254.6662938467395065
 30
0.0
 11
4700.4817151666202335
 21
252.8382938467227063
 31
0.0
  0
ARC
  5
D636
  8
0
 10
4702.0995111740112407
 20
252.8751781841642128
 30
0.0
 40
1.6182164181199781
 50
181.3060675156283139
 51
193.9566620051016912
  0
ARC
  5
D637
  8
0
 10
4700.2752006067721595
 20
208.5357012937643901
 30
0.0
 40
0.0622799297156135
 50
173.1977761761750116
 51
267.1881793452207035
  0
ARC
  5
D638
  8
0
 10
4700.3601142398429147
 20
208.5984999896782881
 30
0.0
 40
0.1250036442470351
 50
170.7935793664763935
 51
269.9917642786932106
  0
ARC
  5
D639
  8
0
 10
4701.7983544047510804
 20
208.3611317126201925
 30
0.0
 40
1.595404217641563
 50
159.8966152267549887
 51
173.4515163292938951
  0
ARC
  5
D63A
  8
0
 10
4701.8226056345893085
 20
208.3614567650469951
 30
0.0
 40
1.6065806992969269
 50
160.0547695640819938
 51
170.7934697040707874
  0
ARC
  5
D63B
  8
0
 10
4700.526273999359546
 20
208.8270321647383128
 30
0.0
 40
0.2406897594336453
 50
114.2045558551195938
 51
159.9636597905412998
  0
ARC
  5
D63C
  8
0
 10
4700.5379548542950943
 20
208.8276583974295875
 30
0.0
 40
0.2399528833841081
 50
114.1778317577037001
 51
160.0586286530833888
  0
ARC
  5
D63D
  8
0
 10
4700.345929117189371
 20
209.2323797404741867
 30
0.0
 40
0.2029704285257853
 50
293.7245533514957856
 51
332.2072198200909838
  0
ARC
  5
D63E
  8
0
 10
4700.3593174852321681
 20
209.2273394872946994
 30
0.0
 40
0.197833514560077
 50
293.9663059948020987
 51
333.0697711040789954
  0
LINE
  5
D63F
  8
0
 10
4700.5254848237809711
 20
209.1377396692226966
 30
0.0
 11
4643.1763643297808812
 21
209.1377396692226966
 31
0.0
  0
LINE
  5
D640
  8
0
 10
4700.539002544162031
 20
209.1741326453227998
 30
0.0
 11
4700.539002544162031
 21
209.1514317187227903
 31
0.0
  0
ARC
  5
D641
  8
0
 10
4700.5088799114619178
 20
209.1514575812780095
 30
0.0
 40
0.030122643800803
 50
332.9091988378204974
 51
359.9508071867920762
  0
ARC
  5
D642
  8
0
 10
4699.7525487575139778
 20
222.7070441410571107
 30
0.0
 40
14.4618378764934992
 50
86.9009795169661743
 51
89.780310299137895
  0
ARC
  5
D643
  8
0
 10
4643.6920495809408749
 20
207.0884374240791033
 30
0.0
 40
0.6323766085258528
 50
181.8227499170826889
 51
269.2181125183035988
  0
ARC
  5
D644
  8
0
 10
4642.8900673378902866
 20
208.3484224861227005
 30
0.0
 40
0.125154397011138
 50
1.3885425263785329
 51
87.9444214544952558
  0
LINE
  5
D645
  8
0
 10
4643.0151849840030991
 20
208.351455260852191
 30
0.0
 11
4643.059992948915351
 21
207.0683230281914859
 31
0.0
  0
ARC
  5
D646
  8
0
 10
4641.8884232154468918
 20
266.7216652834412116
 30
0.0
 40
0.0624999999534858
 50
359.9999999829794888
 51
87.000000100287636
  0
CIRCLE
  5
D647
  8
0
 10
4642.6009232154001438
 20
266.295572346722679
 30
0.0
 40
0.09375
  0
CIRCLE
  5
D648
  8
0
 10
4643.3509232154001438
 20
266.295572346722679
 30
0.0
 40
0.09375
  0
CIRCLE
  5
D649
  8
0
 10
4644.1009232154001438
 20
266.295572346722679
 30
0.0
 40
0.09375
  0
CIRCLE
  5
D64A
  8
0
 10
4644.8509232154001438
 20
266.295572346722679
 30
0.0
 40
0.09375
  0
CIRCLE
  5
D64B
  8
0
 10
4645.6009232154001438
 20
266.295572346722679
 30
0.0
 40
0.09375
  0
CIRCLE
  5
D64C
  8
0
 10
4646.3509232154001438
 20
266.295572346722679
 30
0.0
 40
0.09375
  0
CIRCLE
  5
D64D
  8
0
 10
4647.1009232154010533
 20
266.295572346722679
 30
0.0
 40
0.09375
  0
CIRCLE
  5
D64E
  8
0
 10
4647.8509232154010533
 20
266.295572346722679
 30
0.0
 40
0.09375
  0
CIRCLE
  5
D64F
  8
0
 10
4648.6009232154010533
 20
266.295572346722679
 30
0.0
 40
0.09375
  0
CIRCLE
  5
D650
  8
0
 10
4649.3509232154010533
 20
266.295572346722679
 30
0.0
 40
0.09375
  0
CIRCLE
  5
D651
  8
0
 10
4650.1009232154010533
 20
266.295572346722679
 30
0.0
 40
0.09375
  0
CIRCLE
  5
D652
  8
0
 10
4650.8509232154010533
 20
266.295572346722679
 30
0.0
 40
0.09375
  0
CIRCLE
  5
D653
  8
0
 10
4651.6009232154010533
 20
266.295572346722679
 30
0.0
 40
0.09375
  0
CIRCLE
  5
D654
  8
0
 10
4652.3509232154010533
 20
266.295572346722679
 30
0.0
 40
0.09375
  0
CIRCLE
  5
D655
  8
0
 10
4653.1009232154010533
 20
266.295572346722679
 30
0.0
 40
0.09375
  0
CIRCLE
  5
D656
  8
0
 10
4653.8509232154010533
 20
266.295572346722679
 30
0.0
 40
0.09375
  0
CIRCLE
  5
D657
  8
0
 10
4654.6009232154010533
 20
266.295572346722679
 30
0.0
 40
0.09375
  0
CIRCLE
  5
D658
  8
0
 10
4655.3509232154010533
 20
266.295572346722679
 30
0.0
 40
0.09375
  0
CIRCLE
  5
D659
  8
0
 10
4656.1009232154010533
 20
266.295572346722679
 30
0.0
 40
0.09375
  0
CIRCLE
  5
D65A
  8
0
 10
4656.8509232154010533
 20
266.295572346722679
 30
0.0
 40
0.09375
  0
CIRCLE
  5
D65B
  8
0
 10
4657.6009232154010533
 20
266.295572346722679
 30
0.0
 40
0.09375
  0
CIRCLE
  5
D65C
  8
0
 10
4658.3509232154010533
 20
266.295572346722679
 30
0.0
 40
0.09375
  0
CIRCLE
  5
D65D
  8
0
 10
4659.1009232154010533
 20
266.295572346722679
 30
0.0
 40
0.09375
  0
CIRCLE
  5
D65E
  8
0
 10
4659.8509232154001438
 20
266.295572346722679
 30
0.0
 40
0.09375
  0
CIRCLE
  5
D65F
  8
0
 10
4660.6009232154001438
 20
266.295572346722679
 30
0.0
 40
0.09375
  0
CIRCLE
  5
D660
  8
0
 10
4661.3509232154001438
 20
266.295572346722679
 30
0.0
 40
0.09375
  0
CIRCLE
  5
D661
  8
0
 10
4662.1009232154001438
 20
266.295572346722679
 30
0.0
 40
0.09375
  0
CIRCLE
  5
D662
  8
0
 10
4662.8509232154001438
 20
266.295572346722679
 30
0.0
 40
0.09375
  0
CIRCLE
  5
D663
  8
0
 10
4671.1009232153010089
 20
266.295572346722679
 30
0.0
 40
0.09375
  0
CIRCLE
  5
D664
  8
0
 10
4670.3509232153010089
 20
266.295572346722679
 30
0.0
 40
0.09375
  0
CIRCLE
  5
D665
  8
0
 10
4669.6009232153010089
 20
266.295572346722679
 30
0.0
 40
0.09375
  0
CIRCLE
  5
D666
  8
0
 10
4668.8509232153010089
 20
266.295572346722679
 30
0.0
 40
0.09375
  0
CIRCLE
  5
D667
  8
0
 10
4668.1009232153010089
 20
266.295572346722679
 30
0.0
 40
0.09375
  0
CIRCLE
  5
D668
  8
0
 10
4667.3509232153010089
 20
266.295572346722679
 30
0.0
 40
0.09375
  0
CIRCLE
  5
D669
  8
0
 10
4666.6009232153010089
 20
266.295572346722679
 30
0.0
 40
0.09375
  0
CIRCLE
  5
D66A
  8
0
 10
4665.8509232153010089
 20
266.295572346722679
 30
0.0
 40
0.09375
  0
CIRCLE
  5
D66B
  8
0
 10
4665.1009232153010089
 20
266.295572346722679
 30
0.0
 40
0.09375
  0
CIRCLE
  5
D66C
  8
0
 10
4664.3509232153010089
 20
266.295572346722679
 30
0.0
 40
0.09375
  0
CIRCLE
  5
D66D
  8
0
 10
4663.6009232153010089
 20
266.295572346722679
 30
0.0
 40
0.09375
  0
ARC
  5
D66E
  8
0
 10
4642.3910035674198298
 20
253.5045489167106894
 30
0.0
 40
13.2924619577110192
 50
90.9490273167233454
 51
91.5913717002702157
  0
ARC
  5
D66F
  8
0
 10
4642.0290167789826228
 20
266.7270134127288088
 30
0.0
 40
0.0652645652224314
 50
96.2980609704425206
 51
106.8398016719296066
  0
ARC
  5
D670
  8
0
 10
4642.0110993694434001
 20
266.7861567645683749
 30
0.0
 40
0.0034667890539801
 50
106.5845051380289021
 51
156.1948510659316867
  0
LINE
  5
D671
  8
0
 10
4642.0079275230173153
 20
266.7875560560310078
 30
0.0
 11
4641.9509232153677658
 21
266.6920364591907742
 31
0.0
  0
ARC
  5
D672
  8
0
 10
4642.013666501256921
 20
265.5891737249899052
 30
0.0
 40
0.0631070482025065
 50
186.1548244795963001
 51
266.8064174934531252
  0
LINE
  5
D673
  8
0
 10
4642.0101508282396026
 20
265.5261646813046923
 30
0.0
 11
4642.7705416598173542
 21
265.486303835722083
 31
0.0
  0
ARC
  5
D674
  8
0
 10
4642.7569635182353522
 20
265.2284987365882216
 30
0.0
 40
0.2581624199379199
 50
359.9994696005675223
 51
86.985117613220396
  0
LINE
  5
D675
  8
0
 10
4643.0151259381618729
 20
265.2284963467228067
 30
0.0
 11
4643.0151232154012177
 21
208.5984963467228113
 31
0.0
  0
ARC
  5
D676
  8
0
 10
4642.8899829734091327
 20
208.5985529991502858
 30
0.0
 40
0.1251402548152468
 50
272.0944627186971729
 51
359.9740615430495723
  0
ARC
  5
D677
  8
0
 10
4641.6039849316921391
 20
264.8218300211348151
 30
0.0
 40
1.6165649126030699
 50
1.299682892622533
 51
13.9631559315515705
  0
LINE
  5
D678
  8
0
 10
4643.2201339585162714
 20
264.8584966238635161
 30
0.0
 11
4643.2201339592011209
 21
263.0304938467227203
 31
0.0
  0
ARC
  5
D679
  8
0
 10
4641.6023401526063026
 20
263.0673777659479242
 30
0.0
 40
1.618214208364283
 50
346.0433338061110931
 51
358.6939455120976845
  0
ARC
  5
D67A
  8
0
 10
4653.5089214645822722
 20
265.1271142136055232
 30
0.0
 40
0.082590736034968
 50
3.942111706233248
 51
81.2913706712689361
  0
LINE
  5
D67B
  8
0
 10
4653.5214265028007503
 20
265.2087527688227055
 30
0.0
 11
4646.3803165708995948
 21
265.2112353204225883
 31
0.0
  0
ARC
  5
D67C
  8
0
 10
4646.3895845219503826
 20
265.125788951640402
 30
0.0
 40
0.0859475238429649
 50
96.1903935601906568
 51
175.3450164775254052
  0
LINE
  5
D67D
  8
0
 10
4646.3039204997003253
 20
265.1327640607227067
 30
0.0
 11
4646.3039296447996094
 21
262.7561954655117233
 31
0.0
  0
ARC
  5
D67E
  8
0
 10
4646.3861639559227115
 20
262.7617253309659873
 30
0.0
 40
0.0824200299533133
 50
183.8470763153692076
 51
261.3864160044972209
  0
LINE
  5
D67F
  8
0
 10
4646.3738199279014225
 20
262.6802349247225834
 30
0.0
 11
4653.5149298527003339
 21
262.6777523730227131
 31
0.0
  0
ARC
  5
D680
  8
0
 10
4653.5056677791735638
 20
262.7631930267294251
 30
0.0
 40
0.0859412084614658
 50
276.186908807080215
 51
355.3485027668319844
  0
LINE
  5
D681
  8
0
 10
4653.5913259311009824
 20
262.7562236422227215
 30
0.0
 11
4653.5913167925009475
 21
265.1327922076227992
 31
0.0
  0
ARC
  5
D682
  8
0
 10
4646.210058298182048
 20
265.1322657459538732
 30
0.0
 40
0.0796300539901669
 50
356.9903457378686085
 51
90.9176753425472413
  0
LINE
  5
D683
  8
0
 10
4646.2087829614383736
 20
265.2118855865381875
 30
0.0
 11
4643.172782119000658
 21
265.2119037343632044
 31
0.0
  0
LINE
  5
D684
  8
0
 10
4643.1727821183858396
 20
262.6770839583228963
 30
0.0
 11
4646.2086347177537391
 21
262.676949980881318
 31
0.0
  0
ARC
  5
D685
  8
0
 10
4646.2098741768595573
 20
262.7568198312907271
 30
0.0
 40
0.0798794670943839
 50
269.1109276478118773
 51
2.9922440426830921
  0
LINE
  5
D686
  8
0
 10
4646.2896447371012982
 20
262.7609896013225921
 30
0.0
 11
4646.2895785186010471
 21
265.1280848318227754
 31
0.0
  0
LINE
  5
D687
  8
0
 10
4641.9509232153995981
 20
266.7216652834226807
 30
0.0
 11
4641.9509232141790562
 21
265.5824076730060028
 31
0.0
  0
LINE
  5
D688
  8
0
 10
4641.8509232154001438
 20
266.7862163467225969
 30
0.0
 11
4641.8509232154001438
 21
209.0238518951227036
 31
0.0
  0
ARC
  5
D689
  8
0
 10
4644.0260271223378368
 20
239.7779461005322048
 30
0.0
 40
0.7885450019640446
 50
183.6435038812498988
 51
265.5337334520377794
  0
ARC
  5
D68A
  8
0
 10
4643.5853430545857918
 20
233.9471359559537973
 30
0.0
 40
3.3030006539860381
 50
89.7350740765655246
 51
97.2517978587671763
  0
LINE
  5
D68B
  8
0
 10
4641.8916942157011363
 20
266.7840796291228003
 30
0.0
 11
4641.8509232154001438
 21
266.7862163467225969
 31
0.0
  0
ARC
  5
D68C
  8
0
 10
4645.9496415723569953
 20
289.4138458973151273
 30
0.0
 40
23.8808080705674399
 50
263.9089540979667277
 51
270.8323847087735885
  0
ARC
  5
D68D
  8
0
 10
4642.3868770716371728
 20
260.7804898504700759
 30
0.0
 40
4.994475415925443
 50
78.1126399393685631
 51
86.9725203722566107
  0
ARC
  5
D68E
  8
0
 10
-4186.9149284641343911
 20
-167891.2149888048006687
 30
0.0
 40
168388.6342796013050247
 50
86.9942807629816315
 51
86.9944453648087261
  0
ARC
  5
D68F
  8
0
 10
4642.1709281251032735
 20
265.8558179862704947
 30
0.0
 40
0.0625483017807696
 50
180.1467563129814948
 51
266.9232501539567011
  0
LINE
  5
D690
  8
0
 10
4642.1083800284995959
 20
265.8556577764226745
 30
0.0
 11
4642.1083800284995959
 21
266.7257328297226877
 31
0.0
  0
ARC
  5
D691
  8
0
 10
4642.0375351036591383
 20
266.7220692401646147
 30
0.0
 40
0.0709395888361981
 50
2.9602883554346788
 51
83.3205326536761959
  0
LINE
  5
D692
  8
0
 10
4641.8947970935587364
 20
186.4644963467227115
 30
0.0
 11
4641.8947929656997076
 21
208.273512960078989
 31
0.0
  0
ARC
  5
D693
  8
0
 10
4660.8100214645828601
 20
265.1271142136055232
 30
0.0
 40
0.082590736034968
 50
3.942111706233248
 51
81.2913706712689361
  0
LINE
  5
D694
  8
0
 10
4660.8225265028004287
 20
265.2087527688227055
 30
0.0
 11
4653.6814165709010922
 21
265.2112353204225883
 31
0.0
  0
ARC
  5
D695
  8
0
 10
4653.690684521950061
 20
265.125788951640402
 30
0.0
 40
0.0859475238429649
 50
96.1903935601906568
 51
175.3450164775254052
  0
LINE
  5
D696
  8
0
 10
4653.6050204997009132
 20
265.1327640607227067
 30
0.0
 11
4653.6050296448001973
 21
262.7561954655117233
 31
0.0
  0
ARC
  5
D697
  8
0
 10
4653.6872639559223899
 20
262.7617253309659873
 30
0.0
 40
0.0824200299533133
 50
183.8470763153692076
 51
261.3864160044972209
  0
LINE
  5
D698
  8
0
 10
4653.6749199279001914
 20
262.6802349247225834
 30
0.0
 11
4660.8160298527009218
 21
262.6777523730227131
 31
0.0
  0
ARC
  5
D699
  8
0
 10
4660.8067677791741517
 20
262.7631930267294251
 30
0.0
 40
0.0859412084614658
 50
276.186908807080215
 51
355.3485027668319844
  0
LINE
  5
D69A
  8
0
 10
4660.8924259311006608
 20
262.7562236422227215
 30
0.0
 11
4660.8924167924997164
 21
265.1327922076227992
 31
0.0
  0
ARC
  5
D69B
  8
0
 10
4668.111121464581629
 20
265.1271142136055232
 30
0.0
 40
0.082590736034968
 50
3.942111706233248
 51
81.2913706712689361
  0
LINE
  5
D69C
  8
0
 10
4668.1236265028010166
 20
265.2087527688227055
 30
0.0
 11
4660.9825165709007706
 21
265.2112353204225883
 31
0.0
  0
ARC
  5
D69D
  8
0
 10
4660.9917845219497394
 20
265.125788951640402
 30
0.0
 40
0.0859475238429649
 50
96.1903935601906568
 51
175.3450164775254052
  0
LINE
  5
D69E
  8
0
 10
4660.9061204996996821
 20
265.1327640607227067
 30
0.0
 11
4660.9061296448007852
 21
262.7561954655117233
 31
0.0
  0
ARC
  5
D69F
  8
0
 10
4660.9883639559220683
 20
262.7617253309659873
 30
0.0
 40
0.0824200299533133
 50
183.8470763153692076
 51
261.3864160044972209
  0
LINE
  5
D6A0
  8
0
 10
4660.9760199278998698
 20
262.6802349247225834
 30
0.0
 11
4668.1171298526996907
 21
262.6777523730227131
 31
0.0
  0
ARC
  5
D6A1
  8
0
 10
4668.1078677791729206
 20
262.7631930267294251
 30
0.0
 40
0.0859412084614658
 50
276.186908807080215
 51
355.3485027668319844
  0
LINE
  5
D6A2
  8
0
 10
4668.1935259311003392
 20
262.7562236422227215
 30
0.0
 11
4668.1935167925012138
 21
265.1327922076227992
 31
0.0
  0
ARC
  5
D6A3
  8
0
 10
4671.7616714645819229
 20
262.5790642136054203
 30
0.0
 40
0.082590736034968
 50
3.942111706233248
 51
81.2913706712689361
  0
LINE
  5
D6A4
  8
0
 10
4671.7741765028013106
 20
262.6607027688227163
 30
0.0
 11
4664.6330665709010646
 21
262.6631853204227127
 31
0.0
  0
ARC
  5
D6A5
  8
0
 10
4664.6423345219500334
 20
262.5777389516404128
 30
0.0
 40
0.0859475238429649
 50
96.1903935601906568
 51
175.3450164775254052
  0
LINE
  5
D6A6
  8
0
 10
4664.5566704997008856
 20
262.5847140607227175
 30
0.0
 11
4664.5566796448001696
 21
260.2081454655117909
 31
0.0
  0
ARC
  5
D6A7
  8
0
 10
4664.6389139559223622
 20
260.213675330965998
 30
0.0
 40
0.0824200299533133
 50
183.8470763153692076
 51
261.3864160044972209
  0
LINE
  5
D6A8
  8
0
 10
4664.6265699279001637
 20
260.1321849247227078
 30
0.0
 11
4671.7676798527008941
 21
260.1297023730227238
 31
0.0
  0
ARC
  5
D6A9
  8
0
 10
4671.758417779174124
 20
260.215143026729379
 30
0.0
 40
0.0859412084614658
 50
276.186908807080215
 51
355.3485027668319844
  0
LINE
  5
D6AA
  8
0
 10
4671.8440759310997237
 20
260.2081736422226754
 30
0.0
 11
4671.8440667925005982
 21
262.5847422076228099
 31
0.0
  0
ARC
  5
D6AB
  8
0
 10
4664.4605714645822445
 20
262.5790642136054203
 30
0.0
 40
0.082590736034968
 50
3.942111706233248
 51
81.2913706712689361
  0
LINE
  5
D6AC
  8
0
 10
4664.4730765027998132
 20
262.6607027688227163
 30
0.0
 11
4657.3319665708995672
 21
262.6631853204227127
 31
0.0
  0
ARC
  5
D6AD
  8
0
 10
4657.341234521950355
 20
262.5777389516404128
 30
0.0
 40
0.0859475238429649
 50
96.1903935601906568
 51
175.3450164775254052
  0
LINE
  5
D6AE
  8
0
 10
4657.2555704997012072
 20
262.5847140607227175
 30
0.0
 11
4657.2555796447995817
 21
260.2081454655117909
 31
0.0
  0
ARC
  5
D6AF
  8
0
 10
4657.3378139559217743
 20
260.213675330965998
 30
0.0
 40
0.0824200299533133
 50
183.8470763153692076
 51
261.3864160044972209
  0
LINE
  5
D6B0
  8
0
 10
4657.3254699278995759
 20
260.1321849247227078
 30
0.0
 11
4664.4665798527012157
 21
260.1297023730227238
 31
0.0
  0
ARC
  5
D6B1
  8
0
 10
4664.4573177791753551
 20
260.215143026729379
 30
0.0
 40
0.0859412084614658
 50
276.186908807080215
 51
355.3485027668319844
  0
LINE
  5
D6B2
  8
0
 10
4664.5429759311009548
 20
260.2081736422226754
 30
0.0
 11
4664.5429667925009198
 21
262.5847422076228099
 31
0.0
  0
ARC
  5
D6B3
  8
0
 10
4657.1594714645816566
 20
262.5790642136054203
 30
0.0
 40
0.082590736034968
 50
3.942111706233248
 51
81.2913706712689361
  0
LINE
  5
D6B4
  8
0
 10
4657.1719765028010443
 20
262.6607027688227163
 30
0.0
 11
4650.0308665708998888
 21
262.6631853204227127
 31
0.0
  0
ARC
  5
D6B5
  8
0
 10
4650.0401345219497671
 20
262.5777389516404128
 30
0.0
 40
0.0859475238429649
 50
96.1903935601906568
 51
175.3450164775254052
  0
LINE
  5
D6B6
  8
0
 10
4649.9544704996997098
 20
262.5847140607227175
 30
0.0
 11
4649.9544796447999033
 21
260.2081454655117909
 31
0.0
  0
ARC
  5
D6B7
  8
0
 10
4650.0367139559220959
 20
260.213675330965998
 30
0.0
 40
0.0824200299533133
 50
183.8470763153692076
 51
261.3864160044972209
  0
LINE
  5
D6B8
  8
0
 10
4650.0243699278998974
 20
260.1321849247227078
 30
0.0
 11
4657.1654798526997183
 21
260.1297023730227238
 31
0.0
  0
ARC
  5
D6B9
  8
0
 10
4657.1562177791729482
 20
260.215143026729379
 30
0.0
 40
0.0859412084614658
 50
276.186908807080215
 51
355.3485027668319844
  0
LINE
  5
D6BA
  8
0
 10
4657.2418759311003669
 20
260.2081736422226754
 30
0.0
 11
4657.2418667925003319
 21
262.5847422076228099
 31
0.0
  0
ARC
  5
D6BB
  8
0
 10
4668.111121464581629
 20
260.0310142136053742
 30
0.0
 40
0.082590736034968
 50
3.942111706233248
 51
81.2913706712689361
  0
LINE
  5
D6BC
  8
0
 10
4668.1236265028010166
 20
260.112652768822727
 30
0.0
 11
4660.9825165709007706
 21
260.1151353204226098
 31
0.0
  0
ARC
  5
D6BD
  8
0
 10
4660.9917845219497394
 20
260.0296889516404235
 30
0.0
 40
0.0859475238429649
 50
96.1903935601906568
 51
175.3450164775254052
  0
LINE
  5
D6BE
  8
0
 10
4660.9061204996996821
 20
260.0366640607227282
 30
0.0
 11
4660.9061296448007852
 21
257.6600954655118016
 31
0.0
  0
ARC
  5
D6BF
  8
0
 10
4660.9883639559220683
 20
257.6656253309660087
 30
0.0
 40
0.0824200299533133
 50
183.8470763153692076
 51
261.3864160044972209
  0
LINE
  5
D6C0
  8
0
 10
4660.9760199278998698
 20
257.5841349247227186
 30
0.0
 11
4668.1171298526996907
 21
257.5816523730226777
 31
0.0
  0
ARC
  5
D6C1
  8
0
 10
4668.1078677791729206
 20
257.6670930267293897
 30
0.0
 40
0.0859412084614658
 50
276.186908807080215
 51
355.3485027668319844
  0
LINE
  5
D6C2
  8
0
 10
4668.1935259311003392
 20
257.6601236422225725
 30
0.0
 11
4668.1935167925012138
 21
260.036692207622707
 31
0.0
  0
ARC
  5
D6C3
  8
0
 10
4660.8100214645828601
 20
260.0310142136053742
 30
0.0
 40
0.082590736034968
 50
3.942111706233248
 51
81.2913706712689361
  0
LINE
  5
D6C4
  8
0
 10
4660.8225265028004287
 20
260.112652768822727
 30
0.0
 11
4653.6814165709010922
 21
260.1151353204226098
 31
0.0
  0
ARC
  5
D6C5
  8
0
 10
4653.690684521950061
 20
260.0296889516404235
 30
0.0
 40
0.0859475238429649
 50
96.1903935601906568
 51
175.3450164775254052
  0
LINE
  5
D6C6
  8
0
 10
4653.6050204997009132
 20
260.0366640607227282
 30
0.0
 11
4653.6050296448001973
 21
257.6600954655118016
 31
0.0
  0
ARC
  5
D6C7
  8
0
 10
4653.6872639559223899
 20
257.6656253309660087
 30
0.0
 40
0.0824200299533133
 50
183.8470763153692076
 51
261.3864160044972209
  0
LINE
  5
D6C8
  8
0
 10
4653.6749199279001914
 20
257.5841349247227186
 30
0.0
 11
4660.8160298527009218
 21
257.5816523730226777
 31
0.0
  0
ARC
  5
D6C9
  8
0
 10
4660.8067677791741517
 20
257.6670930267293897
 30
0.0
 40
0.0859412084614658
 50
276.186908807080215
 51
355.3485027668319844
  0
LINE
  5
D6CA
  8
0
 10
4660.8924259311006608
 20
257.6601236422225725
 30
0.0
 11
4660.8924167924997164
 21
260.036692207622707
 31
0.0
  0
ARC
  5
D6CB
  8
0
 10
4653.5089214645822722
 20
260.0310142136053742
 30
0.0
 40
0.082590736034968
 50
3.942111706233248
 51
81.2913706712689361
  0
LINE
  5
D6CC
  8
0
 10
4653.5214265028007503
 20
260.112652768822727
 30
0.0
 11
4646.3803165708995948
 21
260.1151353204226098
 31
0.0
  0
ARC
  5
D6CD
  8
0
 10
4646.3895845219503826
 20
260.0296889516404235
 30
0.0
 40
0.0859475238429649
 50
96.1903935601906568
 51
175.3450164775254052
  0
LINE
  5
D6CE
  8
0
 10
4646.3039204997003253
 20
260.0366640607227282
 30
0.0
 11
4646.3039296447996094
 21
257.6600954655118016
 31
0.0
  0
ARC
  5
D6CF
  8
0
 10
4646.3861639559227115
 20
257.6656253309660087
 30
0.0
 40
0.0824200299533133
 50
183.8470763153692076
 51
261.3864160044972209
  0
LINE
  5
D6D0
  8
0
 10
4646.3738199279014225
 20
257.5841349247227186
 30
0.0
 11
4653.5149298527003339
 21
257.5816523730226777
 31
0.0
  0
ARC
  5
D6D1
  8
0
 10
4653.5056677791735638
 20
257.6670930267293897
 30
0.0
 40
0.0859412084614658
 50
276.186908807080215
 51
355.3485027668319844
  0
LINE
  5
D6D2
  8
0
 10
4653.5913259311009824
 20
257.6601236422225725
 30
0.0
 11
4653.5913167925009475
 21
260.036692207622707
 31
0.0
  0
ARC
  5
D6D3
  8
0
 10
4657.1594714645816566
 20
257.4829642136053849
 30
0.0
 40
0.082590736034968
 50
3.942111706233248
 51
81.2913706712689361
  0
LINE
  5
D6D4
  8
0
 10
4657.1719765028010443
 20
257.5646027688227946
 30
0.0
 11
4650.0308665708998888
 21
257.5670853204226205
 31
0.0
  0
ARC
  5
D6D5
  8
0
 10
4650.0401345219497671
 20
257.4816389516403774
 30
0.0
 40
0.0859475238429649
 50
96.1903935601906568
 51
175.3450164775254052
  0
LINE
  5
D6D6
  8
0
 10
4649.9544704996997098
 20
257.4886140607226821
 30
0.0
 11
4649.9544796447999033
 21
255.1120454655118124
 31
0.0
  0
ARC
  5
D6D7
  8
0
 10
4650.0367139559220959
 20
255.1175753309661047
 30
0.0
 40
0.0824200299533133
 50
183.8470763153692076
 51
261.3864160044972209
  0
LINE
  5
D6D8
  8
0
 10
4650.0243699278998974
 20
255.0360849247227009
 30
0.0
 11
4657.1654798526997183
 21
255.0336023730228021
 31
0.0
  0
ARC
  5
D6D9
  8
0
 10
4657.1562177791729482
 20
255.1190430267294005
 30
0.0
 40
0.0859412084614658
 50
276.186908807080215
 51
355.3485027668319844
  0
LINE
  5
D6DA
  8
0
 10
4657.2418759311003669
 20
255.1120736422228106
 30
0.0
 11
4657.2418667925003319
 21
257.4886422076227745
 31
0.0
  0
ARC
  5
D6DB
  8
0
 10
4664.4605714645822445
 20
257.4829642136053849
 30
0.0
 40
0.082590736034968
 50
3.942111706233248
 51
81.2913706712689361
  0
LINE
  5
D6DC
  8
0
 10
4664.4730765027998132
 20
257.5646027688227946
 30
0.0
 11
4657.3319665708995672
 21
257.5670853204226205
 31
0.0
  0
ARC
  5
D6DD
  8
0
 10
4657.341234521950355
 20
257.4816389516403774
 30
0.0
 40
0.0859475238429649
 50
96.1903935601906568
 51
175.3450164775254052
  0
LINE
  5
D6DE
  8
0
 10
4657.2555704997012072
 20
257.4886140607226821
 30
0.0
 11
4657.2555796447995817
 21
255.1120454655118124
 31
0.0
  0
ARC
  5
D6DF
  8
0
 10
4657.3378139559217743
 20
255.1175753309661047
 30
0.0
 40
0.0824200299533133
 50
183.8470763153692076
 51
261.3864160044972209
  0
LINE
  5
D6E0
  8
0
 10
4657.3254699278995759
 20
255.0360849247227009
 30
0.0
 11
4664.4665798527012157
 21
255.0336023730228021
 31
0.0
  0
ARC
  5
D6E1
  8
0
 10
4664.4573177791753551
 20
255.1190430267294005
 30
0.0
 40
0.0859412084614658
 50
276.186908807080215
 51
355.3485027668319844
  0
LINE
  5
D6E2
  8
0
 10
4664.5429759311009548
 20
255.1120736422228106
 30
0.0
 11
4664.5429667925009198
 21
257.4886422076227745
 31
0.0
  0
ARC
  5
D6E3
  8
0
 10
4671.7616714645819229
 20
257.4829642136053849
 30
0.0
 40
0.082590736034968
 50
3.942111706233248
 51
81.2913706712689361
  0
LINE
  5
D6E4
  8
0
 10
4671.7741765028013106
 20
257.5646027688227946
 30
0.0
 11
4664.6330665709010646
 21
257.5670853204226205
 31
0.0
  0
ARC
  5
D6E5
  8
0
 10
4664.6423345219500334
 20
257.4816389516403774
 30
0.0
 40
0.0859475238429649
 50
96.1903935601906568
 51
175.3450164775254052
  0
LINE
  5
D6E6
  8
0
 10
4664.5566704997008856
 20
257.4886140607226821
 30
0.0
 11
4664.5566796448001696
 21
255.1120454655118124
 31
0.0
  0
ARC
  5
D6E7
  8
0
 10
4664.6389139559223622
 20
255.1175753309661047
 30
0.0
 40
0.0824200299533133
 50
183.8470763153692076
 51
261.3864160044972209
  0
LINE
  5
D6E8
  8
0
 10
4664.6265699279001637
 20
255.0360849247227009
 30
0.0
 11
4671.7676798527008941
 21
255.0336023730228021
 31
0.0
  0
ARC
  5
D6E9
  8
0
 10
4671.758417779174124
 20
255.1190430267294005
 30
0.0
 40
0.0859412084614658
 50
276.186908807080215
 51
355.3485027668319844
  0
LINE
  5
D6EA
  8
0
 10
4671.8440759310997237
 20
255.1120736422228106
 30
0.0
 11
4671.8440667925005982
 21
257.4886422076227745
 31
0.0
  0
ARC
  5
D6EB
  8
0
 10
4668.111121464581629
 20
254.9349142136055093
 30
0.0
 40
0.082590736034968
 50
3.942111706233248
 51
81.2913706712689361
  0
LINE
  5
D6EC
  8
0
 10
4668.1236265028010166
 20
255.0165527688226916
 30
0.0
 11
4660.9825165709007706
 21
255.0190353204226028
 31
0.0
  0
ARC
  5
D6ED
  8
0
 10
4660.9917845219497394
 20
254.9335889516405018
 30
0.0
 40
0.0859475238429649
 50
96.1903935601906568
 51
175.3450164775254052
  0
LINE
  5
D6EE
  8
0
 10
4660.9061204996996821
 20
254.9405640607228065
 30
0.0
 11
4660.9061296448007852
 21
252.5639954655117947
 31
0.0
  0
ARC
  5
D6EF
  8
0
 10
4660.9883639559220683
 20
252.569525330966087
 30
0.0
 40
0.0824200299533133
 50
183.8470763153692076
 51
261.3864160044972209
  0
LINE
  5
D6F0
  8
0
 10
4660.9760199278998698
 20
252.4880349247227116
 30
0.0
 11
4668.1171298526996907
 21
252.4855523730226992
 31
0.0
  0
ARC
  5
D6F1
  8
0
 10
4668.1078677791729206
 20
252.5709930267292975
 30
0.0
 40
0.0859412084614658
 50
276.186908807080215
 51
355.3485027668319844
  0
LINE
  5
D6F2
  8
0
 10
4668.1935259311003392
 20
252.5640236422227076
 30
0.0
 11
4668.1935167925012138
 21
254.9405922076227
 31
0.0
  0
ARC
  5
D6F3
  8
0
 10
4660.8100214645828601
 20
254.9349142136055093
 30
0.0
 40
0.082590736034968
 50
3.942111706233248
 51
81.2913706712689361
  0
LINE
  5
D6F4
  8
0
 10
4660.8225265028004287
 20
255.0165527688226916
 30
0.0
 11
4653.6814165709010922
 21
255.0190353204226028
 31
0.0
  0
ARC
  5
D6F5
  8
0
 10
4653.690684521950061
 20
254.9335889516405018
 30
0.0
 40
0.0859475238429649
 50
96.1903935601906568
 51
175.3450164775254052
  0
LINE
  5
D6F6
  8
0
 10
4653.6050204997009132
 20
254.9405640607228065
 30
0.0
 11
4653.6050296448001973
 21
252.5639954655117947
 31
0.0
  0
ARC
  5
D6F7
  8
0
 10
4653.6872639559223899
 20
252.569525330966087
 30
0.0
 40
0.0824200299533133
 50
183.8470763153692076
 51
261.3864160044972209
  0
LINE
  5
D6F8
  8
0
 10
4653.6749199279001914
 20
252.4880349247227116
 30
0.0
 11
4660.8160298527009218
 21
252.4855523730226992
 31
0.0
  0
ARC
  5
D6F9
  8
0
 10
4660.8067677791741517
 20
252.5709930267292975
 30
0.0
 40
0.0859412084614658
 50
276.186908807080215
 51
355.3485027668319844
  0
LINE
  5
D6FA
  8
0
 10
4660.8924259311006608
 20
252.5640236422227076
 30
0.0
 11
4660.8924167924997164
 21
254.9405922076227
 31
0.0
  0
ARC
  5
D6FB
  8
0
 10
4653.5089214645822722
 20
254.9349142136055093
 30
0.0
 40
0.082590736034968
 50
3.942111706233248
 51
81.2913706712689361
  0
LINE
  5
D6FC
  8
0
 10
4653.5214265028007503
 20
255.0165527688226916
 30
0.0
 11
4646.3803165708995948
 21
255.0190353204226028
 31
0.0
  0
ARC
  5
D6FD
  8
0
 10
4646.3895845219503826
 20
254.9335889516405018
 30
0.0
 40
0.0859475238429649
 50
96.1903935601906568
 51
175.3450164775254052
  0
LINE
  5
D6FE
  8
0
 10
4646.3039204997003253
 20
254.9405640607228065
 30
0.0
 11
4646.3039296447996094
 21
252.5639954655117947
 31
0.0
  0
ARC
  5
D6FF
  8
0
 10
4646.3861639559227115
 20
252.569525330966087
 30
0.0
 40
0.0824200299533133
 50
183.8470763153692076
 51
261.3864160044972209
  0
LINE
  5
D700
  8
0
 10
4646.3738199279014225
 20
252.4880349247227116
 30
0.0
 11
4653.5149298527003339
 21
252.4855523730226992
 31
0.0
  0
ARC
  5
D701
  8
0
 10
4653.5056677791735638
 20
252.5709930267292975
 30
0.0
 40
0.0859412084614658
 50
276.186908807080215
 51
355.3485027668319844
  0
LINE
  5
D702
  8
0
 10
4653.5913259311009824
 20
252.5640236422227076
 30
0.0
 11
4653.5913167925009475
 21
254.9405922076227
 31
0.0
  0
ARC
  5
D703
  8
0
 10
4657.1594714645816566
 20
252.3868642136054916
 30
0.0
 40
0.082590736034968
 50
3.942111706233248
 51
81.2913706712689361
  0
LINE
  5
D704
  8
0
 10
4657.1719765028010443
 20
252.4685027688227876
 30
0.0
 11
4650.0308665708998888
 21
252.4709853204226988
 31
0.0
  0
ARC
  5
D705
  8
0
 10
4650.0401345219497671
 20
252.3855389516405126
 30
0.0
 40
0.0859475238429649
 50
96.1903935601906568
 51
175.3450164775254052
  0
LINE
  5
D706
  8
0
 10
4649.9544704996997098
 20
252.3925140607227036
 30
0.0
 11
4649.9544796447999033
 21
250.0159454655118054
 31
0.0
  0
ARC
  5
D707
  8
0
 10
4650.0367139559220959
 20
250.0214753309660978
 30
0.0
 40
0.0824200299533133
 50
183.8470763153692076
 51
261.3864160044972209
  0
LINE
  5
D708
  8
0
 10
4650.0243699278998974
 20
249.9399849247226086
 30
0.0
 11
4657.1654798526997183
 21
249.9375023730227952
 31
0.0
  0
ARC
  5
D709
  8
0
 10
4657.1562177791729482
 20
250.0229430267295072
 30
0.0
 40
0.0859412084614658
 50
276.186908807080215
 51
355.3485027668319844
  0
LINE
  5
D70A
  8
0
 10
4657.2418759311003669
 20
250.0159736422228036
 30
0.0
 11
4657.2418667925003319
 21
252.3925422076227107
 31
0.0
  0
ARC
  5
D70B
  8
0
 10
4664.4605714645822445
 20
252.3868642136054916
 30
0.0
 40
0.082590736034968
 50
3.942111706233248
 51
81.2913706712689361
  0
LINE
  5
D70C
  8
0
 10
4664.4730765027998132
 20
252.4685027688227876
 30
0.0
 11
4657.3319665708995672
 21
252.4709853204226988
 31
0.0
  0
ARC
  5
D70D
  8
0
 10
4657.341234521950355
 20
252.3855389516405126
 30
0.0
 40
0.0859475238429649
 50
96.1903935601906568
 51
175.3450164775254052
  0
LINE
  5
D70E
  8
0
 10
4657.2555704997012072
 20
252.3925140607227036
 30
0.0
 11
4657.2555796447995817
 21
250.0159454655118054
 31
0.0
  0
ARC
  5
D70F
  8
0
 10
4657.3378139559217743
 20
250.0214753309660978
 30
0.0
 40
0.0824200299533133
 50
183.8470763153692076
 51
261.3864160044972209
  0
LINE
  5
D710
  8
0
 10
4657.3254699278995759
 20
249.9399849247226086
 30
0.0
 11
4664.4665798527012157
 21
249.9375023730227952
 31
0.0
  0
ARC
  5
D711
  8
0
 10
4664.4573177791753551
 20
250.0229430267295072
 30
0.0
 40
0.0859412084614658
 50
276.186908807080215
 51
355.3485027668319844
  0
LINE
  5
D712
  8
0
 10
4664.5429759311009548
 20
250.0159736422228036
 30
0.0
 11
4664.5429667925009198
 21
252.3925422076227107
 31
0.0
  0
ARC
  5
D713
  8
0
 10
4671.7616714645819229
 20
252.3868642136054916
 30
0.0
 40
0.082590736034968
 50
3.942111706233248
 51
81.2913706712689361
  0
LINE
  5
D714
  8
0
 10
4671.7741765028013106
 20
252.4685027688227876
 30
0.0
 11
4664.6330665709010646
 21
252.4709853204226988
 31
0.0
  0
ARC
  5
D715
  8
0
 10
4664.6423345219500334
 20
252.3855389516405126
 30
0.0
 40
0.0859475238429649
 50
96.1903935601906568
 51
175.3450164775254052
  0
LINE
  5
D716
  8
0
 10
4664.5566704997008856
 20
252.3925140607227036
 30
0.0
 11
4664.5566796448001696
 21
250.0159454655118054
 31
0.0
  0
ARC
  5
D717
  8
0
 10
4664.6389139559223622
 20
250.0214753309660978
 30
0.0
 40
0.0824200299533133
 50
183.8470763153692076
 51
261.3864160044972209
  0
LINE
  5
D718
  8
0
 10
4664.6265699279001637
 20
249.9399849247226086
 30
0.0
 11
4671.7676798527008941
 21
249.9375023730227952
 31
0.0
  0
ARC
  5
D719
  8
0
 10
4671.758417779174124
 20
250.0229430267295072
 30
0.0
 40
0.0859412084614658
 50
276.186908807080215
 51
355.3485027668319844
  0
LINE
  5
D71A
  8
0
 10
4671.8440759310997237
 20
250.0159736422228036
 30
0.0
 11
4671.8440667925005982
 21
252.3925422076227107
 31
0.0
  0
ARC
  5
D71B
  8
0
 10
4668.111121464581629
 20
249.8388142136055023
 30
0.0
 40
0.082590736034968
 50
3.942111706233248
 51
81.2913706712689361
  0
LINE
  5
D71C
  8
0
 10
4668.1236265028010166
 20
249.9204527688227131
 30
0.0
 11
4660.9825165709007706
 21
249.9229353204227095
 31
0.0
  0
ARC
  5
D71D
  8
0
 10
4660.9917845219497394
 20
249.8374889516404949
 30
0.0
 40
0.0859475238429649
 50
96.1903935601906568
 51
175.3450164775254052
  0
LINE
  5
D71E
  8
0
 10
4660.9061204996996821
 20
249.8444640607227996
 30
0.0
 11
4660.9061296448007852
 21
247.4678954655117877
 31
0.0
  0
ARC
  5
D71F
  8
0
 10
4660.9883639559220683
 20
247.4734253309661085
 30
0.0
 40
0.0824200299533133
 50
183.8470763153692076
 51
261.3864160044972209
  0
LINE
  5
D720
  8
0
 10
4660.9760199278998698
 20
247.3919349247227899
 30
0.0
 11
4668.1171298526996907
 21
247.3894523730226922
 31
0.0
  0
ARC
  5
D721
  8
0
 10
4668.1078677791729206
 20
247.4748930267292906
 30
0.0
 40
0.0859412084614658
 50
276.186908807080215
 51
355.3485027668319844
  0
LINE
  5
D722
  8
0
 10
4668.1935259311003392
 20
247.4679236422227007
 30
0.0
 11
4668.1935167925012138
 21
249.8444922076226931
 31
0.0
  0
ARC
  5
D723
  8
0
 10
4660.8100214645828601
 20
249.8388142136055023
 30
0.0
 40
0.082590736034968
 50
3.942111706233248
 51
81.2913706712689361
  0
LINE
  5
D724
  8
0
 10
4660.8225265028004287
 20
249.9204527688227131
 30
0.0
 11
4653.6814165709010922
 21
249.9229353204227095
 31
0.0
  0
ARC
  5
D725
  8
0
 10
4653.690684521950061
 20
249.8374889516404949
 30
0.0
 40
0.0859475238429649
 50
96.1903935601906568
 51
175.3450164775254052
  0
LINE
  5
D726
  8
0
 10
4653.6050204997009132
 20
249.8444640607227996
 30
0.0
 11
4653.6050296448001973
 21
247.4678954655117877
 31
0.0
  0
ARC
  5
D727
  8
0
 10
4653.6872639559223899
 20
247.4734253309661085
 30
0.0
 40
0.0824200299533133
 50
183.8470763153692076
 51
261.3864160044972209
  0
LINE
  5
D728
  8
0
 10
4653.6749199279001914
 20
247.3919349247227899
 30
0.0
 11
4660.8160298527009218
 21
247.3894523730226922
 31
0.0
  0
ARC
  5
D729
  8
0
 10
4660.8067677791741517
 20
247.4748930267292906
 30
0.0
 40
0.0859412084614658
 50
276.186908807080215
 51
355.3485027668319844
  0
LINE
  5
D72A
  8
0
 10
4660.8924259311006608
 20
247.4679236422227007
 30
0.0
 11
4660.8924167924997164
 21
249.8444922076226931
 31
0.0
  0
ARC
  5
D72B
  8
0
 10
4653.5089214645822722
 20
249.8388142136055023
 30
0.0
 40
0.082590736034968
 50
3.942111706233248
 51
81.2913706712689361
  0
LINE
  5
D72C
  8
0
 10
4653.5214265028007503
 20
249.9204527688227131
 30
0.0
 11
4646.3803165708995948
 21
249.9229353204227095
 31
0.0
  0
ARC
  5
D72D
  8
0
 10
4646.3895845219503826
 20
249.8374889516404949
 30
0.0
 40
0.0859475238429649
 50
96.1903935601906568
 51
175.3450164775254052
  0
LINE
  5
D72E
  8
0
 10
4646.3039204997003253
 20
249.8444640607227996
 30
0.0
 11
4646.3039296447996094
 21
247.4678954655117877
 31
0.0
  0
ARC
  5
D72F
  8
0
 10
4646.3861639559227115
 20
247.4734253309661085
 30
0.0
 40
0.0824200299533133
 50
183.8470763153692076
 51
261.3864160044972209
  0
LINE
  5
D730
  8
0
 10
4646.3738199279014225
 20
247.3919349247227899
 30
0.0
 11
4653.5149298527003339
 21
247.3894523730226922
 31
0.0
  0
ARC
  5
D731
  8
0
 10
4653.5056677791735638
 20
247.4748930267292906
 30
0.0
 40
0.0859412084614658
 50
276.186908807080215
 51
355.3485027668319844
  0
LINE
  5
D732
  8
0
 10
4653.5913259311009824
 20
247.4679236422227007
 30
0.0
 11
4653.5913167925009475
 21
249.8444922076226931
 31
0.0
  0
ARC
  5
D733
  8
0
 10
4657.1591473723074159
 20
247.2906983691505047
 30
0.0
 40
0.082590736034968
 50
3.942111706233248
 51
81.2913706712689361
  0
LINE
  5
D734
  8
0
 10
4657.1716524105240751
 20
247.3723369243676871
 30
0.0
 11
4650.0305424786238291
 21
247.3748194759677119
 31
0.0
  0
ARC
  5
D735
  8
0
 10
4650.0398104296737074
 20
247.2893731071854972
 30
0.0
 40
0.0859475238429649
 50
96.1903935601906568
 51
175.3450164775254052
  0
LINE
  5
D736
  8
0
 10
4649.9541464074236501
 20
247.2963482162678019
 30
0.0
 11
4649.9541555525229342
 21
244.9197796210567901
 31
0.0
  0
ARC
  5
D737
  8
0
 10
4650.0363898636460362
 20
244.9253094865111109
 30
0.0
 40
0.0824200299533133
 50
183.8470763153692076
 51
261.3864160044972209
  0
LINE
  5
D738
  8
0
 10
4650.0240458356238378
 20
244.843819080267707
 30
0.0
 11
4657.1651557604245681
 21
244.8413365285676946
 31
0.0
  0
ARC
  5
D739
  8
0
 10
4657.155893686897798
 20
244.9267771822744066
 30
0.0
 40
0.0859412084614658
 50
276.186908807080215
 51
355.3485027668319844
  0
LINE
  5
D73A
  8
0
 10
4657.2415518388252167
 20
244.9198077977677031
 30
0.0
 11
4657.2415427002242723
 21
247.2963763631676954
 31
0.0
  0
ARC
  5
D73B
  8
0
 10
4664.4605714645822445
 20
247.2907642136055131
 30
0.0
 40
0.082590736034968
 50
3.942111706233248
 51
81.2913706712689361
  0
LINE
  5
D73C
  8
0
 10
4664.4730765027998132
 20
247.3724027688228091
 30
0.0
 11
4657.3319665708995672
 21
247.3748853204226918
 31
0.0
  0
ARC
  5
D73D
  8
0
 10
4657.341234521950355
 20
247.2894389516403919
 30
0.0
 40
0.0859475238429649
 50
96.1903935601906568
 51
175.3450164775254052
  0
LINE
  5
D73E
  8
0
 10
4657.2555704997012072
 20
247.2964140607226966
 30
0.0
 11
4657.2555796447995817
 21
244.9198454655117985
 31
0.0
  0
ARC
  5
D73F
  8
0
 10
4657.3378139559217743
 20
244.9253753309660908
 30
0.0
 40
0.0824200299533133
 50
183.8470763153692076
 51
261.3864160044972209
  0
LINE
  5
D740
  8
0
 10
4657.3254699278995759
 20
244.8438849247226017
 30
0.0
 11
4664.4665798527012157
 21
244.8414023730227882
 31
0.0
  0
ARC
  5
D741
  8
0
 10
4664.4573177791753551
 20
244.9268430267293866
 30
0.0
 40
0.0859412084614658
 50
276.186908807080215
 51
355.3485027668319844
  0
LINE
  5
D742
  8
0
 10
4664.5429759311009548
 20
244.9198736422227114
 30
0.0
 11
4664.5429667925009198
 21
247.2964422076227038
 31
0.0
  0
ARC
  5
D743
  8
0
 10
4671.7616714645819229
 20
247.2907642136055131
 30
0.0
 40
0.082590736034968
 50
3.942111706233248
 51
81.2913706712689361
  0
LINE
  5
D744
  8
0
 10
4671.7741765028013106
 20
247.3724027688228091
 30
0.0
 11
4664.6330665709010646
 21
247.3748853204226918
 31
0.0
  0
ARC
  5
D745
  8
0
 10
4664.6423345219500334
 20
247.2894389516403919
 30
0.0
 40
0.0859475238429649
 50
96.1903935601906568
 51
175.3450164775254052
  0
LINE
  5
D746
  8
0
 10
4664.5566704997008856
 20
247.2964140607226966
 30
0.0
 11
4664.5566796448001696
 21
244.9198454655117985
 31
0.0
  0
ARC
  5
D747
  8
0
 10
4664.6389139559223622
 20
244.9253753309660908
 30
0.0
 40
0.0824200299533133
 50
183.8470763153692076
 51
261.3864160044972209
  0
LINE
  5
D748
  8
0
 10
4664.6265699279001637
 20
244.8438849247226017
 30
0.0
 11
4671.7676798527008941
 21
244.8414023730227882
 31
0.0
  0
ARC
  5
D749
  8
0
 10
4671.758417779174124
 20
244.9268430267293866
 30
0.0
 40
0.0859412084614658
 50
276.186908807080215
 51
355.3485027668319844
  0
LINE
  5
D74A
  8
0
 10
4671.8440759310997237
 20
244.9198736422227114
 30
0.0
 11
4671.8440667925005982
 21
247.2964422076227038
 31
0.0
  0
ARC
  5
D74B
  8
0
 10
4668.111121464581629
 20
244.7427142136054954
 30
0.0
 40
0.082590736034968
 50
3.942111706233248
 51
81.2913706712689361
  0
LINE
  5
D74C
  8
0
 10
4668.1236265028010166
 20
244.8243527688227061
 30
0.0
 11
4660.9825165709007706
 21
244.8268353204227026
 31
0.0
  0
ARC
  5
D74D
  8
0
 10
4660.9917845219497394
 20
244.7413889516404879
 30
0.0
 40
0.0859475238429649
 50
96.1903935601906568
 51
175.3450164775254052
  0
LINE
  5
D74E
  8
0
 10
4660.9061204996996821
 20
244.7483640607227073
 30
0.0
 11
4660.9061296448007852
 21
242.3717954655118092
 31
0.0
  0
ARC
  5
D74F
  8
0
 10
4660.9883639559220683
 20
242.3773253309661015
 30
0.0
 40
0.0824200299533133
 50
183.8470763153692076
 51
261.3864160044972209
  0
LINE
  5
D750
  8
0
 10
4660.9760199278998698
 20
242.2958349247226977
 30
0.0
 11
4668.1171298526996907
 21
242.2933523730227137
 31
0.0
  0
ARC
  5
D751
  8
0
 10
4668.1078677791729206
 20
242.3787930267293973
 30
0.0
 40
0.0859412084614658
 50
276.186908807080215
 51
355.3485027668319844
  0
LINE
  5
D752
  8
0
 10
4668.1935259311003392
 20
242.3718236422226937
 30
0.0
 11
4668.1935167925012138
 21
244.7483922076226861
 31
0.0
  0
ARC
  5
D753
  8
0
 10
4660.8100214645828601
 20
244.7427142136054954
 30
0.0
 40
0.082590736034968
 50
3.942111706233248
 51
81.2913706712689361
  0
LINE
  5
D754
  8
0
 10
4660.8225265028004287
 20
244.8243527688227061
 30
0.0
 11
4653.6814165709010922
 21
244.8268353204227026
 31
0.0
  0
ARC
  5
D755
  8
0
 10
4653.690684521950061
 20
244.7413889516404879
 30
0.0
 40
0.0859475238429649
 50
96.1903935601906568
 51
175.3450164775254052
  0
LINE
  5
D756
  8
0
 10
4653.6050204997009132
 20
244.7483640607227073
 30
0.0
 11
4653.6050296448001973
 21
242.3717954655118092
 31
0.0
  0
ARC
  5
D757
  8
0
 10
4653.6872639559223899
 20
242.3773253309661015
 30
0.0
 40
0.0824200299533133
 50
183.8470763153692076
 51
261.3864160044972209
  0
LINE
  5
D758
  8
0
 10
4653.6749199279001914
 20
242.2958349247226977
 30
0.0
 11
4660.8160298527009218
 21
242.2933523730227137
 31
0.0
  0
ARC
  5
D759
  8
0
 10
4660.8067677791741517
 20
242.3787930267293973
 30
0.0
 40
0.0859412084614658
 50
276.186908807080215
 51
355.3485027668319844
  0
LINE
  5
D75A
  8
0
 10
4660.8924259311006608
 20
242.3718236422226937
 30
0.0
 11
4660.8924167924997164
 21
244.7483922076226861
 31
0.0
  0
ARC
  5
D75B
  8
0
 10
4653.5089214645822722
 20
244.7427142136054954
 30
0.0
 40
0.082590736034968
 50
3.942111706233248
 51
81.2913706712689361
  0
LINE
  5
D75C
  8
0
 10
4653.5214265028007503
 20
244.8243527688227061
 30
0.0
 11
4646.3803165708995948
 21
244.8268353204227026
 31
0.0
  0
ARC
  5
D75D
  8
0
 10
4646.3895845219503826
 20
244.7413889516404879
 30
0.0
 40
0.0859475238429649
 50
96.1903935601906568
 51
175.3450164775254052
  0
LINE
  5
D75E
  8
0
 10
4646.3039204997003253
 20
244.7483640607227073
 30
0.0
 11
4646.3039296447996094
 21
242.3717954655118092
 31
0.0
  0
ARC
  5
D75F
  8
0
 10
4646.3861639559227115
 20
242.3773253309661015
 30
0.0
 40
0.0824200299533133
 50
183.8470763153692076
 51
261.3864160044972209
  0
LINE
  5
D760
  8
0
 10
4646.3738199279014225
 20
242.2958349247226977
 30
0.0
 11
4653.5149298527003339
 21
242.2933523730227137
 31
0.0
  0
ARC
  5
D761
  8
0
 10
4653.5056677791735638
 20
242.3787930267293973
 30
0.0
 40
0.0859412084614658
 50
276.186908807080215
 51
355.3485027668319844
  0
LINE
  5
D762
  8
0
 10
4653.5913259311009824
 20
242.3718236422226937
 30
0.0
 11
4653.5913167925009475
 21
244.7483922076226861
 31
0.0
  0
ARC
  5
D763
  8
0
 10
4657.1594714645816566
 20
242.1946642136055914
 30
0.0
 40
0.082590736034968
 50
3.942111706233248
 51
81.2913706712689361
  0
LINE
  5
D764
  8
0
 10
4657.1719765028010443
 20
242.2763027688226884
 30
0.0
 11
4650.0308665708998888
 21
242.2787853204227133
 31
0.0
  0
ARC
  5
D765
  8
0
 10
4650.0401345219497671
 20
242.1933389516404134
 30
0.0
 40
0.0859475238429649
 50
96.1903935601906568
 51
175.3450164775254052
  0
LINE
  5
D766
  8
0
 10
4649.9544704996997098
 20
242.2003140607226896
 30
0.0
 11
4649.9544796447999033
 21
239.8237454655117915
 31
0.0
  0
ARC
  5
D767
  8
0
 10
4650.0367139559220959
 20
239.8292753309659986
 30
0.0
 40
0.0824200299533133
 50
183.8470763153692076
 51
261.3864160044972209
  0
LINE
  5
D768
  8
0
 10
4650.0243699278998974
 20
239.7477849247227084
 30
0.0
 11
4657.1654798526997183
 21
239.745302373022696
 31
0.0
  0
ARC
  5
D769
  8
0
 10
4657.1562177791729482
 20
239.830743026729408
 30
0.0
 40
0.0859412084614658
 50
276.186908807080215
 51
355.3485027668319844
  0
LINE
  5
D76A
  8
0
 10
4657.2418759311003669
 20
239.8237736422227897
 30
0.0
 11
4657.2418667925003319
 21
242.2003422076226968
 31
0.0
  0
ARC
  5
D76B
  8
0
 10
4664.4605714645822445
 20
242.1946642136055914
 30
0.0
 40
0.082590736034968
 50
3.942111706233248
 51
81.2913706712689361
  0
LINE
  5
D76C
  8
0
 10
4664.4730765027998132
 20
242.2763027688226884
 30
0.0
 11
4657.3319665708995672
 21
242.2787853204227133
 31
0.0
  0
ARC
  5
D76D
  8
0
 10
4657.341234521950355
 20
242.1933389516404134
 30
0.0
 40
0.0859475238429649
 50
96.1903935601906568
 51
175.3450164775254052
  0
LINE
  5
D76E
  8
0
 10
4657.2555704997012072
 20
242.2003140607226896
 30
0.0
 11
4657.2555796447995817
 21
239.8237454655117915
 31
0.0
  0
ARC
  5
D76F
  8
0
 10
4657.3378139559217743
 20
239.8292753309659986
 30
0.0
 40
0.0824200299533133
 50
183.8470763153692076
 51
261.3864160044972209
  0
LINE
  5
D770
  8
0
 10
4657.3254699278995759
 20
239.7477849247227084
 30
0.0
 11
4664.4665798527012157
 21
239.745302373022696
 31
0.0
  0
ARC
  5
D771
  8
0
 10
4664.4573177791753551
 20
239.830743026729408
 30
0.0
 40
0.0859412084614658
 50
276.186908807080215
 51
355.3485027668319844
  0
LINE
  5
D772
  8
0
 10
4664.5429759311009548
 20
239.8237736422227897
 30
0.0
 11
4664.5429667925009198
 21
242.2003422076226968
 31
0.0
  0
ARC
  5
D773
  8
0
 10
4671.7616714645819229
 20
242.1946642136055914
 30
0.0
 40
0.082590736034968
 50
3.942111706233248
 51
81.2913706712689361
  0
LINE
  5
D774
  8
0
 10
4671.7741765028013106
 20
242.2763027688226884
 30
0.0
 11
4664.6330665709010646
 21
242.2787853204227133
 31
0.0
  0
ARC
  5
D775
  8
0
 10
4664.6423345219500334
 20
242.1933389516404134
 30
0.0
 40
0.0859475238429649
 50
96.1903935601906568
 51
175.3450164775254052
  0
LINE
  5
D776
  8
0
 10
4664.5566704997008856
 20
242.2003140607226896
 30
0.0
 11
4664.5566796448001696
 21
239.8237454655117915
 31
0.0
  0
ARC
  5
D777
  8
0
 10
4664.6389139559223622
 20
239.8292753309659986
 30
0.0
 40
0.0824200299533133
 50
183.8470763153692076
 51
261.3864160044972209
  0
LINE
  5
D778
  8
0
 10
4664.6265699279001637
 20
239.7477849247227084
 30
0.0
 11
4671.7676798527008941
 21
239.745302373022696
 31
0.0
  0
ARC
  5
D779
  8
0
 10
4671.758417779174124
 20
239.830743026729408
 30
0.0
 40
0.0859412084614658
 50
276.186908807080215
 51
355.3485027668319844
  0
LINE
  5
D77A
  8
0
 10
4671.8440759310997237
 20
239.8237736422227897
 30
0.0
 11
4671.8440667925005982
 21
242.2003422076226968
 31
0.0
  0
ARC
  5
D77B
  8
0
 10
4641.6039849316921391
 20
259.7257300211356892
 30
0.0
 40
1.6165649126030699
 50
1.299682892622533
 51
13.9631559315515705
  0
LINE
  5
D77C
  8
0
 10
4643.2201339585162714
 20
259.7623966238642197
 30
0.0
 11
4643.2201339592011209
 21
257.9343938467235944
 31
0.0
  0
ARC
  5
D77D
  8
0
 10
4641.6023401526063026
 20
257.9712777659486846
 30
0.0
 40
1.618214208364283
 50
346.0433338061110931
 51
358.6939455120976845
  0
ARC
  5
D77E
  8
0
 10
4646.210058298182048
 20
260.0361657459546905
 30
0.0
 40
0.0796300539901669
 50
356.9903457378686085
 51
90.9176753425472413
  0
LINE
  5
D77F
  8
0
 10
4646.2087829614383736
 20
260.115785586538891
 30
0.0
 11
4643.172782119000658
 21
260.1158037343640217
 31
0.0
  0
LINE
  5
D780
  8
0
 10
4643.1727821183858396
 20
257.5809839583235998
 30
0.0
 11
4646.2086347177537391
 21
257.5808499808820784
 31
0.0
  0
ARC
  5
D781
  8
0
 10
4646.2098741768595573
 20
257.6607198312913738
 30
0.0
 40
0.0798794670943839
 50
269.1109276478118773
 51
2.9922440426830921
  0
LINE
  5
D782
  8
0
 10
4646.2896447371012982
 20
257.6648896013235799
 30
0.0
 11
4646.2895785186010471
 21
260.031984831823479
 31
0.0
  0
ARC
  5
D783
  8
0
 10
4646.210058298182048
 20
254.9400657459547972
 30
0.0
 40
0.0796300539901669
 50
356.9903457378686085
 51
90.9176753425472413
  0
LINE
  5
D784
  8
0
 10
4646.2087829614383736
 20
255.0196855865391967
 30
0.0
 11
4643.172782119000658
 21
255.0197037343642137
 31
0.0
  0
LINE
  5
D785
  8
0
 10
4643.1727821183858396
 20
252.4848839583239055
 30
0.0
 11
4646.2086347177537391
 21
252.4847499808824125
 31
0.0
  0
ARC
  5
D786
  8
0
 10
4646.2098741768595573
 20
252.5646198312917079
 30
0.0
 40
0.0798794670943839
 50
269.1109276478118773
 51
2.9922440426830921
  0
LINE
  5
D787
  8
0
 10
4646.2896447371012982
 20
252.5687896013236013
 30
0.0
 11
4646.2895785186010471
 21
254.9358848318238131
 31
0.0
  0
ARC
  5
D788
  8
0
 10
4641.6039968249078811
 20
249.5335300202445978
 30
0.0
 40
1.6165649126030699
 50
1.299682892622533
 51
13.9631559315515705
  0
LINE
  5
D789
  8
0
 10
4643.2201458517329229
 20
249.5701966229732136
 30
0.0
 11
4643.2201458524168629
 21
247.742193845832503
 31
0.0
  0
ARC
  5
D78A
  8
0
 10
4641.6023520458229541
 20
247.779077765057707
 30
0.0
 40
1.618214208364283
 50
346.0433338061110931
 51
358.6939455120976845
  0
ARC
  5
D78B
  8
0
 10
4646.2100701913986995
 20
249.8439657450637128
 30
0.0
 40
0.0796300539901669
 50
356.9903457378686085
 51
90.9176753425472413
  0
LINE
  5
D78C
  8
0
 10
4646.2087948546550251
 20
249.9235855856479134
 30
0.0
 11
4643.1727940122173095
 21
249.9236037334729872
 31
0.0
  0
LINE
  5
D78D
  8
0
 10
4643.1727940116015816
 20
247.3887839574327074
 30
0.0
 11
4646.2086466109703906
 21
247.3886499799911007
 31
0.0
  0
ARC
  5
D78E
  8
0
 10
4646.2098860700762089
 20
247.4685198304003961
 30
0.0
 40
0.0798794670943839
 50
269.1109276478118773
 51
2.9922440426830921
  0
LINE
  5
D78F
  8
0
 10
4646.2896566303179497
 20
247.4726896004326022
 30
0.0
 11
4646.2895904118167891
 21
249.8397848309325013
 31
0.0
  0
ARC
  5
D790
  8
0
 10
4641.6039846064159065
 20
244.4374299786722986
 30
0.0
 40
1.616565238696688
 50
1.299683531892341
 51
13.9631546363549397
  0
LINE
  5
D791
  8
0
 10
4643.2201339588400515
 20
244.4740966068291925
 30
0.0
 11
4643.2201339595258105
 21
242.6460938296885956
 31
0.0
  0
ARC
  5
D792
  8
0
 10
4641.6023405170171827
 20
242.6829777204596894
 30
0.0
 40
1.6182138437253071
 50
346.0433322594853962
 51
358.6939462254762248
  0
ARC
  5
D793
  8
0
 10
4646.2100582678731371
 20
244.7478657186935891
 30
0.0
 40
0.0796300831407492
 50
356.9903662663987234
 51
90.9176531959950154
  0
LINE
  5
D794
  8
0
 10
4646.2087829614383736
 20
244.8274855889175967
 30
0.0
 11
4643.172782119000658
 21
244.8275037351228036
 31
0.0
  0
LINE
  5
D795
  8
0
 10
4643.1727821183858396
 20
242.2926839583894036
 30
0.0
 11
4646.2086322707227737
 21
242.2925499421793063
 31
0.0
  0
ARC
  5
D796
  8
0
 10
4646.2098746817982828
 20
242.3724184056927129
 30
0.0
 40
0.0798781262253188
 50
269.1087950493950984
 51
2.9933279778973221
  0
LINE
  5
D797
  8
0
 10
4646.2896438241014039
 20
242.376589614822791
 30
0.0
 11
4646.2895785189002709
 21
244.7436848315232112
 31
0.0
  0
ARC
  5
D798
  8
0
 10
4649.8583714645828877
 20
262.5790642136054203
 30
0.0
 40
0.082590736034968
 50
3.942111706233248
 51
81.2913706712689361
  0
LINE
  5
D799
  8
0
 10
4649.8708765027995469
 20
262.6607027688227163
 30
0.0
 11
4643.1727821213753487
 21
262.6630313094951816
 31
0.0
  0
LINE
  5
D79A
  8
0
 10
4643.172782119000658
 20
260.1320286552818857
 30
0.0
 11
4649.8643798527009494
 21
260.1297023730227238
 31
0.0
  0
ARC
  5
D79B
  8
0
 10
4649.8551177791741793
 20
260.215143026729379
 30
0.0
 40
0.0859412084614658
 50
276.186908807080215
 51
355.3485027668319844
  0
LINE
  5
D79C
  8
0
 10
4649.940775931099779
 20
260.2081736422226754
 30
0.0
 11
4649.940766792499744
 21
262.5847422076228099
 31
0.0
  0
ARC
  5
D79D
  8
0
 10
4641.7065606450423729
 20
260.50181303702891
 30
0.0
 40
1.4985765344588109
 50
348.9364325403482781
 51
359.2597315836163716
  0
LINE
  5
D79E
  8
0
 10
4643.2050121029005822
 20
260.4824517852259191
 30
0.0
 11
4643.2050011691317195
 21
262.310458265775992
 31
0.0
  0
ARC
  5
D79F
  8
0
 10
4641.6768788545286952
 20
262.2881271955716898
 30
0.0
 40
1.5282854723782999
 50
0.8372268345937923
 51
10.9127617161005208
  0
ARC
  5
D7A0
  8
0
 10
4649.8583714645828877
 20
257.4829642136053849
 30
0.0
 40
0.082590736034968
 50
3.942111706233248
 51
81.2913706712689361
  0
LINE
  5
D7A1
  8
0
 10
4649.8708765027995469
 20
257.5646027688227946
 30
0.0
 11
4643.1727821185004359
 21
257.5669313094962263
 31
0.0
  0
LINE
  5
D7A2
  8
0
 10
4643.1727821185204448
 20
255.0359286552819924
 30
0.0
 11
4649.8643798527009494
 21
255.0336023730228021
 31
0.0
  0
ARC
  5
D7A3
  8
0
 10
4649.8551177791741793
 20
255.1190430267294005
 30
0.0
 40
0.0859412084614658
 50
276.186908807080215
 51
355.3485027668319844
  0
LINE
  5
D7A4
  8
0
 10
4649.940775931099779
 20
255.1120736422228106
 30
0.0
 11
4649.940766792499744
 21
257.4886422076227745
 31
0.0
  0
ARC
  5
D7A5
  8
0
 10
4641.7065606450423729
 20
255.405713037028903
 30
0.0
 40
1.4985765344588109
 50
348.9364325403482781
 51
359.2597315836163716
  0
LINE
  5
D7A6
  8
0
 10
4643.2050121029005822
 20
255.3863517852259122
 30
0.0
 11
4643.2050011691317195
 21
257.2143582657760135
 31
0.0
  0
ARC
  5
D7A7
  8
0
 10
4641.6768788545286952
 20
257.1920271955718249
 30
0.0
 40
1.5282854723782999
 50
0.8372268345937923
 51
10.9127617161005208
  0
ARC
  5
D7A8
  8
0
 10
4649.8583714645828877
 20
252.3868642136054916
 30
0.0
 40
0.082590736034968
 50
3.942111706233248
 51
81.2913706712689361
  0
LINE
  5
D7A9
  8
0
 10
4649.8708765027995469
 20
252.4685027688227876
 30
0.0
 11
4643.1727821185022549
 21
252.4708313094963046
 31
0.0
  0
LINE
  5
D7AA
  8
0
 10
4643.1727914245675493
 20
249.9398286520469128
 30
0.0
 11
4649.8643798527009494
 21
249.9375023730227952
 31
0.0
  0
ARC
  5
D7AB
  8
0
 10
4649.8551177791741793
 20
250.0229430267295072
 30
0.0
 40
0.0859412084614658
 50
276.186908807080215
 51
355.3485027668319844
  0
LINE
  5
D7AC
  8
0
 10
4649.940775931099779
 20
250.0159736422228036
 30
0.0
 11
4649.940766792499744
 21
252.3925422076227107
 31
0.0
  0
ARC
  5
D7AD
  8
0
 10
4641.7065606450423729
 20
250.3096130370288108
 30
0.0
 40
1.4985765344588109
 50
348.9364325403482781
 51
359.2597315836163716
  0
LINE
  5
D7AE
  8
0
 10
4643.2050121029005822
 20
250.2902517852259052
 30
0.0
 11
4643.2050011691317195
 21
252.1182582657760918
 31
0.0
  0
ARC
  5
D7AF
  8
0
 10
4641.6768788545286952
 20
252.0959271955717043
 30
0.0
 40
1.528285472378432
 50
0.8372268345937923
 51
10.9127617161005208
  0
ARC
  5
D7B0
  8
0
 10
4649.8583714645828877
 20
247.2907642136055131
 30
0.0
 40
0.082590736034968
 50
3.942111706233248
 51
81.2913706712689361
  0
LINE
  5
D7B1
  8
0
 10
4649.8708765027995469
 20
247.3724027688228091
 30
0.0
 11
4643.1727917668822556
 21
247.3747313061419959
 31
0.0
  0
LINE
  5
D7B2
  8
0
 10
4643.172782119000658
 20
244.8437286552818932
 30
0.0
 11
4649.8643798527009494
 21
244.8414023730227882
 31
0.0
  0
ARC
  5
D7B3
  8
0
 10
4649.8551177791741793
 20
244.9268430267293866
 30
0.0
 40
0.0859412084614658
 50
276.186908807080215
 51
355.3485027668319844
  0
LINE
  5
D7B4
  8
0
 10
4649.940775931099779
 20
244.9198736422227114
 30
0.0
 11
4649.940766792499744
 21
247.2964422076227038
 31
0.0
  0
ARC
  5
D7B5
  8
0
 10
4641.7065606450423729
 20
245.2135130370288891
 30
0.0
 40
1.4985765344588109
 50
348.9364325403482781
 51
359.2597315836163716
  0
LINE
  5
D7B6
  8
0
 10
4643.2050121029005822
 20
245.1941517852258983
 30
0.0
 11
4643.2050011691317195
 21
247.0221582657761132
 31
0.0
  0
ARC
  5
D7B7
  8
0
 10
4641.6768788545286952
 20
246.999827195571612
 30
0.0
 40
1.528285472378651
 50
0.8372268346003053
 51
10.9127617161005208
  0
ARC
  5
D7B8
  8
0
 10
4649.8583714645828877
 20
242.1946642136055914
 30
0.0
 40
0.082590736034968
 50
3.942111706233248
 51
81.2913706712689361
  0
LINE
  5
D7B9
  8
0
 10
4649.8708765027995469
 20
242.2763027688226884
 30
0.0
 11
4643.1727821172371478
 21
242.2786313094966886
 31
0.0
  0
LINE
  5
D7BA
  8
0
 10
4643.172781891984414
 20
239.7476286553608986
 30
0.0
 11
4649.8643798527009494
 21
239.745302373022696
 31
0.0
  0
ARC
  5
D7BB
  8
0
 10
4649.8551177791741793
 20
239.830743026729408
 30
0.0
 40
0.0859412084614658
 50
276.186908807080215
 51
355.3485027668319844
  0
LINE
  5
D7BC
  8
0
 10
4649.940775931099779
 20
239.8237736422227897
 30
0.0
 11
4649.940766792499744
 21
242.2003422076226968
 31
0.0
  0
ARC
  5
D7BD
  8
0
 10
4641.7065606450423729
 20
240.1174130370289106
 30
0.0
 40
1.4985765344588109
 50
348.9364325403482781
 51
359.2597315836163716
  0
LINE
  5
D7BE
  8
0
 10
4643.2050121029005822
 20
240.098051785225806
 30
0.0
 11
4643.2050011691317195
 21
241.9260582657759926
 31
0.0
  0
ARC
  5
D7BF
  8
0
 10
4641.6768788545286952
 20
241.9037271955716903
 30
0.0
 40
1.528285472378432
 50
0.8372268345937923
 51
10.9127617161005208
  0
LINE
  5
D7C0
  8
0
 10
4643.1727821219283214
 20
262.677083958322612
 30
0.0
 11
4643.172782119000658
 21
262.6026327182963769
 31
0.0
  0
LINE
  5
D7C1
  8
0
 10
4643.172782119000658
 20
262.6026327182963769
 30
0.0
 11
4643.1775276841008235
 21
262.5774532666226833
 31
0.0
  0
LINE
  5
D7C2
  8
0
 10
4643.172782119000658
 20
260.1158037343640217
 30
0.0
 11
4643.172782119000658
 21
260.1903758424227249
 31
0.0
  0
LINE
  5
D7C3
  8
0
 10
4643.172782119000658
 20
260.1903758424227249
 30
0.0
 11
4643.1772859609509396
 21
260.2142392642725781
 31
0.0
  0
LINE
  5
D7C4
  8
0
 10
4643.1727821183840206
 20
257.5809839583153007
 30
0.0
 11
4643.172782119000658
 21
257.5065325587227107
 31
0.0
  0
LINE
  5
D7C5
  8
0
 10
4643.172782119000658
 20
257.5065325587227107
 30
0.0
 11
4643.1775276841008235
 21
257.4813532666227047
 31
0.0
  0
LINE
  5
D7C6
  8
0
 10
4643.1727821183858396
 20
255.0197037342636008
 30
0.0
 11
4643.172782119000658
 21
255.0942758424226895
 31
0.0
  0
LINE
  5
D7C7
  8
0
 10
4643.172782119000658
 20
255.0942758424226895
 30
0.0
 11
4643.1772859609509396
 21
255.1181392642718038
 31
0.0
  0
LINE
  5
D7C8
  8
0
 10
4643.1727821183858396
 20
252.4848839583848985
 30
0.0
 11
4643.172782119000658
 21
252.4104325587227891
 31
0.0
  0
LINE
  5
D7C9
  8
0
 10
4643.172782119000658
 20
252.4104325587227891
 30
0.0
 11
4643.1775276841008235
 21
252.3852532666228115
 31
0.0
  0
LINE
  5
D7CA
  8
0
 10
4643.172782119000658
 20
249.998175842422711
 30
0.0
 11
4643.1772859609509396
 21
250.0220392642717968
 31
0.0
  0
LINE
  5
D7CB
  8
0
 10
4643.1727940116015816
 20
247.3887839574325938
 30
0.0
 11
4643.172782119000658
 21
247.3143325587228105
 31
0.0
  0
LINE
  5
D7CC
  8
0
 10
4643.172782119000658
 20
247.3143325587228105
 30
0.0
 11
4643.1775276841008235
 21
247.2891532666228045
 31
0.0
  0
LINE
  5
D7CD
  8
0
 10
4643.172782119000658
 20
244.8275037351228036
 30
0.0
 11
4643.172782119000658
 21
244.9020758424227893
 31
0.0
  0
LINE
  5
D7CE
  8
0
 10
4643.172782119000658
 20
244.9020758424227893
 30
0.0
 11
4643.1772859615575726
 21
244.9259392673737921
 31
0.0
  0
LINE
  5
D7CF
  8
0
 10
4643.1727821183858396
 20
242.2926839583894036
 30
0.0
 11
4643.17278211230132
 21
242.2182325935227141
 31
0.0
  0
LINE
  5
D7D0
  8
0
 10
4643.17278211230132
 20
242.2182325935227141
 30
0.0
 11
4643.1775276841008235
 21
242.1930532666227975
 31
0.0
  0
LINE
  5
D7D1
  8
0
 10
4643.1777537618763745
 20
239.6586656947301037
 30
0.0
 11
4643.1727818862027561
 21
239.6829735730597974
 31
0.0
  0
LINE
  5
D7D2
  8
0
 10
4643.1727818862027561
 20
239.6829735730597974
 30
0.0
 11
4643.1727818972012756
 21
239.8059746848227007
 31
0.0
  0
LINE
  5
D7D3
  8
0
 10
4643.1727818972012756
 20
239.8059746848227007
 30
0.0
 11
4643.1772859609509396
 21
239.8298392642716124
 31
0.0
  0
ARC
  5
D7D4
  8
0
 10
4641.7604746918177625
 20
239.3648072011926899
 30
0.0
 40
1.447422805074277
 50
0.5219727126558151
 51
11.7137260136696799
  0
LINE
  5
D7D5
  8
0
 10
4643.2078374331003943
 20
239.3779932467226956
 30
0.0
 11
4643.2078374331003943
 21
237.5499932467226927
 31
0.0
  0
ARC
  5
D7D6
  8
0
 10
4641.6239081551811978
 20
237.5758985745086989
 30
0.0
 40
1.584141105917636
 50
346.3960380263504248
 51
359.0630051169919739
  0
ARC
  5
D7D7
  8
0
 10
4643.3478019732574467
 20
238.160372533216588
 30
0.0
 40
1.5712292105843659
 50
90.2063085999914875
 51
93.9679279216223762
  0
ARC
  5
D7D8
  8
0
 10
4643.7867522245232976
 20
191.4535286146777935
 30
0.0
 40
45.8125990487561694
 50
90.5187278708773277
 51
90.7630485284395547
  0
ARC
  5
D7D9
  8
0
 10
4671.7616138097537259
 20
237.098508153097697
 30
0.0
 40
0.0826573140842531
 50
3.9583061792597301
 51
81.2117058123479865
  0
LINE
  5
D7DA
  8
0
 10
4671.7742425193000599
 20
237.1801950386227134
 30
0.0
 11
4664.6265041603010104
 21
237.180193582422703
 31
0.0
  0
ARC
  5
D7DB
  8
0
 10
4664.6391201616088438
 20
237.0985264490005022
 30
0.0
 40
0.0826358528148742
 50
98.7816787481328902
 51
176.036030093163788
  0
LINE
  5
D7DC
  8
0
 10
4664.5566819969799326
 20
237.1042389951055895
 30
0.0
 11
4664.5566724822592732
 21
234.7276736609306909
 31
0.0
  0
ARC
  5
D7DD
  8
0
 10
4664.639150462260659
 20
234.7333959374037988
 30
0.0
 40
0.0826762458821125
 50
183.9687895936694986
 51
261.2012228403298195
  0
LINE
  5
D7DE
  8
0
 10
4664.6265039113995954
 20
234.6516926548227104
 30
0.0
 11
4671.7742422674000409
 21
234.6519437670226864
 31
0.0
  0
ARC
  5
D7DF
  8
0
 10
4671.7621721138839348
 20
234.7331269451998139
 30
0.0
 40
0.0820755568051146
 50
278.4566736798342959
 51
356.1706186007590986
  0
LINE
  5
D7E0
  8
0
 10
4671.844064424836688
 20
234.7276454826505017
 30
0.0
 11
4671.8440739487432438
 21
237.1042140315879863
 31
0.0
  0
ARC
  5
D7E1
  8
0
 10
4664.460513809753138
 20
237.098508153097697
 30
0.0
 40
0.0826573140842531
 50
3.9583061792597301
 51
81.2117058123479865
  0
LINE
  5
D7E2
  8
0
 10
4664.473142519301291
 20
237.1801950386227134
 30
0.0
 11
4657.3254041603004225
 21
237.180193582422703
 31
0.0
  0
ARC
  5
D7E3
  8
0
 10
4657.3380201616100749
 20
237.0985264490005022
 30
0.0
 40
0.0826358528148742
 50
98.7816787481328902
 51
176.036030093163788
  0
LINE
  5
D7E4
  8
0
 10
4657.2555819969811637
 20
237.1042389951055895
 30
0.0
 11
4657.2555724822586853
 21
234.7276736609306056
 31
0.0
  0
ARC
  5
D7E5
  8
0
 10
4657.3380504622618901
 20
234.7333959374037988
 30
0.0
 40
0.0826762458821125
 50
183.9687895936694986
 51
261.2012228403298195
  0
LINE
  5
D7E6
  8
0
 10
4657.3254039114008265
 20
234.6516926548227104
 30
0.0
 11
4664.473142267401272
 21
234.6519437670226864
 31
0.0
  0
ARC
  5
D7E7
  8
0
 10
4664.4610721138833469
 20
234.7331269451998139
 30
0.0
 40
0.0820755568051146
 50
278.4566736798342959
 51
356.1706186007590986
  0
LINE
  5
D7E8
  8
0
 10
4664.5429644248370096
 20
234.7276454826505017
 30
0.0
 11
4664.5429739487426559
 21
237.1042140315879863
 31
0.0
  0
ARC
  5
D7E9
  8
0
 10
4657.1594138097525502
 20
237.098508153097697
 30
0.0
 40
0.0826573140842531
 50
3.9583061792597301
 51
81.2117058123479865
  0
LINE
  5
D7EA
  8
0
 10
4657.1720425193007031
 20
237.1801950386227134
 30
0.0
 11
4650.0243041602998346
 21
237.180193582422703
 31
0.0
  0
ARC
  5
D7EB
  8
0
 10
4650.0369201616103965
 20
237.0985264490005022
 30
0.0
 40
0.0826358528148742
 50
98.7816787481328902
 51
176.036030093163788
  0
LINE
  5
D7EC
  8
0
 10
4649.9544819969805758
 20
237.1042389951055895
 30
0.0
 11
4649.9544724822590069
 21
234.7276736609306056
 31
0.0
  0
ARC
  5
D7ED
  8
0
 10
4650.0369504622603927
 20
234.7333959374037988
 30
0.0
 40
0.0826762458821125
 50
183.9687895936694986
 51
261.2012228403298195
  0
LINE
  5
D7EE
  8
0
 10
4650.0243039114011481
 20
234.6516926548227104
 30
0.0
 11
4657.1720422674015936
 21
234.6519437670226864
 31
0.0
  0
ARC
  5
D7EF
  8
0
 10
4657.159972113882759
 20
234.7331269451998139
 30
0.0
 40
0.0820755568051146
 50
278.4566736798342959
 51
356.1706186007590986
  0
LINE
  5
D7F0
  8
0
 10
4657.2418644248364217
 20
234.7276454826505017
 30
0.0
 11
4657.241873948743887
 21
237.1042140315879863
 31
0.0
  0
ARC
  5
D7F1
  8
0
 10
4653.5088638097531657
 20
234.550458153097594
 30
0.0
 40
0.0826573140842531
 50
3.9583061792597301
 51
81.2117058123479865
  0
LINE
  5
D7F2
  8
0
 10
4653.5214925193022282
 20
234.6321450386228094
 30
0.0
 11
4646.3737541603004502
 21
234.6321435824227137
 31
0.0
  0
ARC
  5
D7F3
  8
0
 10
4646.3863701616101025
 20
234.550476449000513
 30
0.0
 40
0.0826358528148742
 50
98.7816787481328902
 51
176.036030093163788
  0
LINE
  5
D7F4
  8
0
 10
4646.3039319969811913
 20
234.5561889951056003
 30
0.0
 11
4646.303922482258713
 21
232.1796236609305879
 31
0.0
  0
ARC
  5
D7F5
  8
0
 10
4646.3864004622619177
 20
232.1853459374036959
 30
0.0
 40
0.0826762458821125
 50
183.9687895936694986
 51
261.2012228403298195
  0
LINE
  5
D7F6
  8
0
 10
4646.3737539113999446
 20
232.1036426548226927
 30
0.0
 11
4653.5214922674012996
 21
232.1038937670226971
 31
0.0
  0
ARC
  5
D7F7
  8
0
 10
4653.5094221138833745
 20
232.1850769451999099
 30
0.0
 40
0.0820755568051146
 50
278.4566736798342959
 51
356.1706186007590986
  0
LINE
  5
D7F8
  8
0
 10
4653.5913144248361277
 20
232.1795954826503987
 30
0.0
 11
4653.5913239487426836
 21
234.556164031587997
 31
0.0
  0
ARC
  5
D7F9
  8
0
 10
4660.8099638097528441
 20
234.550458153097594
 30
0.0
 40
0.0826573140842531
 50
3.9583061792597301
 51
81.2117058123479865
  0
LINE
  5
D7FA
  8
0
 10
4660.8225925193009971
 20
234.6321450386228094
 30
0.0
 11
4653.6748541603010381
 21
234.6321435824227137
 31
0.0
  0
ARC
  5
D7FB
  8
0
 10
4653.6874701616088714
 20
234.550476449000513
 30
0.0
 40
0.0826358528148742
 50
98.7816787481328902
 51
176.036030093163788
  0
LINE
  5
D7FC
  8
0
 10
4653.6050319969799602
 20
234.5561889951056003
 30
0.0
 11
4653.6050224822593009
 21
232.1796236609305879
 31
0.0
  0
ARC
  5
D7FD
  8
0
 10
4653.6875004622606866
 20
232.1853459374036959
 30
0.0
 40
0.0826762458821125
 50
183.9687895936694986
 51
261.2012228403298195
  0
LINE
  5
D7FE
  8
0
 10
4653.674853911399623
 20
232.1036426548226927
 30
0.0
 11
4660.8225922674000685
 21
232.1038937670226971
 31
0.0
  0
ARC
  5
D7FF
  8
0
 10
4660.8105221138839624
 20
232.1850769451999099
 30
0.0
 40
0.0820755568051146
 50
278.4566736798342959
 51
356.1706186007590986
  0
LINE
  5
D800
  8
0
 10
4660.8924144248367156
 20
232.1795954826503987
 30
0.0
 11
4660.892423948744181
 21
234.556164031587997
 31
0.0
  0
ARC
  5
D801
  8
0
 10
4668.111063809753432
 20
234.550458153097594
 30
0.0
 40
0.0826573140842531
 50
3.9583061792597301
 51
81.2117058123479865
  0
LINE
  5
D802
  8
0
 10
4668.1236925193006755
 20
234.6321450386228094
 30
0.0
 11
4660.975954160299807
 21
234.6321435824227137
 31
0.0
  0
ARC
  5
D803
  8
0
 10
4660.9885701616103688
 20
234.550476449000513
 30
0.0
 40
0.0826358528148742
 50
98.7816787481328902
 51
176.036030093163788
  0
LINE
  5
D804
  8
0
 10
4660.9061319969796386
 20
234.5561889951056003
 30
0.0
 11
4660.9061224822580698
 21
232.1796236609305879
 31
0.0
  0
ARC
  5
D805
  8
0
 10
4660.9886004622612745
 20
232.1853459374036959
 30
0.0
 40
0.0826762458821125
 50
183.9687895936694986
 51
261.2012228403298195
  0
LINE
  5
D806
  8
0
 10
4660.9759539114011204
 20
232.1036426548226927
 30
0.0
 11
4668.1236922674015659
 21
232.1038937670226971
 31
0.0
  0
ARC
  5
D807
  8
0
 10
4668.1116221138827314
 20
232.1850769451999099
 30
0.0
 40
0.0820755568051146
 50
278.4566736798342959
 51
356.1706186007590986
  0
LINE
  5
D808
  8
0
 10
4668.193514424836394
 20
232.1795954826503987
 30
0.0
 11
4668.1935239487429499
 21
234.556164031587997
 31
0.0
  0
ARC
  5
D809
  8
0
 10
4671.7616138097537259
 20
232.0024081530976048
 30
0.0
 40
0.0826573140842531
 50
3.9583061792597301
 51
81.2117058123479865
  0
LINE
  5
D80A
  8
0
 10
4671.7742425193000599
 20
232.0840950386227064
 30
0.0
 11
4664.6265041603010104
 21
232.084093582422696
 31
0.0
  0
ARC
  5
D80B
  8
0
 10
4664.6391201616088438
 20
232.0024264490004953
 30
0.0
 40
0.0826358528148742
 50
98.7816787481328902
 51
176.036030093163788
  0
LINE
  5
D80C
  8
0
 10
4664.5566819969799326
 20
232.0081389951054973
 30
0.0
 11
4664.5566724822592732
 21
229.6315736609305986
 31
0.0
  0
ARC
  5
D80D
  8
0
 10
4664.639150462260659
 20
229.6372959374037066
 30
0.0
 40
0.0826762458821125
 50
183.9687895936694986
 51
261.2012228403298195
  0
LINE
  5
D80E
  8
0
 10
4664.6265039113995954
 20
229.5555926548227035
 30
0.0
 11
4671.7742422674000409
 21
229.5558437670227079
 31
0.0
  0
ARC
  5
D80F
  8
0
 10
4671.7621721138839348
 20
229.6370269451998922
 30
0.0
 40
0.0820755568051146
 50
278.4566736798342959
 51
356.1706186007590986
  0
LINE
  5
D810
  8
0
 10
4671.844064424836688
 20
229.6315454826504094
 30
0.0
 11
4671.8440739487432438
 21
232.0081140315880077
 31
0.0
  0
ARC
  5
D811
  8
0
 10
4664.460513809753138
 20
232.0024081530976048
 30
0.0
 40
0.0826573140842531
 50
3.9583061792597301
 51
81.2117058123479865
  0
LINE
  5
D812
  8
0
 10
4664.473142519301291
 20
232.0840950386227064
 30
0.0
 11
4657.3254041603004225
 21
232.084093582422696
 31
0.0
  0
ARC
  5
D813
  8
0
 10
4657.3380201616100749
 20
232.0024264490004953
 30
0.0
 40
0.0826358528148742
 50
98.7816787481328902
 51
176.036030093163788
  0
LINE
  5
D814
  8
0
 10
4657.2555819969811637
 20
232.0081389951054973
 30
0.0
 11
4657.2555724822586853
 21
229.6315736609305986
 31
0.0
  0
ARC
  5
D815
  8
0
 10
4657.3380504622618901
 20
229.6372959374037066
 30
0.0
 40
0.0826762458821125
 50
183.9687895936694986
 51
261.2012228403298195
  0
LINE
  5
D816
  8
0
 10
4657.3254039114008265
 20
229.5555926548227035
 30
0.0
 11
4664.473142267401272
 21
229.5558437670227079
 31
0.0
  0
ARC
  5
D817
  8
0
 10
4664.4610721138833469
 20
229.6370269451998922
 30
0.0
 40
0.0820755568051146
 50
278.4566736798342959
 51
356.1706186007590986
  0
LINE
  5
D818
  8
0
 10
4664.5429644248370096
 20
229.6315454826504094
 30
0.0
 11
4664.5429739487426559
 21
232.0081140315880077
 31
0.0
  0
ARC
  5
D819
  8
0
 10
4657.1594138097525502
 20
232.0024081530976048
 30
0.0
 40
0.0826573140842531
 50
3.9583061792597301
 51
81.2117058123479865
  0
LINE
  5
D81A
  8
0
 10
4657.1720425193007031
 20
232.0840950386227064
 30
0.0
 11
4650.0243041602998346
 21
232.084093582422696
 31
0.0
  0
ARC
  5
D81B
  8
0
 10
4650.0369201616103965
 20
232.0024264490004953
 30
0.0
 40
0.0826358528148742
 50
98.7816787481328902
 51
176.036030093163788
  0
LINE
  5
D81C
  8
0
 10
4649.9544819969805758
 20
232.0081389951054973
 30
0.0
 11
4649.9544724822590069
 21
229.6315736609305986
 31
0.0
  0
ARC
  5
D81D
  8
0
 10
4650.0369504622603927
 20
229.6372959374037066
 30
0.0
 40
0.0826762458821125
 50
183.9687895936694986
 51
261.2012228403298195
  0
LINE
  5
D81E
  8
0
 10
4650.0243039114011481
 20
229.5555926548227035
 30
0.0
 11
4657.1720422674015936
 21
229.5558437670227079
 31
0.0
  0
ARC
  5
D81F
  8
0
 10
4657.159972113882759
 20
229.6370269451998922
 30
0.0
 40
0.0820755568051146
 50
278.4566736798342959
 51
356.1706186007590986
  0
LINE
  5
D820
  8
0
 10
4657.2418644248364217
 20
229.6315454826504094
 30
0.0
 11
4657.241873948743887
 21
232.0081140315880077
 31
0.0
  0
ARC
  5
D821
  8
0
 10
4668.111063809753432
 20
229.4543581530975871
 30
0.0
 40
0.0826573140842531
 50
3.9583061792597301
 51
81.2117058123479865
  0
LINE
  5
D822
  8
0
 10
4668.1236925193006755
 20
229.5360450386228024
 30
0.0
 11
4660.975954160299807
 21
229.536043582422792
 31
0.0
  0
ARC
  5
D823
  8
0
 10
4660.9885701616103688
 20
229.454376449000506
 30
0.0
 40
0.0826358528148742
 50
98.7816787481328902
 51
176.036030093163788
  0
LINE
  5
D824
  8
0
 10
4660.9061319969796386
 20
229.4600889951055933
 30
0.0
 11
4660.9061224822580698
 21
227.0835236609306094
 31
0.0
  0
ARC
  5
D825
  8
0
 10
4660.9886004622612745
 20
227.0892459374036889
 30
0.0
 40
0.0826762458821125
 50
183.9687895936694986
 51
261.2012228403298195
  0
LINE
  5
D826
  8
0
 10
4660.9759539114011204
 20
227.0075426548227995
 30
0.0
 11
4668.1236922674015659
 21
227.0077937670226902
 31
0.0
  0
ARC
  5
D827
  8
0
 10
4668.1116221138827314
 20
227.088976945199903
 30
0.0
 40
0.0820755568051146
 50
278.4566736798342959
 51
356.1706186007590986
  0
LINE
  5
D828
  8
0
 10
4668.193514424836394
 20
227.0834954826503918
 30
0.0
 11
4668.1935239487429499
 21
229.4600640315879048
 31
0.0
  0
ARC
  5
D829
  8
0
 10
4660.8099638097528441
 20
229.4543581530975871
 30
0.0
 40
0.0826573140842531
 50
3.9583061792597301
 51
81.2117058123479865
  0
LINE
  5
D82A
  8
0
 10
4660.8225925193009971
 20
229.5360450386228024
 30
0.0
 11
4653.6748541603010381
 21
229.536043582422792
 31
0.0
  0
ARC
  5
D82B
  8
0
 10
4653.6874701616088714
 20
229.454376449000506
 30
0.0
 40
0.0826358528148742
 50
98.7816787481328902
 51
176.036030093163788
  0
LINE
  5
D82C
  8
0
 10
4653.6050319969799602
 20
229.4600889951055933
 30
0.0
 11
4653.6050224822593009
 21
227.0835236609306094
 31
0.0
  0
ARC
  5
D82D
  8
0
 10
4653.6875004622606866
 20
227.0892459374036889
 30
0.0
 40
0.0826762458821125
 50
183.9687895936694986
 51
261.2012228403298195
  0
LINE
  5
D82E
  8
0
 10
4653.674853911399623
 20
227.0075426548227995
 30
0.0
 11
4660.8225922674000685
 21
227.0077937670226902
 31
0.0
  0
ARC
  5
D82F
  8
0
 10
4660.8105221138839624
 20
227.088976945199903
 30
0.0
 40
0.0820755568051146
 50
278.4566736798342959
 51
356.1706186007590986
  0
LINE
  5
D830
  8
0
 10
4660.8924144248367156
 20
227.0834954826503918
 30
0.0
 11
4660.892423948744181
 21
229.4600640315879048
 31
0.0
  0
ARC
  5
D831
  8
0
 10
4653.5088638097531657
 20
229.4543581530975871
 30
0.0
 40
0.0826573140842531
 50
3.9583061792597301
 51
81.2117058123479865
  0
LINE
  5
D832
  8
0
 10
4653.5214925193022282
 20
229.5360450386228024
 30
0.0
 11
4646.3737541603004502
 21
229.536043582422792
 31
0.0
  0
ARC
  5
D833
  8
0
 10
4646.3863701616101025
 20
229.454376449000506
 30
0.0
 40
0.0826358528148742
 50
98.7816787481328902
 51
176.036030093163788
  0
LINE
  5
D834
  8
0
 10
4646.3039319969811913
 20
229.4600889951055933
 30
0.0
 11
4646.303922482258713
 21
227.0835236609306094
 31
0.0
  0
ARC
  5
D835
  8
0
 10
4646.3864004622619177
 20
227.0892459374036889
 30
0.0
 40
0.0826762458821125
 50
183.9687895936694986
 51
261.2012228403298195
  0
LINE
  5
D836
  8
0
 10
4646.3737539113999446
 20
227.0075426548227995
 30
0.0
 11
4653.5214922674012996
 21
227.0077937670226902
 31
0.0
  0
ARC
  5
D837
  8
0
 10
4653.5094221138833745
 20
227.088976945199903
 30
0.0
 40
0.0820755568051146
 50
278.4566736798342959
 51
356.1706186007590986
  0
LINE
  5
D838
  8
0
 10
4653.5913144248361277
 20
227.0834954826503918
 30
0.0
 11
4653.5913239487426836
 21
229.4600640315879048
 31
0.0
  0
ARC
  5
D839
  8
0
 10
4671.7616138097537259
 20
226.9063081530975978
 30
0.0
 40
0.0826573140842531
 50
3.9583061792597301
 51
81.2117058123479865
  0
LINE
  5
D83A
  8
0
 10
4671.7742425193000599
 20
226.9879950386226994
 30
0.0
 11
4664.6265041603010104
 21
226.9879935824228028
 31
0.0
  0
ARC
  5
D83B
  8
0
 10
4664.6391201616088438
 20
226.9063264490004883
 30
0.0
 40
0.0826358528148742
 50
98.7816787481328902
 51
176.036030093163788
  0
LINE
  5
D83C
  8
0
 10
4664.5566819969799326
 20
226.9120389951054904
 30
0.0
 11
4664.5566724822592732
 21
224.5354736609307054
 31
0.0
  0
ARC
  5
D83D
  8
0
 10
4664.639150462260659
 20
224.5411959374036996
 30
0.0
 40
0.0826762458821125
 50
183.9687895936694986
 51
261.2012228403298195
  0
LINE
  5
D83E
  8
0
 10
4664.6265039113995954
 20
224.4594926548228102
 30
0.0
 11
4671.7742422674000409
 21
224.4597437670227009
 31
0.0
  0
ARC
  5
D83F
  8
0
 10
4671.7621721138839348
 20
224.5409269451999137
 30
0.0
 40
0.0820755568051146
 50
278.4566736798342959
 51
356.1706186007590986
  0
LINE
  5
D840
  8
0
 10
4671.844064424836688
 20
224.5354454826504025
 30
0.0
 11
4671.8440739487432438
 21
226.9120140315880008
 31
0.0
  0
ARC
  5
D841
  8
0
 10
4664.460513809753138
 20
226.9063081530975978
 30
0.0
 40
0.0826573140842531
 50
3.9583061792597301
 51
81.2117058123479865
  0
LINE
  5
D842
  8
0
 10
4664.473142519301291
 20
226.9879950386226994
 30
0.0
 11
4657.3254041603004225
 21
226.9879935824228028
 31
0.0
  0
ARC
  5
D843
  8
0
 10
4657.3380201616100749
 20
226.9063264490004883
 30
0.0
 40
0.0826358528148742
 50
98.7816787481328902
 51
176.036030093163788
  0
LINE
  5
D844
  8
0
 10
4657.2555819969811637
 20
226.9120389951054904
 30
0.0
 11
4657.2555724822586853
 21
224.5354736609307054
 31
0.0
  0
ARC
  5
D845
  8
0
 10
4657.3380504622618901
 20
224.5411959374036996
 30
0.0
 40
0.0826762458821125
 50
183.9687895936694986
 51
261.2012228403298195
  0
LINE
  5
D846
  8
0
 10
4657.3254039114008265
 20
224.4594926548228102
 30
0.0
 11
4664.473142267401272
 21
224.4597437670227009
 31
0.0
  0
ARC
  5
D847
  8
0
 10
4664.4610721138833469
 20
224.5409269451999137
 30
0.0
 40
0.0820755568051146
 50
278.4566736798342959
 51
356.1706186007590986
  0
LINE
  5
D848
  8
0
 10
4664.5429644248370096
 20
224.5354454826504025
 30
0.0
 11
4664.5429739487426559
 21
226.9120140315880008
 31
0.0
  0
ARC
  5
D849
  8
0
 10
4657.1594138097525502
 20
226.9063081530975978
 30
0.0
 40
0.0826573140842531
 50
3.9583061792597301
 51
81.2117058123479865
  0
LINE
  5
D84A
  8
0
 10
4657.1720425193007031
 20
226.9879950386226994
 30
0.0
 11
4650.0243041602998346
 21
226.9879935824228028
 31
0.0
  0
ARC
  5
D84B
  8
0
 10
4650.0369201616103965
 20
226.9063264490004883
 30
0.0
 40
0.0826358528148742
 50
98.7816787481328902
 51
176.036030093163788
  0
LINE
  5
D84C
  8
0
 10
4649.9544819969805758
 20
226.9120389951054904
 30
0.0
 11
4649.9544724822590069
 21
224.5354736609307054
 31
0.0
  0
ARC
  5
D84D
  8
0
 10
4650.0369504622603927
 20
224.5411959374036996
 30
0.0
 40
0.0826762458821125
 50
183.9687895936694986
 51
261.2012228403298195
  0
LINE
  5
D84E
  8
0
 10
4650.0243039114011481
 20
224.4594926548228102
 30
0.0
 11
4657.1720422674015936
 21
224.4597437670227009
 31
0.0
  0
ARC
  5
D84F
  8
0
 10
4657.159972113882759
 20
224.5409269451999137
 30
0.0
 40
0.0820755568051146
 50
278.4566736798342959
 51
356.1706186007590986
  0
LINE
  5
D850
  8
0
 10
4657.2418644248364217
 20
224.5354454826504025
 30
0.0
 11
4657.241873948743887
 21
226.9120140315880008
 31
0.0
  0
ARC
  5
D851
  8
0
 10
4668.111063809753432
 20
224.3582581530976086
 30
0.0
 40
0.0826573140842531
 50
3.9583061792597301
 51
81.2117058123479865
  0
LINE
  5
D852
  8
0
 10
4668.1236925193006755
 20
224.4399450386227102
 30
0.0
 11
4660.975954160299807
 21
224.4399435824226998
 31
0.0
  0
ARC
  5
D853
  8
0
 10
4660.9885701616103688
 20
224.358276449000499
 30
0.0
 40
0.0826358528148742
 50
98.7816787481328902
 51
176.036030093163788
  0
LINE
  5
D854
  8
0
 10
4660.9061319969796386
 20
224.3639889951055011
 30
0.0
 11
4660.9061224822580698
 21
221.9874236609306877
 31
0.0
  0
ARC
  5
D855
  8
0
 10
4660.9886004622612745
 20
221.9931459374037104
 30
0.0
 40
0.0826762458821125
 50
183.9687895936694986
 51
261.2012228403298195
  0
LINE
  5
D856
  8
0
 10
4660.9759539114011204
 20
221.9114426548227925
 30
0.0
 11
4668.1236922674015659
 21
221.9116937670227117
 31
0.0
  0
ARC
  5
D857
  8
0
 10
4668.1116221138827314
 20
221.9928769451998107
 30
0.0
 40
0.0820755568051146
 50
278.4566736798342959
 51
356.1706186007590986
  0
LINE
  5
D858
  8
0
 10
4668.193514424836394
 20
221.9873954826504132
 30
0.0
 11
4668.1935239487429499
 21
224.3639640315878978
 31
0.0
  0
ARC
  5
D859
  8
0
 10
4660.8099638097528441
 20
224.3582581530976086
 30
0.0
 40
0.0826573140842531
 50
3.9583061792597301
 51
81.2117058123479865
  0
LINE
  5
D85A
  8
0
 10
4660.8225925193009971
 20
224.4399450386227102
 30
0.0
 11
4653.6748541603010381
 21
224.4399435824226998
 31
0.0
  0
ARC
  5
D85B
  8
0
 10
4653.6874701616088714
 20
224.358276449000499
 30
0.0
 40
0.0826358528148742
 50
98.7816787481328902
 51
176.036030093163788
  0
LINE
  5
D85C
  8
0
 10
4653.6050319969799602
 20
224.3639889951055011
 30
0.0
 11
4653.6050224822593009
 21
221.9874236609306877
 31
0.0
  0
ARC
  5
D85D
  8
0
 10
4653.6875004622606866
 20
221.9931459374037104
 30
0.0
 40
0.0826762458821125
 50
183.9687895936694986
 51
261.2012228403298195
  0
LINE
  5
D85E
  8
0
 10
4653.674853911399623
 20
221.9114426548227925
 30
0.0
 11
4660.8225922674000685
 21
221.9116937670227117
 31
0.0
  0
ARC
  5
D85F
  8
0
 10
4660.8105221138839624
 20
221.9928769451998107
 30
0.0
 40
0.0820755568051146
 50
278.4566736798342959
 51
356.1706186007590986
  0
LINE
  5
D860
  8
0
 10
4660.8924144248367156
 20
221.9873954826504132
 30
0.0
 11
4660.892423948744181
 21
224.3639640315878978
 31
0.0
  0
ARC
  5
D861
  8
0
 10
4653.5088638097531657
 20
224.3582581530976086
 30
0.0
 40
0.0826573140842531
 50
3.9583061792597301
 51
81.2117058123479865
  0
LINE
  5
D862
  8
0
 10
4653.5214925193022282
 20
224.4399450386227102
 30
0.0
 11
4646.3737541603004502
 21
224.4399435824226998
 31
0.0
  0
ARC
  5
D863
  8
0
 10
4646.3863701616101025
 20
224.358276449000499
 30
0.0
 40
0.0826358528148742
 50
98.7816787481328902
 51
176.036030093163788
  0
LINE
  5
D864
  8
0
 10
4646.3039319969811913
 20
224.3639889951055011
 30
0.0
 11
4646.303922482258713
 21
221.9874236609306877
 31
0.0
  0
ARC
  5
D865
  8
0
 10
4646.3864004622619177
 20
221.9931459374037104
 30
0.0
 40
0.0826762458821125
 50
183.9687895936694986
 51
261.2012228403298195
  0
LINE
  5
D866
  8
0
 10
4646.3737539113999446
 20
221.9114426548227925
 30
0.0
 11
4653.5214922674012996
 21
221.9116937670227117
 31
0.0
  0
ARC
  5
D867
  8
0
 10
4653.5094221138833745
 20
221.9928769451998107
 30
0.0
 40
0.0820755568051146
 50
278.4566736798342959
 51
356.1706186007590986
  0
LINE
  5
D868
  8
0
 10
4653.5913144248361277
 20
221.9873954826504132
 30
0.0
 11
4653.5913239487426836
 21
224.3639640315878978
 31
0.0
  0
ARC
  5
D869
  8
0
 10
4657.1594138097525502
 20
221.8102081530977046
 30
0.0
 40
0.0826573140842531
 50
3.9583061792597301
 51
81.2117058123479865
  0
LINE
  5
D86A
  8
0
 10
4657.1720425193007031
 20
221.8918950386226925
 30
0.0
 11
4650.0243041602998346
 21
221.8918935824227958
 31
0.0
  0
ARC
  5
D86B
  8
0
 10
4650.0369201616103965
 20
221.810226449000595
 30
0.0
 40
0.0826358528148742
 50
98.7816787481328902
 51
176.036030093163788
  0
LINE
  5
D86C
  8
0
 10
4649.9544819969805758
 20
221.8159389951055118
 30
0.0
 11
4649.9544724822590069
 21
219.4393736609306984
 31
0.0
  0
ARC
  5
D86D
  8
0
 10
4650.0369504622603927
 20
219.4450959374036927
 30
0.0
 40
0.0826762458821125
 50
183.9687895936694986
 51
261.2012228403298195
  0
LINE
  5
D86E
  8
0
 10
4650.0243039114011481
 20
219.3633926548228033
 30
0.0
 11
4657.1720422674015936
 21
219.3636437670226087
 31
0.0
  0
ARC
  5
D86F
  8
0
 10
4657.159972113882759
 20
219.4448269451999067
 30
0.0
 40
0.0820755568051146
 50
278.4566736798342959
 51
356.1706186007590986
  0
LINE
  5
D870
  8
0
 10
4657.2418644248364217
 20
219.4393454826505092
 30
0.0
 11
4657.241873948743887
 21
221.8159140315879085
 31
0.0
  0
ARC
  5
D871
  8
0
 10
4664.460513809753138
 20
221.8102081530977046
 30
0.0
 40
0.0826573140842531
 50
3.9583061792597301
 51
81.2117058123479865
  0
LINE
  5
D872
  8
0
 10
4664.473142519301291
 20
221.8918950386226925
 30
0.0
 11
4657.3254041603004225
 21
221.8918935824227958
 31
0.0
  0
ARC
  5
D873
  8
0
 10
4657.3380201616100749
 20
221.810226449000595
 30
0.0
 40
0.0826358528148742
 50
98.7816787481328902
 51
176.036030093163788
  0
LINE
  5
D874
  8
0
 10
4657.2555819969811637
 20
221.8159389951055118
 30
0.0
 11
4657.2555724822586853
 21
219.4393736609306984
 31
0.0
  0
ARC
  5
D875
  8
0
 10
4657.3380504622618901
 20
219.4450959374036927
 30
0.0
 40
0.0826762458821125
 50
183.9687895936694986
 51
261.2012228403298195
  0
LINE
  5
D876
  8
0
 10
4657.3254039114008265
 20
219.3633926548228033
 30
0.0
 11
4664.473142267401272
 21
219.3636437670226087
 31
0.0
  0
ARC
  5
D877
  8
0
 10
4664.4610721138833469
 20
219.4448269451999067
 30
0.0
 40
0.0820755568051146
 50
278.4566736798342959
 51
356.1706186007590986
  0
LINE
  5
D878
  8
0
 10
4664.5429644248370096
 20
219.4393454826505092
 30
0.0
 11
4664.5429739487426559
 21
221.8159140315879085
 31
0.0
  0
ARC
  5
D879
  8
0
 10
4671.7616138097537259
 20
221.8102081530977046
 30
0.0
 40
0.0826573140842531
 50
3.9583061792597301
 51
81.2117058123479865
  0
LINE
  5
D87A
  8
0
 10
4671.7742425193000599
 20
221.8918950386226925
 30
0.0
 11
4664.6265041603010104
 21
221.8918935824227958
 31
0.0
  0
ARC
  5
D87B
  8
0
 10
4664.6391201616088438
 20
221.810226449000595
 30
0.0
 40
0.0826358528148742
 50
98.7816787481328902
 51
176.036030093163788
  0
LINE
  5
D87C
  8
0
 10
4664.5566819969799326
 20
221.8159389951055118
 30
0.0
 11
4664.5566724822592732
 21
219.4393736609306984
 31
0.0
  0
ARC
  5
D87D
  8
0
 10
4664.639150462260659
 20
219.4450959374036927
 30
0.0
 40
0.0826762458821125
 50
183.9687895936694986
 51
261.2012228403298195
  0
LINE
  5
D87E
  8
0
 10
4664.6265039113995954
 20
219.3633926548228033
 30
0.0
 11
4671.7742422674000409
 21
219.3636437670226087
 31
0.0
  0
ARC
  5
D87F
  8
0
 10
4671.7621721138839348
 20
219.4448269451999067
 30
0.0
 40
0.0820755568051146
 50
278.4566736798342959
 51
356.1706186007590986
  0
LINE
  5
D880
  8
0
 10
4671.844064424836688
 20
219.4393454826505092
 30
0.0
 11
4671.8440739487432438
 21
221.8159140315879085
 31
0.0
  0
ARC
  5
D881
  8
0
 10
4668.111063809753432
 20
219.2621581530976869
 30
0.0
 40
0.0826573140842531
 50
3.9583061792597301
 51
81.2117058123479865
  0
LINE
  5
D882
  8
0
 10
4668.1236925193006755
 20
219.3438450386227032
 30
0.0
 11
4660.975954160299807
 21
219.3438435824226929
 31
0.0
  0
ARC
  5
D883
  8
0
 10
4660.9885701616103688
 20
219.2621764490006058
 30
0.0
 40
0.0826358528148742
 50
98.7816787481328902
 51
176.036030093163788
  0
LINE
  5
D884
  8
0
 10
4660.9061319969796386
 20
219.2678889951054941
 30
0.0
 11
4660.9061224822580698
 21
216.8913236609307091
 31
0.0
  0
ARC
  5
D885
  8
0
 10
4660.9886004622612745
 20
216.8970459374037887
 30
0.0
 40
0.0826762458821125
 50
183.9687895936694986
 51
261.2012228403298195
  0
LINE
  5
D886
  8
0
 10
4660.9759539114011204
 20
216.815342654822814
 30
0.0
 11
4668.1236922674015659
 21
216.81559376702279
 31
0.0
  0
ARC
  5
D887
  8
0
 10
4668.1116221138827314
 20
216.8967769451998038
 30
0.0
 40
0.0820755568051146
 50
278.4566736798342959
 51
356.1706186007590986
  0
LINE
  5
D888
  8
0
 10
4668.193514424836394
 20
216.8912954826504915
 30
0.0
 11
4668.1935239487429499
 21
219.2678640315878908
 31
0.0
  0
ARC
  5
D889
  8
0
 10
4660.8099638097528441
 20
219.2621581530976869
 30
0.0
 40
0.0826573140842531
 50
3.9583061792597301
 51
81.2117058123479865
  0
LINE
  5
D88A
  8
0
 10
4660.8225925193009971
 20
219.3438450386227032
 30
0.0
 11
4653.6748541603010381
 21
219.3438435824226929
 31
0.0
  0
ARC
  5
D88B
  8
0
 10
4653.6874701616088714
 20
219.2621764490006058
 30
0.0
 40
0.0826358528148742
 50
98.7816787481328902
 51
176.036030093163788
  0
LINE
  5
D88C
  8
0
 10
4653.6050319969799602
 20
219.2678889951054941
 30
0.0
 11
4653.6050224822593009
 21
216.8913236609307091
 31
0.0
  0
ARC
  5
D88D
  8
0
 10
4653.6875004622606866
 20
216.8970459374037887
 30
0.0
 40
0.0826762458821125
 50
183.9687895936694986
 51
261.2012228403298195
  0
LINE
  5
D88E
  8
0
 10
4653.674853911399623
 20
216.815342654822814
 30
0.0
 11
4660.8225922674000685
 21
216.81559376702279
 31
0.0
  0
ARC
  5
D88F
  8
0
 10
4660.8105221138839624
 20
216.8967769451998038
 30
0.0
 40
0.0820755568051146
 50
278.4566736798342959
 51
356.1706186007590986
  0
LINE
  5
D890
  8
0
 10
4660.8924144248367156
 20
216.8912954826504915
 30
0.0
 11
4660.892423948744181
 21
219.2678640315878908
 31
0.0
  0
ARC
  5
D891
  8
0
 10
4653.5088638097531657
 20
219.2621581530976869
 30
0.0
 40
0.0826573140842531
 50
3.9583061792597301
 51
81.2117058123479865
  0
LINE
  5
D892
  8
0
 10
4653.5214925193022282
 20
219.3438450386227032
 30
0.0
 11
4646.3737541603004502
 21
219.3438435824226929
 31
0.0
  0
ARC
  5
D893
  8
0
 10
4646.3863701616101025
 20
219.2621764490006058
 30
0.0
 40
0.0826358528148742
 50
98.7816787481328902
 51
176.036030093163788
  0
LINE
  5
D894
  8
0
 10
4646.3039319969811913
 20
219.2678889951054941
 30
0.0
 11
4646.303922482258713
 21
216.8913236609307091
 31
0.0
  0
ARC
  5
D895
  8
0
 10
4646.3864004622619177
 20
216.8970459374037887
 30
0.0
 40
0.0826762458821125
 50
183.9687895936694986
 51
261.2012228403298195
  0
LINE
  5
D896
  8
0
 10
4646.3737539113999446
 20
216.815342654822814
 30
0.0
 11
4653.5214922674012996
 21
216.81559376702279
 31
0.0
  0
ARC
  5
D897
  8
0
 10
4653.5094221138833745
 20
216.8967769451998038
 30
0.0
 40
0.0820755568051146
 50
278.4566736798342959
 51
356.1706186007590986
  0
LINE
  5
D898
  8
0
 10
4653.5913144248361277
 20
216.8912954826504915
 30
0.0
 11
4653.5913239487426836
 21
219.2678640315878908
 31
0.0
  0
ARC
  5
D899
  8
0
 10
4657.1594138097525502
 20
216.7141081530976976
 30
0.0
 40
0.0826573140842531
 50
3.9583061792597301
 51
81.2117058123479865
  0
LINE
  5
D89A
  8
0
 10
4657.1720425193007031
 20
216.7957950386227139
 30
0.0
 11
4650.0243041602998346
 21
216.7957935824227036
 31
0.0
  0
ARC
  5
D89B
  8
0
 10
4650.0369201616103965
 20
216.7141264490005028
 30
0.0
 40
0.0826358528148742
 50
98.7816787481328902
 51
176.036030093163788
  0
LINE
  5
D89C
  8
0
 10
4649.9544819969805758
 20
216.7198389951055901
 30
0.0
 11
4649.9544724822590069
 21
214.3432736609306062
 31
0.0
  0
ARC
  5
D89D
  8
0
 10
4650.0369504622603927
 20
214.3489959374037994
 30
0.0
 40
0.0826762458821125
 50
183.9687895936694986
 51
261.2012228403298195
  0
LINE
  5
D89E
  8
0
 10
4650.0243039114011481
 20
214.267292654822711
 30
0.0
 11
4657.1720422674015936
 21
214.267543767022687
 31
0.0
  0
ARC
  5
D89F
  8
0
 10
4657.159972113882759
 20
214.3487269451997861
 30
0.0
 40
0.0820755568051146
 50
278.4566736798342959
 51
356.1706186007590986
  0
LINE
  5
D8A0
  8
0
 10
4657.2418644248364217
 20
214.3432454826505023
 30
0.0
 11
4657.241873948743887
 21
216.7198140315879868
 31
0.0
  0
ARC
  5
D8A1
  8
0
 10
4664.460513809753138
 20
216.7141081530976976
 30
0.0
 40
0.0826573140842531
 50
3.9583061792597301
 51
81.2117058123479865
  0
LINE
  5
D8A2
  8
0
 10
4664.473142519301291
 20
216.7957950386227139
 30
0.0
 11
4657.3254041603004225
 21
216.7957935824227036
 31
0.0
  0
ARC
  5
D8A3
  8
0
 10
4657.3380201616100749
 20
216.7141264490005028
 30
0.0
 40
0.0826358528148742
 50
98.7816787481328902
 51
176.036030093163788
  0
LINE
  5
D8A4
  8
0
 10
4657.2555819969811637
 20
216.7198389951055901
 30
0.0
 11
4657.2555724822586853
 21
214.3432736609306062
 31
0.0
  0
ARC
  5
D8A5
  8
0
 10
4657.3380504622618901
 20
214.3489959374037994
 30
0.0
 40
0.0826762458821125
 50
183.9687895936694986
 51
261.2012228403298195
  0
LINE
  5
D8A6
  8
0
 10
4657.3254039114008265
 20
214.267292654822711
 30
0.0
 11
4664.473142267401272
 21
214.267543767022687
 31
0.0
  0
ARC
  5
D8A7
  8
0
 10
4664.4610721138833469
 20
214.3487269451997861
 30
0.0
 40
0.0820755568051146
 50
278.4566736798342959
 51
356.1706186007590986
  0
LINE
  5
D8A8
  8
0
 10
4664.5429644248370096
 20
214.3432454826505023
 30
0.0
 11
4664.5429739487426559
 21
216.7198140315879868
 31
0.0
  0
ARC
  5
D8A9
  8
0
 10
4671.7616138097537259
 20
216.7141081530976976
 30
0.0
 40
0.0826573140842531
 50
3.9583061792597301
 51
81.2117058123479865
  0
LINE
  5
D8AA
  8
0
 10
4671.7742425193000599
 20
216.7957950386227139
 30
0.0
 11
4664.6265041603010104
 21
216.7957935824227036
 31
0.0
  0
ARC
  5
D8AB
  8
0
 10
4664.6391201616088438
 20
216.7141264490005028
 30
0.0
 40
0.0826358528148742
 50
98.7816787481328902
 51
176.036030093163788
  0
LINE
  5
D8AC
  8
0
 10
4664.5566819969799326
 20
216.7198389951055901
 30
0.0
 11
4664.5566724822592732
 21
214.3432736609306062
 31
0.0
  0
ARC
  5
D8AD
  8
0
 10
4664.639150462260659
 20
214.3489959374037994
 30
0.0
 40
0.0826762458821125
 50
183.9687895936694986
 51
261.2012228403298195
  0
LINE
  5
D8AE
  8
0
 10
4664.6265039113995954
 20
214.267292654822711
 30
0.0
 11
4671.7742422674000409
 21
214.267543767022687
 31
0.0
  0
ARC
  5
D8AF
  8
0
 10
4671.7621721138839348
 20
214.3487269451997861
 30
0.0
 40
0.0820755568051146
 50
278.4566736798342959
 51
356.1706186007590986
  0
LINE
  5
D8B0
  8
0
 10
4671.844064424836688
 20
214.3432454826505023
 30
0.0
 11
4671.8440739487432438
 21
216.7198140315879868
 31
0.0
  0
ARC
  5
D8B1
  8
0
 10
4668.111063809753432
 20
214.1660581530977083
 30
0.0
 40
0.0826573140842531
 50
3.9583061792597301
 51
81.2117058123479865
  0
LINE
  5
D8B2
  8
0
 10
4668.1236925193006755
 20
214.2477450386226963
 30
0.0
 11
4660.975954160299807
 21
214.2477435824226859
 31
0.0
  0
ARC
  5
D8B3
  8
0
 10
4660.9885701616103688
 20
214.1660764490005988
 30
0.0
 40
0.0826358528148742
 50
98.7816787481328902
 51
176.036030093163788
  0
LINE
  5
D8B4
  8
0
 10
4660.9061319969796386
 20
214.1717889951056009
 30
0.0
 11
4660.9061224822580698
 21
211.7952236609307022
 31
0.0
  0
ARC
  5
D8B5
  8
0
 10
4660.9886004622612745
 20
211.8009459374038101
 30
0.0
 40
0.0826762458821125
 50
183.9687895936694986
 51
261.2012228403298195
  0
LINE
  5
D8B6
  8
0
 10
4660.9759539114011204
 20
211.719242654822807
 30
0.0
 11
4668.1236922674015659
 21
211.7194937670226977
 31
0.0
  0
ARC
  5
D8B7
  8
0
 10
4668.1116221138827314
 20
211.8006769451997968
 30
0.0
 40
0.0820755568051146
 50
278.4566736798342959
 51
356.1706186007590986
  0
LINE
  5
D8B8
  8
0
 10
4668.193514424836394
 20
211.795195482650513
 30
0.0
 11
4668.1935239487429499
 21
214.1717640315879976
 31
0.0
  0
ARC
  5
D8B9
  8
0
 10
4660.8099638097528441
 20
214.1660581530977083
 30
0.0
 40
0.0826573140842531
 50
3.9583061792597301
 51
81.2117058123479865
  0
LINE
  5
D8BA
  8
0
 10
4660.8225925193009971
 20
214.2477450386226963
 30
0.0
 11
4653.6748541603010381
 21
214.2477435824226859
 31
0.0
  0
ARC
  5
D8BB
  8
0
 10
4653.6874701616088714
 20
214.1660764490005988
 30
0.0
 40
0.0826358528148742
 50
98.7816787481328902
 51
176.036030093163788
  0
LINE
  5
D8BC
  8
0
 10
4653.6050319969799602
 20
214.1717889951056009
 30
0.0
 11
4653.6050224822593009
 21
211.7952236609307022
 31
0.0
  0
ARC
  5
D8BD
  8
0
 10
4653.6875004622606866
 20
211.8009459374038101
 30
0.0
 40
0.0826762458821125
 50
183.9687895936694986
 51
261.2012228403298195
  0
LINE
  5
D8BE
  8
0
 10
4653.674853911399623
 20
211.719242654822807
 30
0.0
 11
4660.8225922674000685
 21
211.7194937670226977
 31
0.0
  0
ARC
  5
D8BF
  8
0
 10
4660.8105221138839624
 20
211.8006769451997968
 30
0.0
 40
0.0820755568051146
 50
278.4566736798342959
 51
356.1706186007590986
  0
LINE
  5
D8C0
  8
0
 10
4660.8924144248367156
 20
211.795195482650513
 30
0.0
 11
4660.892423948744181
 21
214.1717640315879976
 31
0.0
  0
ARC
  5
D8C1
  8
0
 10
4653.5088638097531657
 20
214.1660581530977083
 30
0.0
 40
0.0826573140842531
 50
3.9583061792597301
 51
81.2117058123479865
  0
LINE
  5
D8C2
  8
0
 10
4653.5214925193022282
 20
214.2477450386226963
 30
0.0
 11
4646.3737541603004502
 21
214.2477435824226859
 31
0.0
  0
ARC
  5
D8C3
  8
0
 10
4646.3863701616101025
 20
214.1660764490005988
 30
0.0
 40
0.0826358528148742
 50
98.7816787481328902
 51
176.036030093163788
  0
LINE
  5
D8C4
  8
0
 10
4646.3039319969811913
 20
214.1717889951056009
 30
0.0
 11
4646.303922482258713
 21
211.7952236609307022
 31
0.0
  0
ARC
  5
D8C5
  8
0
 10
4646.3864004622619177
 20
211.8009459374038101
 30
0.0
 40
0.0826762458821125
 50
183.9687895936694986
 51
261.2012228403298195
  0
LINE
  5
D8C6
  8
0
 10
4646.3737539113999446
 20
211.719242654822807
 30
0.0
 11
4653.5214922674012996
 21
211.7194937670226977
 31
0.0
  0
ARC
  5
D8C7
  8
0
 10
4653.5094221138833745
 20
211.8006769451997968
 30
0.0
 40
0.0820755568051146
 50
278.4566736798342959
 51
356.1706186007590986
  0
LINE
  5
D8C8
  8
0
 10
4653.5913144248361277
 20
211.795195482650513
 30
0.0
 11
4653.5913239487426836
 21
214.1717640315879976
 31
0.0
  0
ARC
  5
D8C9
  8
0
 10
4657.1594138097525502
 20
211.6180081530976054
 30
0.0
 40
0.0826573140842531
 50
3.9583061792597301
 51
81.2117058123479865
  0
LINE
  5
D8CA
  8
0
 10
4657.1720425193007031
 20
211.6996950386227923
 30
0.0
 11
4650.0243041602998346
 21
211.6996935824226966
 31
0.0
  0
ARC
  5
D8CB
  8
0
 10
4650.0369201616103965
 20
211.6180264490004959
 30
0.0
 40
0.0826358528148742
 50
98.7816787481328902
 51
176.036030093163788
  0
LINE
  5
D8CC
  8
0
 10
4649.9544819969805758
 20
211.6237389951056116
 30
0.0
 11
4649.9544724822590069
 21
209.2471736609305992
 31
0.0
  0
ARC
  5
D8CD
  8
0
 10
4650.0369504622603927
 20
209.2528959374037072
 30
0.0
 40
0.0826762458821125
 50
183.9687895936694986
 51
261.2012228403298195
  0
LINE
  5
D8CE
  8
0
 10
4650.0243039114011481
 20
209.1711926548227041
 30
0.0
 11
4657.1720422674015936
 21
209.1714437670227085
 31
0.0
  0
ARC
  5
D8CF
  8
0
 10
4657.159972113882759
 20
209.2526269451998928
 30
0.0
 40
0.0820755568051146
 50
278.4566736798342959
 51
356.1706186007590986
  0
LINE
  5
D8D0
  8
0
 10
4657.2418644248364217
 20
209.24714548265041
 30
0.0
 11
4657.241873948743887
 21
211.6237140315880083
 31
0.0
  0
ARC
  5
D8D1
  8
0
 10
4664.460513809753138
 20
211.6180081530976054
 30
0.0
 40
0.0826573140842531
 50
3.9583061792597301
 51
81.2117058123479865
  0
LINE
  5
D8D2
  8
0
 10
4664.473142519301291
 20
211.6996950386227923
 30
0.0
 11
4657.3254041603004225
 21
211.6996935824226966
 31
0.0
  0
ARC
  5
D8D3
  8
0
 10
4657.3380201616100749
 20
211.6180264490004959
 30
0.0
 40
0.0826358528148742
 50
98.7816787481328902
 51
176.036030093163788
  0
LINE
  5
D8D4
  8
0
 10
4657.2555819969811637
 20
211.6237389951056116
 30
0.0
 11
4657.2555724822586853
 21
209.2471736609305992
 31
0.0
  0
ARC
  5
D8D5
  8
0
 10
4657.3380504622618901
 20
209.2528959374037072
 30
0.0
 40
0.0826762458821125
 50
183.9687895936694986
 51
261.2012228403298195
  0
LINE
  5
D8D6
  8
0
 10
4657.3254039114008265
 20
209.1711926548227041
 30
0.0
 11
4664.473142267401272
 21
209.1714437670227085
 31
0.0
  0
ARC
  5
D8D7
  8
0
 10
4664.4610721138833469
 20
209.2526269451998928
 30
0.0
 40
0.0820755568051146
 50
278.4566736798342959
 51
356.1706186007590986
  0
LINE
  5
D8D8
  8
0
 10
4664.5429644248370096
 20
209.24714548265041
 30
0.0
 11
4664.5429739487426559
 21
211.6237140315880083
 31
0.0
  0
ARC
  5
D8D9
  8
0
 10
4671.7616138097537259
 20
211.6180081530976054
 30
0.0
 40
0.0826573140842531
 50
3.9583061792597301
 51
81.2117058123479865
  0
LINE
  5
D8DA
  8
0
 10
4671.7742425193000599
 20
211.6996950386227923
 30
0.0
 11
4664.6265041603010104
 21
211.6996935824226966
 31
0.0
  0
ARC
  5
D8DB
  8
0
 10
4664.6391201616088438
 20
211.6180264490004959
 30
0.0
 40
0.0826358528148742
 50
98.7816787481328902
 51
176.036030093163788
  0
LINE
  5
D8DC
  8
0
 10
4664.5566819969799326
 20
211.6237389951056116
 30
0.0
 11
4664.5566724822592732
 21
209.2471736609305992
 31
0.0
  0
ARC
  5
D8DD
  8
0
 10
4664.639150462260659
 20
209.2528959374037072
 30
0.0
 40
0.0826762458821125
 50
183.9687895936694986
 51
261.2012228403298195
  0
LINE
  5
D8DE
  8
0
 10
4664.6265039113995954
 20
209.1711926548227041
 30
0.0
 11
4671.7742422674000409
 21
209.1714437670227085
 31
0.0
  0
ARC
  5
D8DF
  8
0
 10
4671.7621721138839348
 20
209.2526269451998928
 30
0.0
 40
0.0820755568051146
 50
278.4566736798342959
 51
356.1706186007590986
  0
LINE
  5
D8E0
  8
0
 10
4671.844064424836688
 20
209.24714548265041
 30
0.0
 11
4671.8440739487432438
 21
211.6237140315880083
 31
0.0
  0
ARC
  5
D8E1
  8
0
 10
4649.8585056784149856
 20
232.002584496312096
 30
0.0
 40
0.0824538872278029
 50
3.845279495477858
 51
81.324744983725779
  0
LINE
  5
D8E2
  8
0
 10
4649.8709425193010247
 20
232.0840950386227064
 30
0.0
 11
4643.1728882472798432
 21
232.0838433618770864
 31
0.0
  0
LINE
  5
D8E3
  8
0
 10
4643.1728882270163012
 20
229.5558437758448918
 30
0.0
 11
4649.8709422674000962
 21
229.5558437670227931
 31
0.0
  0
ARC
  5
D8E4
  8
0
 10
4649.8592981770116239
 20
229.6366339730305128
 30
0.0
 40
0.0816250098177938
 50
278.2014199949196041
 51
356.4258718554817165
  0
LINE
  5
D8E5
  8
0
 10
4649.9407644245266056
 20
229.6315454817450927
 30
0.0
 11
4649.9407739439702709
 21
232.0081140534007034
 31
0.0
  0
ARC
  5
D8E6
  8
0
 10
4641.7229722697347825
 20
229.9235281439767959
 30
0.0
 40
1.48214524480013
 50
348.9203875080023067
 51
359.3163938465949059
  0
LINE
  5
D8E7
  8
0
 10
4643.2050120218646043
 20
229.9058448245490069
 30
0.0
 11
4643.2050015045679174
 21
231.7338355165227881
 31
0.0
  0
ARC
  5
D8E8
  8
0
 10
4641.6946551391738467
 20
231.713300099974191
 30
0.0
 40
1.5104859637853101
 50
0.7789737707169913
 51
10.9736382729854096
  0
LINE
  5
D8E9
  8
0
 10
4643.1728575940005612
 20
232.0256371705227991
 30
0.0
 11
4643.1775216715923307
 21
232.0008321744032003
 31
0.0
  0
LINE
  5
D8EA
  8
0
 10
4643.1728575940005612
 20
229.6141698268228026
 30
0.0
 11
4643.1774919676008722
 21
229.6387001692224885
 31
0.0
  0
ARC
  5
D8EB
  8
0
 10
4649.8585056784149856
 20
237.098684496312103
 30
0.0
 40
0.0824538872278029
 50
3.845279495477858
 51
81.324744983725779
  0
LINE
  5
D8EC
  8
0
 10
4649.8709425193010247
 20
237.1801950386227134
 30
0.0
 11
4643.8938493823889075
 21
237.1687757092707045
 31
0.0
  0
LINE
  5
D8ED
  8
0
 10
4643.1728882270190297
 20
234.6519437758448987
 30
0.0
 11
4649.8709422674000962
 21
234.6519437670228001
 31
0.0
  0
ARC
  5
D8EE
  8
0
 10
4649.8592981770116239
 20
234.7327339730304914
 30
0.0
 40
0.0816250098177938
 50
278.2014199949196041
 51
356.4258718554817165
  0
LINE
  5
D8EF
  8
0
 10
4649.9407644245266056
 20
234.7276454817450997
 30
0.0
 11
4649.9407739439702709
 21
237.1042140534007956
 31
0.0
  0
ARC
  5
D8F0
  8
0
 10
4641.7229722697347825
 20
235.0196281439768029
 30
0.0
 40
1.48214524480013
 50
348.9203875080023067
 51
359.3163938465949059
  0
LINE
  5
D8F1
  8
0
 10
4643.2050120218646043
 20
235.0019448245490992
 30
0.0
 11
4643.2050015045679174
 21
236.8299355165227098
 31
0.0
  0
ARC
  5
D8F2
  8
0
 10
4641.6946551391711182
 20
236.8094000999741979
 30
0.0
 40
1.510485963787308
 50
0.7789737707235044
 51
10.9067373699272903
  0
LINE
  5
D8F3
  8
0
 10
4643.1728575940005612
 20
237.1217371705226924
 30
0.0
 11
4643.1778563949028467
 21
237.0952005229815995
 31
0.0
  0
LINE
  5
D8F4
  8
0
 10
4643.1728575940005612
 20
234.7102698268226959
 30
0.0
 11
4643.1774919676008722
 21
234.7348001692224955
 31
0.0
  0
ARC
  5
D8F5
  8
0
 10
4649.8585056784149856
 20
226.9064844963122027
 30
0.0
 40
0.0824538872278029
 50
3.845279495477858
 51
81.324744983725779
  0
LINE
  5
D8F6
  8
0
 10
4649.8709425193010247
 20
226.9879950386226994
 30
0.0
 11
4643.1728882472771147
 21
226.9877433618771079
 31
0.0
  0
LINE
  5
D8F7
  8
0
 10
4643.1728882270217582
 20
224.4597437758449132
 30
0.0
 11
4649.8709422674000962
 21
224.4597437670227009
 31
0.0
  0
ARC
  5
D8F8
  8
0
 10
4649.8592981770116239
 20
224.5405339730305059
 30
0.0
 40
0.0816250098177938
 50
278.2014199949196041
 51
356.4258718554817165
  0
LINE
  5
D8F9
  8
0
 10
4649.9407644245266056
 20
224.5354454817450005
 30
0.0
 11
4649.9407739439702709
 21
226.9120140534006964
 31
0.0
  0
ARC
  5
D8FA
  8
0
 10
4641.7229722697347825
 20
224.8274281439769027
 30
0.0
 40
1.48214524480013
 50
348.9203875080023067
 51
359.3163938465949059
  0
LINE
  5
D8FB
  8
0
 10
4643.2050120218646043
 20
224.8097448245491137
 30
0.0
 11
4643.2050015045679174
 21
226.6377355165228096
 31
0.0
  0
ARC
  5
D8FC
  8
0
 10
4641.6946551391738467
 20
226.6172000999742124
 30
0.0
 40
1.5104859637853101
 50
0.7789737707169913
 51
10.9736382729854096
  0
LINE
  5
D8FD
  8
0
 10
4643.1728575940005612
 20
226.9295371705227069
 30
0.0
 11
4643.1775216715923307
 21
226.9047321744031933
 31
0.0
  0
LINE
  5
D8FE
  8
0
 10
4643.1728575940005612
 20
224.5180698268227957
 30
0.0
 11
4643.1774919676008722
 21
224.5426001692225952
 31
0.0
  0
ARC
  5
D8FF
  8
0
 10
4649.8585056784149856
 20
221.8103844963121958
 30
0.0
 40
0.0824538872278029
 50
3.845279495477858
 51
81.324744983725779
  0
LINE
  5
D900
  8
0
 10
4649.8709425193010247
 20
221.8918950386226925
 30
0.0
 11
4643.1728882472771147
 21
221.8916433618769872
 31
0.0
  0
LINE
  5
D901
  8
0
 10
4643.1728882270126633
 20
219.3636437758447926
 30
0.0
 11
4649.8709422674000962
 21
219.3636437670228077
 31
0.0
  0
ARC
  5
D902
  8
0
 10
4649.8592981770116239
 20
219.4444339730304989
 30
0.0
 40
0.0816250098177938
 50
278.2014199949196041
 51
356.4258718554817165
  0
LINE
  5
D903
  8
0
 10
4649.9407644245266056
 20
219.4393454817451072
 30
0.0
 11
4649.9407739439702709
 21
221.8159140534006895
 31
0.0
  0
ARC
  5
D904
  8
0
 10
4641.7229722697347825
 20
219.7313281439768957
 30
0.0
 40
1.48214524480013
 50
348.9203875080023067
 51
359.3163938465949059
  0
LINE
  5
D905
  8
0
 10
4643.2050120218646043
 20
219.7136448245491067
 30
0.0
 11
4643.2050015045679174
 21
221.5416355165226889
 31
0.0
  0
ARC
  5
D906
  8
0
 10
4641.6946551391738467
 20
221.5211000999742055
 30
0.0
 40
1.5104859637853101
 50
0.7789737707169913
 51
10.9736382729854096
  0
LINE
  5
D907
  8
0
 10
4643.1728575940005612
 20
221.8334371705228136
 30
0.0
 11
4643.1775216715923307
 21
221.8086321744031864
 31
0.0
  0
LINE
  5
D908
  8
0
 10
4643.1728575940005612
 20
219.4219698268227887
 30
0.0
 11
4643.1774919676008722
 21
219.4465001692225883
 31
0.0
  0
ARC
  5
D909
  8
0
 10
4649.8585056784149856
 20
216.7142844963121036
 30
0.0
 40
0.0824538872278029
 50
3.845279495477858
 51
81.324744983725779
  0
LINE
  5
D90A
  8
0
 10
4649.8709425193010247
 20
216.7957950386227139
 30
0.0
 11
4643.1728882472589248
 21
216.7955433618770087
 31
0.0
  0
LINE
  5
D90B
  8
0
 10
4643.1728882270881513
 20
214.267543775844814
 30
0.0
 11
4649.8709422674000962
 21
214.2675437670228007
 31
0.0
  0
ARC
  5
D90C
  8
0
 10
4649.8592981770116239
 20
214.348333973030492
 30
0.0
 40
0.0816250098177938
 50
278.2014199949196041
 51
356.4258718554817165
  0
LINE
  5
D90D
  8
0
 10
4649.9407644245266056
 20
214.3432454817451003
 30
0.0
 11
4649.9407739439702709
 21
216.7198140534007109
 31
0.0
  0
ARC
  5
D90E
  8
0
 10
4641.7229722697347825
 20
214.6352281439768035
 30
0.0
 40
1.48214524480013
 50
348.9203875080023067
 51
359.3163938465949059
  0
LINE
  5
D90F
  8
0
 10
4643.2050120218646043
 20
214.6175448245490998
 30
0.0
 11
4643.2050015045679174
 21
216.4455355165227104
 31
0.0
  0
ARC
  5
D910
  8
0
 10
4641.6946551391738467
 20
216.4250000999741985
 30
0.0
 40
1.5104859637853101
 50
0.7789737707169913
 51
10.9736382729854096
  0
LINE
  5
D911
  8
0
 10
4643.1728575940005612
 20
216.737337170522693
 30
0.0
 11
4643.1775216715923307
 21
216.7125321744032931
 31
0.0
  0
LINE
  5
D912
  8
0
 10
4643.1728575940005612
 20
214.3258698268226965
 30
0.0
 11
4643.1774919676008722
 21
214.3504001692226097
 31
0.0
  0
ARC
  5
D913
  8
0
 10
4649.8585056784149856
 20
211.6181844963120966
 30
0.0
 40
0.0824538872278029
 50
3.845279495477858
 51
81.324744983725779
  0
LINE
  5
D914
  8
0
 10
4649.8709425193010247
 20
211.6996950386227923
 30
0.0
 11
4643.1728882473507838
 21
211.699443361877087
 31
0.0
  0
LINE
  5
D915
  8
0
 10
4643.1628466094007308
 20
209.1714437758581084
 30
0.0
 11
4649.8709422674000962
 21
209.1714437670227085
 31
0.0
  0
ARC
  5
D916
  8
0
 10
4649.8592981770116239
 20
209.2522339730305134
 30
0.0
 40
0.0816250098177938
 50
278.2014199949196041
 51
356.4258718554817165
  0
LINE
  5
D917
  8
0
 10
4649.9407644245266056
 20
209.2471454817450933
 30
0.0
 11
4649.9407739439702709
 21
211.623714053400704
 31
0.0
  0
ARC
  5
D918
  8
0
 10
4641.7229722697347825
 20
209.5391281439767965
 30
0.0
 40
1.48214524480013
 50
348.9203875080023067
 51
359.3163938465949059
  0
LINE
  5
D919
  8
0
 10
4643.2050120218646043
 20
209.5214448245490075
 30
0.0
 11
4643.2050015045679174
 21
211.3494355165227034
 31
0.0
  0
ARC
  5
D91A
  8
0
 10
4641.6946551391738467
 20
211.3289000999743052
 30
0.0
 40
1.5104859637853101
 50
0.7789737707169913
 51
10.9736382729854096
  0
LINE
  5
D91B
  8
0
 10
4643.1728575940005612
 20
211.641237170522686
 30
0.0
 11
4643.1775216715923307
 21
211.6164321744032861
 31
0.0
  0
LINE
  5
D91C
  8
0
 10
4643.1628466094007308
 20
209.1741326453227998
 30
0.0
 11
4643.1774919676008722
 21
209.2543001692226028
 31
0.0
  0
ARC
  5
D91D
  8
0
 10
4641.6682658214758703
 20
234.2503099816347003
 30
0.0
 40
1.552264963746703
 50
1.1658750917399781
 51
14.2305303175402802
  0
LINE
  5
D91E
  8
0
 10
4643.220209434221033
 20
234.2818938467227099
 30
0.0
 11
4643.2202094342956116
 21
232.4538938467372873
 31
0.0
  0
ARC
  5
D91F
  8
0
 10
4641.6682629544138763
 20
232.4854778881951063
 30
0.0
 40
1.5522678338785421
 50
345.7694898360044817
 51
358.8341205529117133
  0
ARC
  5
D920
  8
0
 10
4646.2142081497258914
 20
234.5571498990647115
 30
0.0
 40
0.0755817696212508
 50
355.7014757931273721
 51
89.1652228172156214
  0
LINE
  5
D921
  8
0
 10
4646.2153093077004087
 20
234.6327236468227113
 30
0.0
 11
4643.1728987572987535
 21
234.6318938467422015
 31
0.0
  0
LINE
  5
D922
  8
0
 10
4643.1728988065178783
 20
232.1038938467897026
 30
0.0
 11
4646.2086337420541895
 21
232.1003981965720016
 31
0.0
  0
ARC
  5
D923
  8
0
 10
4646.2100266721236039
 20
232.1801185688954092
 30
0.0
 40
0.0797325405187388
 50
268.9989899497351757
 51
3.0706347438357979
  0
LINE
  5
D924
  8
0
 10
4646.2896447371003887
 20
232.1843896047226963
 30
0.0
 11
4646.2895773127011125
 21
234.5514848155229117
 31
0.0
  0
ARC
  5
D925
  8
0
 10
4641.6682658214713229
 20
229.1542099816346933
 30
0.0
 40
1.552264963746703
 50
1.1658750917399781
 51
14.2305303175402802
  0
LINE
  5
D926
  8
0
 10
4643.220209434215576
 20
229.1857938467227882
 30
0.0
 11
4643.2202094342919736
 21
227.3577938467373087
 31
0.0
  0
ARC
  5
D927
  8
0
 10
4641.6682629544102383
 20
227.3893778881950993
 30
0.0
 40
1.5522678338785421
 50
345.7694898360044817
 51
358.8341205529117133
  0
ARC
  5
D928
  8
0
 10
4646.2142081497213439
 20
229.4610498990647045
 30
0.0
 40
0.0755817696212508
 50
355.7014757931273721
 51
89.1652228172156214
  0
LINE
  5
D929
  8
0
 10
4646.2153093076967707
 20
229.5366236468227044
 30
0.0
 11
4643.1728987572951155
 21
229.5357938467421945
 31
0.0
  0
LINE
  5
D92A
  8
0
 10
4643.1728988065151498
 20
227.0077938467896956
 30
0.0
 11
4646.2086337420505515
 21
227.0042981965719946
 31
0.0
  0
ARC
  5
D92B
  8
0
 10
4646.210026672119966
 20
227.0840185688954875
 30
0.0
 40
0.0797325405187388
 50
268.9989899497351757
 51
3.0706347438357979
  0
LINE
  5
D92C
  8
0
 10
4646.2896447370958413
 20
227.0882896047226893
 30
0.0
 11
4646.2895773126956556
 21
229.4553848155227911
 31
0.0
  0
ARC
  5
D92D
  8
0
 10
4641.6682658214713229
 20
224.0581099816346011
 30
0.0
 40
1.552264963746703
 50
1.1658750917399781
 51
14.2305303175402802
  0
LINE
  5
D92E
  8
0
 10
4643.220209434215576
 20
224.0896938467228097
 30
0.0
 11
4643.2202094342919736
 21
222.2616938467373018
 31
0.0
  0
ARC
  5
D92F
  8
0
 10
4641.6682629544102383
 20
222.2932778881950924
 30
0.0
 40
1.5522678338785421
 50
345.7694898360044817
 51
358.8341205529117133
  0
ARC
  5
D930
  8
0
 10
4646.2142081497213439
 20
224.3649498990646975
 30
0.0
 40
0.0755817696212508
 50
355.7014757931273721
 51
89.1652228172156214
  0
LINE
  5
D931
  8
0
 10
4646.2153093076967707
 20
224.4405236468228111
 30
0.0
 11
4643.1728987572951155
 21
224.4396938467421876
 31
0.0
  0
LINE
  5
D932
  8
0
 10
4643.1728988065151498
 20
221.9116938467898024
 30
0.0
 11
4646.2086337420505515
 21
221.9081981965719024
 31
0.0
  0
ARC
  5
D933
  8
0
 10
4646.210026672119966
 20
221.987918568895509
 30
0.0
 40
0.0797325405187388
 50
268.9989899497351757
 51
3.0706347438357979
  0
LINE
  5
D934
  8
0
 10
4646.2896447370958413
 20
221.992189604722796
 30
0.0
 11
4646.2895773126956556
 21
224.3592848155228126
 31
0.0
  0
ARC
  5
D935
  8
0
 10
4641.6682658214713229
 20
218.9620099816347079
 30
0.0
 40
1.552264963746703
 50
1.1658750917399781
 51
14.2305303175402802
  0
LINE
  5
D936
  8
0
 10
4643.220209434215576
 20
218.9935938467228027
 30
0.0
 11
4643.2202094342919736
 21
217.1655938467372948
 31
0.0
  0
ARC
  5
D937
  8
0
 10
4641.6682629544102383
 20
217.1971778881951138
 30
0.0
 40
1.5522678338785421
 50
345.7694898360044817
 51
358.8341205529117133
  0
ARC
  5
D938
  8
0
 10
4646.2142081497213439
 20
219.2688498990646906
 30
0.0
 40
0.0755817696212508
 50
355.7014757931273721
 51
89.1652228172156214
  0
LINE
  5
D939
  8
0
 10
4646.2153093076967707
 20
219.3444236468228041
 30
0.0
 11
4643.1728987572951155
 21
219.3435938467422943
 31
0.0
  0
LINE
  5
D93A
  8
0
 10
4643.1728988065151498
 20
216.8155938467897954
 30
0.0
 11
4646.2086337420505515
 21
216.8120981965718954
 31
0.0
  0
ARC
  5
D93B
  8
0
 10
4646.210026672119966
 20
216.891818568895502
 30
0.0
 40
0.0797325405187388
 50
268.9989899497351757
 51
3.0706347438357979
  0
LINE
  5
D93C
  8
0
 10
4646.2896447370958413
 20
216.8960896047227891
 30
0.0
 11
4646.2895773126956556
 21
219.2631848155228056
 31
0.0
  0
ARC
  5
D93D
  8
0
 10
4641.6682658215713673
 20
213.8659099816347009
 30
0.0
 40
1.552264963746703
 50
1.1658750917399781
 51
14.2305303175402802
  0
LINE
  5
D93E
  8
0
 10
4643.2202094343174394
 20
213.8974938467227105
 30
0.0
 11
4643.220209434392018
 21
212.0694938467372879
 31
0.0
  0
ARC
  5
D93F
  8
0
 10
4641.6682629545093732
 20
212.1010778881951069
 30
0.0
 40
1.5522678338785421
 50
345.7694898360044817
 51
358.8341205529117133
  0
ARC
  5
D940
  8
0
 10
4646.2142081498213884
 20
214.1727498990647121
 30
0.0
 40
0.0755817696212508
 50
355.7014757931273721
 51
89.1652228172156214
  0
LINE
  5
D941
  8
0
 10
4646.2153093077959056
 20
214.2483236468227972
 30
0.0
 11
4643.1728987573951599
 21
214.2474938467422874
 31
0.0
  0
LINE
  5
D942
  8
0
 10
4643.1728988066133752
 20
211.7194938467897032
 30
0.0
 11
4646.2086337421496864
 21
211.7159981965720021
 31
0.0
  0
ARC
  5
D943
  8
0
 10
4646.2100266722200104
 20
211.7957185688954951
 30
0.0
 40
0.0797325405187388
 50
268.9989899497351757
 51
3.0706347438357979
  0
LINE
  5
D944
  8
0
 10
4646.2896447371967952
 20
211.7999896047226969
 30
0.0
 11
4646.2895773127966095
 21
214.1670848155227986
 31
0.0
  0
LINE
  5
D945
  8
0
 10
4643.1728575940005612
 20
211.641237170522686
 30
0.0
 11
4643.1728988066133752
 21
211.7194938467897032
 31
0.0
  0
LINE
  5
D946
  8
0
 10
4643.1728575940005612
 20
214.3258698268226965
 30
0.0
 11
4643.1728987573951599
 21
214.2474938467422874
 31
0.0
  0
LINE
  5
D947
  8
0
 10
4643.1728988064933219
 20
216.8155938467897954
 30
0.0
 11
4643.1728575940005612
 21
216.737337170522693
 31
0.0
  0
LINE
  5
D948
  8
0
 10
4643.1728575940005612
 20
219.4219698268227887
 30
0.0
 11
4643.1728987572951155
 21
219.3435938467422943
 31
0.0
  0
LINE
  5
D949
  8
0
 10
4643.1728988065151498
 20
221.9116938467898024
 30
0.0
 11
4643.1728575940005612
 21
221.8334371705228136
 31
0.0
  0
LINE
  5
D94A
  8
0
 10
4643.1728575940005612
 20
224.5180698268227957
 30
0.0
 11
4643.1728987573051199
 21
224.4396938467421876
 31
0.0
  0
LINE
  5
D94B
  8
0
 10
4643.1728988065151498
 20
227.0077938467894967
 30
0.0
 11
4643.1728575940005612
 21
226.9295371705227069
 31
0.0
  0
LINE
  5
D94C
  8
0
 10
4643.172898757297844
 20
229.5357938467469978
 30
0.0
 11
4643.1728575940005612
 21
229.6141698268228026
 31
0.0
  0
LINE
  5
D94D
  8
0
 10
4643.1728988065178783
 20
232.1038938467895889
 30
0.0
 11
4643.1728575940005612
 21
232.0256371705227991
 31
0.0
  0
LINE
  5
D94E
  8
0
 10
4643.1728575940005612
 20
234.7102698268226959
 30
0.0
 11
4643.1728987573023915
 21
234.6318938467302075
 31
0.0
  0
ARC
  5
D94F
  8
0
 10
4643.4684241245658995
 20
237.1965694726436027
 30
0.0
 40
0.3048925178335519
 50
178.7362503745150946
 51
194.2077375342703931
  0
ARC
  5
D950
  8
0
 10
4641.6023291723840885
 20
254.6294084583157087
 30
0.0
 40
1.618225219196606
 50
1.3060976323918549
 51
13.9566228784822801
  0
LINE
  5
D951
  8
0
 10
4643.220133959173836
 20
254.6662938467395065
 30
0.0
 11
4643.2201339869407093
 21
252.8382938467227063
 31
0.0
  0
ARC
  5
D952
  8
0
 10
4641.6023379795524306
 20
252.8751781841642128
 30
0.0
 40
1.6182164181199781
 50
346.0433379948983088
 51
358.6939324843651207
  0
ARC
  5
D953
  8
0
 10
4643.4266485467906023
 20
208.5357012937643901
 30
0.0
 40
0.0622799297156135
 50
272.8118206547271143
 51
6.8022238238249688
  0
ARC
  5
D954
  8
0
 10
4643.3417349137207566
 20
208.5984999896782881
 30
0.0
 40
0.1250036442470351
 50
270.0082357213067894
 51
9.2064206335235461
  0
ARC
  5
D955
  8
0
 10
4641.9034947488116813
 20
208.3611317126201925
 30
0.0
 40
1.595404217641563
 50
6.5484836707061378
 51
20.1033847732450113
  0
ARC
  5
D956
  8
0
 10
4641.8792435189743628
 20
208.3614567650469951
 30
0.0
 40
1.6065806992969269
 50
9.2065302959291841
 51
19.9452304359179386
  0
ARC
  5
D957
  8
0
 10
4643.1755751542041253
 20
208.8270321647383128
 30
0.0
 40
0.2406897594336453
 50
20.0363402094587215
 51
65.7954441448804062
  0
ARC
  5
D958
  8
0
 10
4643.1638942992676675
 20
208.8276583974295875
 30
0.0
 40
0.2399528833841081
 50
19.9413713469166005
 51
65.8221682422962431
  0
ARC
  5
D959
  8
0
 10
4643.3559200362797128
 20
209.2323797403753076
 30
0.0
 40
0.202970428398175
 50
207.7927801673241106
 51
246.2754466610358861
  0
ARC
  5
D95A
  8
0
 10
4643.3425316683324127
 20
209.2273394872946994
 30
0.0
 40
0.197833514560077
 50
206.9302288959208909
 51
246.0336940051979013
  0
LINE
  5
D95B
  8
0
 10
4643.1628466094007308
 20
209.1741326453227998
 30
0.0
 11
4643.1628466094007308
 21
209.1514317187227903
 31
0.0
  0
ARC
  5
D95C
  8
0
 10
4643.192969242100844
 20
209.1514575812780095
 30
0.0
 40
0.030122643800803
 50
180.0491928132078101
 51
207.0908011621793889
  0
ARC
  5
D95D
  8
0
 10
4643.9493003960496935
 20
222.7070441410571107
 30
0.0
 40
14.4618378764934992
 50
90.2196897009142305
 51
93.0990204830338257
  0
ARC
  5
D95E
  8
0
 10
4668.2896276889796354
 20
265.1271142136055232
 30
0.0
 40
0.082590736034968
 50
98.7086293287310923
 51
176.0578882937666947
  0
LINE
  5
D95F
  8
0
 10
4668.2771226507620668
 20
265.2087527688227055
 30
0.0
 11
4675.4182325826623128
 21
265.2112353204225883
 31
0.0
  0
ARC
  5
D960
  8
0
 10
4675.4089646316124345
 20
265.125788951640402
 30
0.0
 40
0.0859475238429649
 50
4.6549835224746277
 51
83.8096064398093432
  0
LINE
  5
D961
  8
0
 10
4675.4946286538615823
 20
265.1327640607227067
 30
0.0
 11
4675.4946195087632077
 21
262.7561954655117233
 31
0.0
  0
ARC
  5
D962
  8
0
 10
4675.4123851976410151
 20
262.7617253309659873
 30
0.0
 40
0.0824200299533133
 50
278.6135839955027791
 51
356.1529236846308208
  0
LINE
  5
D963
  8
0
 10
4675.4247292256632136
 20
262.6802349247225834
 30
0.0
 11
4668.2836193008615737
 21
262.6777523730227131
 31
0.0
  0
ARC
  5
D964
  8
0
 10
4668.2928813743892533
 20
262.7631930267294251
 30
0.0
 40
0.0859412084614658
 50
184.6514972331663103
 51
263.813091192919785
  0
LINE
  5
D965
  8
0
 10
4668.2072232224618347
 20
262.7562236422227215
 30
0.0
 11
4668.2072323610618696
 21
265.1327922076227992
 31
0.0
  0
ARC
  5
D966
  8
0
 10
4668.2896276889796354
 20
260.0310142136053742
 30
0.0
 40
0.082590736034968
 50
98.7086293287310923
 51
176.0578882937666947
  0
LINE
  5
D967
  8
0
 10
4668.2771226507620668
 20
260.112652768822727
 30
0.0
 11
4675.4182325826623128
 21
260.1151353204226098
 31
0.0
  0
ARC
  5
D968
  8
0
 10
4675.4089646316124345
 20
260.0296889516404235
 30
0.0
 40
0.0859475238429649
 50
4.6549835224746277
 51
83.8096064398093432
  0
LINE
  5
D969
  8
0
 10
4675.4946286538615823
 20
260.0366640607227282
 30
0.0
 11
4675.4946195087632077
 21
257.6600954655118016
 31
0.0
  0
ARC
  5
D96A
  8
0
 10
4675.4123851976410151
 20
257.6656253309660087
 30
0.0
 40
0.0824200299533133
 50
278.6135839955027791
 51
356.1529236846308208
  0
LINE
  5
D96B
  8
0
 10
4675.4247292256632136
 20
257.5841349247227186
 30
0.0
 11
4668.2836193008615737
 21
257.5816523730226777
 31
0.0
  0
ARC
  5
D96C
  8
0
 10
4668.2928813743892533
 20
257.6670930267293897
 30
0.0
 40
0.0859412084614658
 50
184.6514972331663103
 51
263.813091192919785
  0
LINE
  5
D96D
  8
0
 10
4668.2072232224618347
 20
257.6601236422225725
 30
0.0
 11
4668.2072323610618696
 21
260.036692207622707
 31
0.0
  0
ARC
  5
D96E
  8
0
 10
4668.2896276889796354
 20
254.9349142136055093
 30
0.0
 40
0.082590736034968
 50
98.7086293287310923
 51
176.0578882937666947
  0
LINE
  5
D96F
  8
0
 10
4668.2771226507620668
 20
255.0165527688226916
 30
0.0
 11
4675.4182325826623128
 21
255.0190353204226028
 31
0.0
  0
ARC
  5
D970
  8
0
 10
4675.4089646316124345
 20
254.9335889516405018
 30
0.0
 40
0.0859475238429649
 50
4.6549835224746277
 51
83.8096064398093432
  0
LINE
  5
D971
  8
0
 10
4675.4946286538615823
 20
254.9405640607228065
 30
0.0
 11
4675.4946195087632077
 21
252.5639954655117947
 31
0.0
  0
ARC
  5
D972
  8
0
 10
4675.4123851976410151
 20
252.569525330966087
 30
0.0
 40
0.0824200299533133
 50
278.6135839955027791
 51
356.1529236846308208
  0
LINE
  5
D973
  8
0
 10
4675.4247292256632136
 20
252.4880349247227116
 30
0.0
 11
4668.2836193008615737
 21
252.4855523730226992
 31
0.0
  0
ARC
  5
D974
  8
0
 10
4668.2928813743892533
 20
252.5709930267292975
 30
0.0
 40
0.0859412084614658
 50
184.6514972331663103
 51
263.813091192919785
  0
LINE
  5
D975
  8
0
 10
4668.2072232224618347
 20
252.5640236422227076
 30
0.0
 11
4668.2072323610618696
 21
254.9405922076227
 31
0.0
  0
ARC
  5
D976
  8
0
 10
4668.2896276889796354
 20
249.8388142136055023
 30
0.0
 40
0.082590736034968
 50
98.7086293287310923
 51
176.0578882937666947
  0
LINE
  5
D977
  8
0
 10
4668.2771226507620668
 20
249.9204527688227131
 30
0.0
 11
4675.4182325826623128
 21
249.9229353204227095
 31
0.0
  0
ARC
  5
D978
  8
0
 10
4675.4089646316124345
 20
249.8374889516404949
 30
0.0
 40
0.0859475238429649
 50
4.6549835224746277
 51
83.8096064398093432
  0
LINE
  5
D979
  8
0
 10
4675.4946286538615823
 20
249.8444640607227996
 30
0.0
 11
4675.4946195087632077
 21
247.4678954655117877
 31
0.0
  0
ARC
  5
D97A
  8
0
 10
4675.4123851976410151
 20
247.4734253309661085
 30
0.0
 40
0.0824200299533133
 50
278.6135839955027791
 51
356.1529236846308208
  0
LINE
  5
D97B
  8
0
 10
4675.4247292256632136
 20
247.3919349247227899
 30
0.0
 11
4668.2836193008615737
 21
247.3894523730226922
 31
0.0
  0
ARC
  5
D97C
  8
0
 10
4668.2928813743892533
 20
247.4748930267292906
 30
0.0
 40
0.0859412084614658
 50
184.6514972331663103
 51
263.813091192919785
  0
LINE
  5
D97D
  8
0
 10
4668.2072232224618347
 20
247.4679236422227007
 30
0.0
 11
4668.2072323610618696
 21
249.8444922076226931
 31
0.0
  0
ARC
  5
D97E
  8
0
 10
4668.2896276889796354
 20
244.7427142136054954
 30
0.0
 40
0.082590736034968
 50
98.7086293287310923
 51
176.0578882937666947
  0
LINE
  5
D97F
  8
0
 10
4668.2771226507620668
 20
244.8243527688227061
 30
0.0
 11
4675.4182325826623128
 21
244.8268353204227026
 31
0.0
  0
ARC
  5
D980
  8
0
 10
4675.4089646316124345
 20
244.7413889516404879
 30
0.0
 40
0.0859475238429649
 50
4.6549835224746277
 51
83.8096064398093432
  0
LINE
  5
D981
  8
0
 10
4675.4946286538615823
 20
244.7483640607227073
 30
0.0
 11
4675.4946195087632077
 21
242.3717954655118092
 31
0.0
  0
ARC
  5
D982
  8
0
 10
4675.4123851976410151
 20
242.3773253309661015
 30
0.0
 40
0.0824200299533133
 50
278.6135839955027791
 51
356.1529236846308208
  0
LINE
  5
D983
  8
0
 10
4675.4247292256632136
 20
242.2958349247226977
 30
0.0
 11
4668.2836193008615737
 21
242.2933523730227137
 31
0.0
  0
ARC
  5
D984
  8
0
 10
4668.2928813743892533
 20
242.3787930267293973
 30
0.0
 40
0.0859412084614658
 50
184.6514972331663103
 51
263.813091192919785
  0
LINE
  5
D985
  8
0
 10
4668.2072232224618347
 20
242.3718236422226937
 30
0.0
 11
4668.2072323610618696
 21
244.7483922076226861
 31
0.0
  0
ARC
  5
D986
  8
0
 10
4668.289694499810139
 20
234.5504863540976999
 30
0.0
 40
0.0826573140842531
 50
98.7882941876520562
 51
176.0416938207403064
  0
LINE
  5
D987
  8
0
 10
4668.277065790261986
 20
234.6321732396226878
 30
0.0
 11
4675.4248041492628545
 21
234.6321717834227059
 31
0.0
  0
ARC
  5
D988
  8
0
 10
4675.4121881479532021
 20
234.5505046500005903
 30
0.0
 40
0.0826358528148742
 50
3.9639699068362289
 51
81.218321251867124
  0
LINE
  5
D989
  8
0
 10
4675.4946263125821133
 20
234.5562171961055924
 30
0.0
 11
4675.4946358273045917
 21
232.1796518619306937
 31
0.0
  0
ARC
  5
D98A
  8
0
 10
4675.4121578473013869
 20
232.1853741384038017
 30
0.0
 40
0.0826762458821125
 50
278.7987771596701805
 51
356.0312104063303877
  0
LINE
  5
D98B
  8
0
 10
4675.4248043981624505
 20
232.1036708558227986
 30
0.0
 11
4668.2770660421610955
 21
232.103921968022803
 31
0.0
  0
ARC
  5
D98C
  8
0
 10
4668.2891361956799301
 20
232.1851051461997884
 30
0.0
 40
0.0820755568051146
 50
183.8293813992409014
 51
261.5433263201658178
  0
LINE
  5
D98D
  8
0
 10
4668.2072438847262674
 20
232.1796236836505045
 30
0.0
 11
4668.2072343608197116
 21
234.5561922325879891
 31
0.0
  0
ARC
  5
D98E
  8
0
 10
4668.2896944930098471
 20
229.4543863330976876
 30
0.0
 40
0.0826573140842531
 50
98.7882941876520562
 51
176.0416938207403064
  0
LINE
  5
D98F
  8
0
 10
4668.2770657834616941
 20
229.5360732186227892
 30
0.0
 11
4675.4248041424616531
 21
229.5360717624226936
 31
0.0
  0
ARC
  5
D990
  8
0
 10
4675.4121881411538197
 20
229.4544046290006065
 30
0.0
 40
0.0826358528148742
 50
3.9639699068362289
 51
81.218321251867124
  0
LINE
  5
D991
  8
0
 10
4675.4946263057818214
 20
229.4601171751056086
 30
0.0
 11
4675.4946358205052093
 21
227.0835518409307099
 31
0.0
  0
ARC
  5
D992
  8
0
 10
4675.4121578405020045
 20
227.0892741174037894
 30
0.0
 40
0.0826762458821125
 50
278.7987771596701805
 51
356.0312104063303877
  0
LINE
  5
D993
  8
0
 10
4675.4248043913612491
 20
227.0075708348227863
 30
0.0
 11
4668.2770660353608037
 21
227.0078219470227054
 31
0.0
  0
ARC
  5
D994
  8
0
 10
4668.2891361888796382
 20
227.0890051251998898
 30
0.0
 40
0.0820755568051146
 50
183.8293813992409014
 51
261.5433263201658178
  0
LINE
  5
D995
  8
0
 10
4668.207243877926885
 20
227.0835236626504923
 30
0.0
 11
4668.2072343540194197
 21
229.4600922115880053
 31
0.0
  0
ARC
  5
D996
  8
0
 10
4668.2896944998210529
 20
224.3582863541489871
 30
0.0
 40
0.0826573140842531
 50
98.7882941876520562
 51
176.0416938207403064
  0
LINE
  5
D997
  8
0
 10
4668.2770657902728999
 20
224.4399732396740887
 30
0.0
 11
4675.4248041492728589
 21
224.4399717834741068
 31
0.0
  0
ARC
  5
D998
  8
0
 10
4675.4121881479641161
 20
224.358304650051906
 30
0.0
 40
0.0826358528148742
 50
3.9639699068362289
 51
81.218321251867124
  0
LINE
  5
D999
  8
0
 10
4675.4946263125939367
 20
224.3640171961569081
 30
0.0
 11
4675.4946358273145961
 21
221.9874518619820094
 31
0.0
  0
ARC
  5
D99A
  8
0
 10
4675.4121578473132104
 20
221.993174138455089
 30
0.0
 40
0.0826762458821125
 50
278.7987771596701805
 51
356.0312104063303877
  0
LINE
  5
D99B
  8
0
 10
4675.4248043981733645
 20
221.9114708558740858
 30
0.0
 11
4668.277066042172919
 21
221.911721968074005
 31
0.0
  0
ARC
  5
D99C
  8
0
 10
4668.289136195690844
 20
221.992905146251303
 30
0.0
 40
0.0820755568051146
 50
183.8293813992409014
 51
261.5433263201658178
  0
LINE
  5
D99D
  8
0
 10
4668.2072438847371814
 20
221.9874236837017918
 30
0.0
 11
4668.207234360829716
 21
224.3639922326393048
 31
0.0
  0
ARC
  5
D99E
  8
0
 10
4668.2896944998210529
 20
219.2621863542489109
 30
0.0
 40
0.0826573140842531
 50
98.7882941876520562
 51
176.0416938207403064
  0
LINE
  5
D99F
  8
0
 10
4668.2770657902728999
 20
219.3438732397740978
 30
0.0
 11
4675.4248041492728589
 21
219.3438717835740874
 31
0.0
  0
ARC
  5
D9A0
  8
0
 10
4675.4121881479641161
 20
219.2622046501518867
 30
0.0
 40
0.0826358528148742
 50
3.9639699068362289
 51
81.218321251867124
  0
LINE
  5
D9A1
  8
0
 10
4675.4946263125939367
 20
219.2679171962570024
 30
0.0
 11
4675.4946358273145961
 21
216.8913518620819048
 31
0.0
  0
ARC
  5
D9A2
  8
0
 10
4675.4121578473132104
 20
216.897074138555098
 30
0.0
 40
0.0826762458821125
 50
278.7987771596701805
 51
356.0312104063303877
  0
LINE
  5
D9A3
  8
0
 10
4675.4248043981733645
 20
216.8153708559740949
 30
0.0
 11
4668.277066042172919
 21
216.815621968174014
 31
0.0
  0
ARC
  5
D9A4
  8
0
 10
4668.289136195690844
 20
216.8968051463511983
 30
0.0
 40
0.0820755568051146
 50
183.8293813992409014
 51
261.5433263201658178
  0
LINE
  5
D9A5
  8
0
 10
4668.2072438847371814
 20
216.8913236838016871
 30
0.0
 11
4668.207234360829716
 21
219.2678922327393138
 31
0.0
  0
ARC
  5
D9A6
  8
0
 10
4668.289694499810139
 20
214.1660863540975868
 30
0.0
 40
0.0826573140842531
 50
98.7882941876520562
 51
176.0416938207403064
  0
LINE
  5
D9A7
  8
0
 10
4668.277065790261986
 20
214.2477732396226884
 30
0.0
 11
4675.4248041492628545
 21
214.2477717834227917
 31
0.0
  0
ARC
  5
D9A8
  8
0
 10
4675.4121881479532021
 20
214.1661046500005909
 30
0.0
 40
0.0826358528148742
 50
3.9639699068362289
 51
81.218321251867124
  0
LINE
  5
D9A9
  8
0
 10
4675.4946263125821133
 20
214.171817196105593
 30
0.0
 11
4675.4946358273045917
 21
211.7952518619306943
 31
0.0
  0
ARC
  5
D9AA
  8
0
 10
4675.4121578473013869
 20
211.8009741384036886
 30
0.0
 40
0.0826762458821125
 50
278.7987771596701805
 51
356.0312104063303877
  0
LINE
  5
D9AB
  8
0
 10
4675.4248043981624505
 20
211.7192708558227991
 30
0.0
 11
4668.2770660421610955
 21
211.7195219680226899
 31
0.0
  0
ARC
  5
D9AC
  8
0
 10
4668.2891361956799301
 20
211.8007051461999026
 30
0.0
 40
0.0820755568051146
 50
183.8293813992409014
 51
261.5433263201658178
  0
LINE
  5
D9AD
  8
0
 10
4668.2072438847262674
 20
211.7952236836503914
 30
0.0
 11
4668.2072343608197116
 21
214.1717922325879044
 31
0.0
  0
LINE
  5
D9AE
  8
0
 10
4701.8095826040007523
 20
208.290377290822704
 30
0.0
 11
4701.8337066128397055
 21
208.9807776905963976
 31
0.0
  0
LINE
  5
D9AF
  8
0
 10
4642.0701676661628881
 20
208.4734963467228113
 30
0.0
 11
4642.0533032802622984
 21
208.9564291742227908
 31
0.0
  0
LINE
  5
D9B0
  8
0
 10
4642.0533032802622984
 20
208.9564291742227908
 30
0.0
 11
4641.914315446362707
 21
208.961282736322687
 31
0.0
  0
ARC
  5
D9B1
  8
0
 10
4641.9135560245013039
 20
209.0239109691258932
 30
0.0
 40
0.0626328369595742
 50
180.0540402083495906
 51
270.6947271725056225
  0
ARC
  5
D9B2
  8
0
 10
4641.967423625860647
 20
208.2930150376834035
 30
0.0
 40
0.0752033498347111
 50
182.0100535447759
 51
195.0299892851118102
  0
LINE
  5
D9B3
  8
0
 10
4641.993920869221256
 20
208.958502853706392
 30
0.0
 11
4642.0098563378196559
 21
208.5024487244149043
 31
0.0
  0
ARC
  5
D9B4
  8
0
 10
4642.0398380404485579
 20
208.503496346758709
 30
0.0
 40
0.0300000000861241
 50
182.0012181626804875
 51
269.9966871242236834
  0
LINE
  5
D9B5
  8
0
 10
4641.892266549562919
 20
208.290377290822704
 30
0.0
 11
4641.8681425441036481
 21
208.9807775938380132
 31
0.0
  0
LINE
  5
D9B6
  8
0
 10
4701.8101522181295877
 20
266.7840796292446157
 30
0.0
 11
4701.8509232154010533
 21
266.7862163467225969
 31
0.0
  0
LINE
  5
D9B7
  8
0
 10
4643.1727940122173095
 20
249.9236037334729872
 30
0.0
 11
4643.172782119000658
 21
249.998175842422711
 31
0.0
  0
LINE
  5
D9B8
  8
0
 10
4642.0386480477764053
 20
208.9569409462172871
 30
0.0
 11
4642.0448518126995623
 21
208.7792883632226904
 31
0.0
  0
LINE
  5
D9B9
  8
0
 10
4642.0448518126995623
 20
208.7792883632226904
 30
0.0
 11
4642.0600680659263162
 21
208.7627110580156113
 31
0.0
  0
LINE
  5
D9BA
  8
0
 10
4701.6631983797005887
 20
208.9569408510201924
 30
0.0
 11
4701.6569946180998159
 21
208.7792883632226904
 31
0.0
  0
LINE
  5
D9BB
  8
0
 10
4701.6569946180998159
 20
208.7792883632226904
 30
0.0
 11
4701.6417811953197088
 21
208.7627141416348877
 31
0.0
  0
LINE
  5
D9BC
  8
0
 10
4701.8070544838974456
 20
186.4644963467227115
 30
0.0
 11
4641.8947970935587364
 21
186.4644963467227115
 31
0.0
  0
LINE
  5
D9BD
  8
0
 10
4641.8947970699009602
 20
186.5894963467227115
 30
0.0
 11
4701.8070544780593991
 21
186.5894963467227115
 31
0.0
  0
LINE
  5
D9BE
  8
0
 10
4645.1259249719478248
 20
204.5734963467226919
 30
0.0
 11
4698.5759249719467334
 21
204.5734963467226919
 31
0.0
  0
LINE
  5
D9BF
  8
0
 10
4649.9499019605427748
 20
189.8996679767282103
 30
0.0
 11
4693.7609104350158304
 21
189.8996679767282103
 31
0.0
  0
ARC
  5
D9C0
  8
0
 10
4650.0355704139328736
 20
191.6345368230381041
 30
0.0
 40
1.736982728124588
 50
214.6250484813226933
 51
267.1730099135905903
  0
ARC
  5
D9C1
  8
0
 10
4674.687837170923558
 20
204.5636260296552109
 30
0.0
 40
29.5619138467578999
 50
179.9808697256925996
 51
208.0825040154288956
  0
ARC
  5
D9C2
  8
0
 10
4693.75073743401299
 20
191.4827435194619056
 30
0.0
 40
1.5831082287547551
 50
270.3681833139215769
 51
328.1603141654362048
  0
ARC
  5
D9C3
  8
0
 10
4668.9890574985583953
 20
204.5698514737223945
 30
0.0
 40
29.58686769789918
 50
331.9296290021727032
 51
0.0070583963951352
  0
ENDSEC
  0
EOF
