  0
SECTION
  2
HEADER
  9
$ACADVER
  1
AC1009
  9
$INSBASE
 10
3017.179757426561082
 20
22.4188714329082792
 30
0.0
  9
$EXTMIN
 10
2987.1797560651789354
 20
22.4136646547447498
 30
0.0
  9
$EXTMAX
 10
3047.1797587879418643
 20
100.7405625786150978
 30
0.0
  9
$LIMMIN
 10
0.0
 20
0.0
  9
$LIMMAX
 10
11.6929133858000007
 20
8.2677165353999982
  9
$ORTHOMODE
 70
     0
  9
$REGENMODE
 70
     1
  9
$FILLMODE
 70
     1
  9
$QTEXTMODE
 70
     0
  9
$MIRRTEXT
 70
     0
  9
$DRAGMODE
 70
     2
  9
$LTSCALE
 40
0.6431102362
  9
$OSMODE
 70
  4095
  9
$ATTMODE
 70
     1
  9
$TEXTSIZE
 40
0.2
  9
$TRACEWID
 40
0.05
  9
$TEXTSTYLE
  7
STANDARD
  9
$CLAYER
  8
0
  9
$CELTYPE
  6
BYLAYER
  9
$CECOLOR
 62
   256
  9
$DIMSCALE
 40
1.0
  9
$DIMASZ
 40
0.1875
  9
$DIMEXO
 40
0.0625
  9
$DIMDLI
 40
0.4443307087
  9
$DIMRND
 40
0.0
  9
$DIMDLE
 40
0.0
  9
$DIMEXE
 40
0.125
  9
$DIMTP
 40
0.01
  9
$DIMTM
 40
0.01
  9
$DIMTXT
 40
2.0
  9
$DIMCEN
 40
0.1052362205
  9
$DIMTSZ
 40
0.0
  9
$DIMTOL
 70
     1
  9
$DIMLIM
 70
     0
  9
$DIMTIH
 70
     1
  9
$DIMTOH
 70
     1
  9
$DIMSE1
 70
     0
  9
$DIMSE2
 70
     0
  9
$DIMTAD
 70
     0
  9
$DIMZIN
 70
     0
  9
$DIMBLK
  1

  9
$DIMASO
 70
     1
  9
$DIMSHO
 70
     1
  9
$DIMPOST
  1
\X
  9
$DIMAPOST
  1

  9
$DIMALT
 70
     1
  9
$DIMALTD
 70
     2
  9
$DIMALTF
 40
25.3999999999999986
  9
$DIMLFAC
 40
1.0
  9
$DIMTOFL
 70
     0
  9
$DIMTVP
 40
0.0
  9
$DIMTIX
 70
     0
  9
$DIMSOXD
 70
     0
  9
$DIMSAH
 70
     0
  9
$DIMBLK1
  1

  9
$DIMBLK2
  1

  9
$DIMSTYLE
  2
STANDARD
  9
$DIMCLRD
 70
     0
  9
$DIMCLRE
 70
     0
  9
$DIMCLRT
 70
     0
  9
$DIMTFAC
 40
1.0
  9
$DIMGAP
 40
0.09
  9
$LUNITS
 70
     2
  9
$LUPREC
 70
     4
  9
$SKETCHINC
 40
0.1
  9
$FILLETRAD
 40
0.0
  9
$AUNITS
 70
     0
  9
$AUPREC
 70
     0
  9
$MENU
  1
.
  9
$ELEVATION
 40
0.0
  9
$PELEVATION
 40
0.0
  9
$THICKNESS
 40
0.0
  9
$LIMCHECK
 70
     0
  9
$BLIPMODE
 70
     0
  9
$CHAMFERA
 40
0.0
  9
$CHAMFERB
 40
0.0
  9
$SKPOLY
 70
     0
  9
$TDCREATE
 40
2458060.468368056230247
  9
$TDUPDATE
 40
2458818.6129976850934327
  9
$TDINDWG
 40
0.2902269676
  9
$TDUSRTIMER
 40
0.2902269676
  9
$USRTIMER
 70
     1
  9
$ANGBASE
 50
0.0
  9
$ANGDIR
 70
     0
  9
$PDMODE
 70
     0
  9
$PDSIZE
 40
0.3125
  9
$PLINEWID
 40
0.0
  9
$COORDS
 70
     1
  9
$SPLFRAME
 70
     0
  9
$SPLINETYPE
 70
     6
  9
$SPLINESEGS
 70
     8
  9
$ATTDIA
 70
     1
  9
$ATTREQ
 70
     1
  9
$HANDLING
 70
     1
  9
$HANDSEED
  5
759C
  9
$SURFTAB1
 70
     6
  9
$SURFTAB2
 70
     6
  9
$SURFTYPE
 70
     6
  9
$SURFU
 70
     6
  9
$SURFV
 70
     6
  9
$UCSNAME
  2

  9
$UCSORG
 10
0.0
 20
0.0
 30
0.0
  9
$UCSXDIR
 10
1.0
 20
0.0
 30
0.0
  9
$UCSYDIR
 10
0.0
 20
1.0
 30
0.0
  9
$PUCSNAME
  2

  9
$PUCSORG
 10
0.0
 20
0.0
 30
0.0
  9
$PUCSXDIR
 10
1.0
 20
0.0
 30
0.0
  9
$PUCSYDIR
 10
0.0
 20
1.0
 30
0.0
  9
$USERI1
 70
     0
  9
$USERI2
 70
     0
  9
$USERI3
 70
     0
  9
$USERI4
 70
     0
  9
$USERI5
 70
     0
  9
$USERR1
 40
0.0
  9
$USERR2
 40
0.0
  9
$USERR3
 40
0.0
  9
$USERR4
 40
0.0
  9
$USERR5
 40
0.0
  9
$WORLDVIEW
 70
     1
  9
$SHADEDGE
 70
     3
  9
$SHADEDIF
 70
    70
  9
$TILEMODE
 70
     1
  9
$MAXACTVP
 70
    64
  9
$PLIMCHECK
 70
     0
  9
$PEXTMIN
 10
1.0000000000000000E+20
 20
1.0000000000000000E+20
 30
1.0000000000000000E+20
  9
$PEXTMAX
 10
-1.0000000000000000E+20
 20
-1.0000000000000000E+20
 30
-1.0000000000000000E+20
  9
$PLIMMIN
 10
0.0
 20
0.0
  9
$PLIMMAX
 10
12.0
 20
9.0
  9
$UNITMODE
 70
     0
  9
$VISRETAIN
 70
     1
  9
$PLINEGEN
 70
     0
  9
$PSLTSCALE
 70
     1
  0
ENDSEC
  0
SECTION
  2
TABLES
  0
TABLE
  2
VPORT
 70
     1
  0
VPORT
  2
*ACTIVE
 70
     0
 10
0.0
 20
0.0
 11
1.0
 21
1.0
 12
0.0
 22
0.0
 13
0.0
 23
0.0
 14
1.0
 24
1.0
 15
0.0
 25
0.0
 16
0.0
 26
0.0
 36
267.4581542722635277
 17
3017.1796875
 27
61.5771135468547968
 37
0.0
 40
98.6666251399107352
 41
2.0020920502092041
 42
50.0
 43
0.0
 44
0.0
 50
0.0
 51
0.0
 71
     0
 72
   100
 73
     1
 74
     1
 75
     0
 76
     0
 77
     0
 78
     0
  0
ENDTAB
  0
TABLE
  2
LTYPE
 70
     2
  0
LTYPE
  2
CONTINUOUS
 70
     0
  3
Solid line
 72
    65
 73
     0
 40
0.0
  0
LTYPE
  2
PHANTOM2
 70
     0
  3
___ _ _ ___ _ _ ___ _ _ ___ _ _
 72
    65
 73
     6
 40
1.25
 49
0.625
 49
-0.125
 49
0.125
 49
-0.125
 49
0.125
 49
-0.125
  0
ENDTAB
  0
TABLE
  2
LAYER
 70
     2
  0
LAYER
  2
0
 70
     0
 62
   255
  6
CONTINUOUS
  0
LAYER
  2
DEFPOINTS
 70
     0
 62
     7
  6
CONTINUOUS
  0
ENDTAB
  0
TABLE
  2
STYLE
 70
     1
  0
STYLE
  2
STANDARD
 70
     0
 40
0.0
 41
0.8
 50
0.0
 71
     0
 42
0.2
  3
txt
  4

  0
ENDTAB
  0
TABLE
  2
VIEW
 70
     1
  0
ENDTAB
  0
TABLE
  2
UCS
 70
     0
  0
ENDTAB
  0
TABLE
  2
APPID
 70
     9
  0
APPID
  2
ACAD
 70
     0
  0
APPID
  2
ACAD_MLEADERVER
 70
     0
  0
APPID
  2
ACAD_EXEMPT_FROM_CAD_STANDARDS
 70
     0
  0
APPID
  2
ACAD_NAV_VCDISPLAY
 70
     0
  0
APPID
  2
ACAECLAYERSTANDARD
 70
     0
  0
APPID
  2
ACCMTRANSPARENCY
 70
     0
  0
APPID
  2
ACAD_DSTYLE_DIMJAG
 70
     0
  0
APPID
  2
ACAD_DSTYLE_DIMTALN
 70
     0
  0
APPID
  2
ACDBATTR
 70
     0
  0
ENDTAB
  0
TABLE
  2
DIMSTYLE
 70
     1
  0
DIMSTYLE
  2
STANDARD
 70
     0
  3

  4

  5

  6

  7

 40
1.0
 41
0.1875
 42
0.0625
 43
0.38
 44
0.125
 45
0.0
 46
0.0
 47
0.01
 48
0.01
140
0.15625
141
0.09
142
0.0
143
25.3999999999999986
144
1.0
145
0.0
146
1.0
147
0.09
 71
     1
 72
     0
 73
     1
 74
     1
 75
     0
 76
     0
 77
     0
 78
     4
170
     0
171
     2
172
     0
173
     0
174
     0
175
     0
176
     0
177
     0
178
     0
  0
ENDTAB
  0
ENDSEC
  0
SECTION
  2
BLOCKS
  0
BLOCK
  8
0
  2
$MODEL_SPACE
 70
     0
 10
0.0
 20
0.0
 30
0.0
  3
$MODEL_SPACE
  1

  0
ENDBLK
  5
21
  8
0
  0
BLOCK
 67
     1
  8
0
  2
$PAPER_SPACE
 70
     0
 10
0.0
 20
0.0
 30
0.0
  3
$PAPER_SPACE
  1

  0
ENDBLK
  5
1D
 67
     1
  8
0
  0
BLOCK
  8
0
  2
_FILLED
 70
     0
 10
0.0
 20
0.0
 30
0.0
  3
_FILLED
  1

  0
SOLID
  5
57A4
  8
0
  6
BYBLOCK
 62
     0
 10
0.0
 20
0.0
 30
0.0
 11
-1.0
 21
0.1666666667
 31
0.0
 12
-1.0
 22
-0.1666666667
 32
0.0
 13
-1.0
 23
-0.1666666667
 33
0.0
  0
ENDBLK
  5
57A5
  8
0
  6
BYBLOCK
 62
     0
  0
ENDSEC
  0
SECTION
  2
ENTITIES
  0
ATTDEF
  5
3930
  8
DEFPOINTS
 10
3017.1694292179381591
 20
22.4169979880780801
 30
0.0
 40
0.001
  1
71520116
  3

  2
MODELNUMBER
 70
     0
1001
ACDBATTR
1070
     0
1070
     1
  0
ATTDEF
  5
3931
  8
DEFPOINTS
 10
3017.1694292179381591
 20
22.4153313214114185
 30
0.0
 40
0.001
  1
TRAVERSE
  3

  2
TRADENAME
 70
     0
1001
ACDBATTR
1070
     0
1070
     1
  0
ATTDEF
  5
3932
  8
DEFPOINTS
 10
3017.1694292179381591
 20
22.4136646547447498
 30
0.0
 40
0.001
  1
BATH AND WALL SURROUND
  3

  2
PRODUCT
 70
     0
1001
ACDBATTR
1070
     0
1070
     1
  0
LINE
  5
6E39
  8
0
 10
2987.7087288218408503
 20
42.4188714329082686
 30
0.0
 11
3046.650788748641844
 21
42.4188714329082686
 31
0.0
  0
LINE
  5
6E3A
  8
0
 10
2989.0120226536409973
 20
40.4014947838083174
 30
0.0
 11
3045.3470315782360558
 21
40.4014699548746705
 31
0.0
  0
ARC
  5
6E3B
  8
0
 10
3045.338593744821992
 20
41.0338294687769292
 30
0.0
 40
0.6324158061398889
 50
270.7644758132221909
 51
358.175825906192415
  0
LINE
  5
6E3C
  8
0
 10
3046.6347587879417915
 20
42.4188714329082686
 30
0.0
 11
3046.6444085588409507
 21
42.6952047148082769
 31
0.0
  0
LINE
  5
6E3D
  8
0
 10
3046.895213885863086
 20
42.9459349031289079
 30
0.0
 11
3047.1508057728437961
 21
42.954860371397757
 31
0.0
  0
ARC
  5
6E3E
  8
0
 10
3046.1406146654521763
 20
42.2937975723081934
 30
0.0
 40
0.125154397011138
 50
92.0555785455047442
 51
178.6114574736182021
  0
LINE
  5
6E3F
  8
0
 10
3046.0154970193398185
 20
42.2968303470377407
 30
0.0
 11
3045.9706890544280213
 21
41.0136981143770285
 31
0.0
  0
LINE
  5
6E40
  8
0
 10
2987.22541653467988
 20
22.4188714329082792
 30
0.0
 11
3047.1340983184418292
 21
22.4188714329082792
 31
0.0
  0
ARC
  5
6E41
  8
0
 10
3047.1497587879412094
 20
42.9848420962083182
 30
0.0
 40
0.0300000000000208
 50
272.0000000030539127
 51
359.9999999999250804
  0
ARC
  5
6E42
  8
0
 10
3047.1422587878951163
 20
100.6670403696268039
 30
0.0
 40
0.0624999999534858
 50
92.9999998997123072
 51
180.0000000170205112
  0
CIRCLE
  5
6E43
  8
0
 10
3046.4297587879418643
 20
100.2409474329082997
 30
0.0
 40
0.09375
  0
CIRCLE
  5
6E44
  8
0
 10
3045.6797587879418643
 20
100.2409474329082997
 30
0.0
 40
0.09375
  0
CIRCLE
  5
6E45
  8
0
 10
3044.9297587879418643
 20
100.2409474329082997
 30
0.0
 40
0.09375
  0
CIRCLE
  5
6E46
  8
0
 10
3044.1797587879418643
 20
100.2409474329082997
 30
0.0
 40
0.09375
  0
CIRCLE
  5
6E47
  8
0
 10
3043.4297587879409548
 20
100.2409474329082997
 30
0.0
 40
0.09375
  0
CIRCLE
  5
6E48
  8
0
 10
3042.6797587879409548
 20
100.2409474329082997
 30
0.0
 40
0.09375
  0
CIRCLE
  5
6E49
  8
0
 10
3041.9297587879409548
 20
100.2409474329082997
 30
0.0
 40
0.09375
  0
CIRCLE
  5
6E4A
  8
0
 10
3041.1797587879418643
 20
100.2409474329082997
 30
0.0
 40
0.09375
  0
CIRCLE
  5
6E4B
  8
0
 10
3040.4297587879418643
 20
100.2409474329082997
 30
0.0
 40
0.09375
  0
CIRCLE
  5
6E4C
  8
0
 10
3039.6797587879418643
 20
100.2409474329082997
 30
0.0
 40
0.09375
  0
CIRCLE
  5
6E4D
  8
0
 10
3038.9297587879418643
 20
100.2409474329082997
 30
0.0
 40
0.09375
  0
CIRCLE
  5
6E4E
  8
0
 10
3038.1797587879418643
 20
100.2409474329082997
 30
0.0
 40
0.09375
  0
CIRCLE
  5
6E4F
  8
0
 10
3037.4297587879418643
 20
100.2409474329082997
 30
0.0
 40
0.09375
  0
CIRCLE
  5
6E50
  8
0
 10
3036.6797587879418643
 20
100.2409474329082997
 30
0.0
 40
0.09375
  0
CIRCLE
  5
6E51
  8
0
 10
3035.9297587879418643
 20
100.2409474329082997
 30
0.0
 40
0.09375
  0
CIRCLE
  5
6E52
  8
0
 10
3035.1797587879418643
 20
100.2409474329082997
 30
0.0
 40
0.09375
  0
CIRCLE
  5
6E53
  8
0
 10
3034.4297587879418643
 20
100.2409474329082997
 30
0.0
 40
0.09375
  0
CIRCLE
  5
6E54
  8
0
 10
3033.6797587879418643
 20
100.2409474329082997
 30
0.0
 40
0.09375
  0
CIRCLE
  5
6E55
  8
0
 10
3032.9297587879418643
 20
100.2409474329082997
 30
0.0
 40
0.09375
  0
CIRCLE
  5
6E56
  8
0
 10
3032.1797587879418643
 20
100.2409474329082997
 30
0.0
 40
0.09375
  0
CIRCLE
  5
6E57
  8
0
 10
3031.4297587879418643
 20
100.2409474329082997
 30
0.0
 40
0.09375
  0
CIRCLE
  5
6E58
  8
0
 10
3030.6797587879418643
 20
100.2409474329082997
 30
0.0
 40
0.09375
  0
CIRCLE
  5
6E59
  8
0
 10
3029.9297587879418643
 20
100.2409474329082997
 30
0.0
 40
0.09375
  0
CIRCLE
  5
6E5A
  8
0
 10
3029.1797587879418643
 20
100.2409474329082997
 30
0.0
 40
0.09375
  0
CIRCLE
  5
6E5B
  8
0
 10
3028.4297587879418643
 20
100.2409474329082997
 30
0.0
 40
0.09375
  0
CIRCLE
  5
6E5C
  8
0
 10
3027.6797587879418643
 20
100.2409474329082997
 30
0.0
 40
0.09375
  0
CIRCLE
  5
6E5D
  8
0
 10
3026.9297587879418643
 20
100.2409474329082997
 30
0.0
 40
0.09375
  0
CIRCLE
  5
6E5E
  8
0
 10
3026.1797587879418643
 20
100.2409474329082997
 30
0.0
 40
0.09375
  0
CIRCLE
  5
6E5F
  8
0
 10
3017.1797587880419087
 20
100.2409474329082997
 30
0.0
 40
0.09375
  0
CIRCLE
  5
6E60
  8
0
 10
3017.9297587880419087
 20
100.2409474329082997
 30
0.0
 40
0.09375
  0
CIRCLE
  5
6E61
  8
0
 10
3018.6797587880419087
 20
100.2409474329082997
 30
0.0
 40
0.09375
  0
CIRCLE
  5
6E62
  8
0
 10
3019.4297587880409992
 20
100.2409474329082997
 30
0.0
 40
0.09375
  0
CIRCLE
  5
6E63
  8
0
 10
3020.1797587880409992
 20
100.2409474329082997
 30
0.0
 40
0.09375
  0
CIRCLE
  5
6E64
  8
0
 10
3020.9297587880409992
 20
100.2409474329082997
 30
0.0
 40
0.09375
  0
CIRCLE
  5
6E65
  8
0
 10
3021.6797587880409992
 20
100.2409474329082997
 30
0.0
 40
0.09375
  0
CIRCLE
  5
6E66
  8
0
 10
3022.4297587880409992
 20
100.2409474329082997
 30
0.0
 40
0.09375
  0
CIRCLE
  5
6E67
  8
0
 10
3023.1797587880419087
 20
100.2409474329082997
 30
0.0
 40
0.09375
  0
CIRCLE
  5
6E68
  8
0
 10
3023.9297587880419087
 20
100.2409474329082997
 30
0.0
 40
0.09375
  0
CIRCLE
  5
6E69
  8
0
 10
3024.6797587880419087
 20
100.2409474329082997
 30
0.0
 40
0.09375
  0
CIRCLE
  5
6E6A
  8
0
 10
3025.4297587880419087
 20
100.2409474329082997
 30
0.0
 40
0.09375
  0
LINE
  5
6E6B
  8
0
 10
2987.4996747788800349
 20
100.740562578608305
 30
0.0
 11
3046.8598400742412196
 21
100.7405625786150978
 31
0.0
  0
ARC
  5
6E6C
  8
0
 10
3046.6396784359230878
 20
87.4499240028961538
 30
0.0
 40
13.2924619577110192
 50
88.4086282997558612
 51
89.0509726832506061
  0
ARC
  5
6E6D
  8
0
 10
3047.0016652243612043
 20
100.6723884989142022
 30
0.0
 40
0.0652645652224314
 50
73.1601983280698818
 51
83.7019390295575789
  0
ARC
  5
6E6E
  8
0
 10
3047.0195826338999723
 20
100.7315318507539956
 30
0.0
 40
0.0034667890539801
 50
23.8051489340607105
 51
73.4154948619710552
  0
LINE
  5
6E6F
  8
0
 10
3047.0227544803260571
 20
100.7329311422166001
 30
0.0
 11
3047.0797342640871648
 21
100.6374526389681989
 31
0.0
  0
ARC
  5
6E70
  8
0
 10
3047.0170155020859966
 20
99.5345488111754833
 30
0.0
 40
0.0631070482025065
 50
273.193582506546818
 51
353.8451755204047799
  0
LINE
  5
6E71
  8
0
 10
3047.0205311751019508
 20
99.4715397674902846
 30
0.0
 11
3046.2601403435260181
 21
99.4316789219076611
 31
0.0
  0
ARC
  5
6E72
  8
0
 10
3046.2737162490848277
 20
99.1738786705797963
 30
0.0
 40
0.2581574612450347
 50
93.0144433970867937
 51
180.0016063375408919
  0
LINE
  5
6E73
  8
0
 10
3046.0155587879421546
 20
99.1738714329082711
 30
0.0
 11
3046.0155587879407904
 21
42.5438714329082686
 31
0.0
  0
ARC
  5
6E74
  8
0
 10
3046.1406990299328754
 20
42.5439280853359207
 30
0.0
 40
0.1251402548152468
 50
180.0259384569503993
 51
267.9055372812766791
  0
LINE
  5
6E75
  8
0
 10
2988.3439587879420287
 20
99.1738714329082711
 30
0.0
 11
3046.0155587879421546
 21
99.1738714329082711
 31
0.0
  0
ARC
  5
6E76
  8
0
 10
3047.426697071649869
 20
98.76720510732045
 30
0.0
 40
1.6165649126030699
 50
166.0368440684389952
 51
178.7003171073747865
  0
LINE
  5
6E77
  8
0
 10
3045.810548044827101
 20
98.8038717100490516
 30
0.0
 11
3045.8105480441408872
 21
96.9758689329082983
 31
0.0
  0
ARC
  5
6E78
  8
0
 10
3047.4283418507361603
 20
97.0127528521334455
 30
0.0
 40
1.618214208364283
 50
181.3060544878989901
 51
193.9566661938935965
  0
ARC
  5
6E79
  8
0
 10
3035.5217605387601907
 20
99.0724892997910445
 30
0.0
 40
0.082590736034968
 50
98.7086293287311918
 51
176.0578882937620051
  0
LINE
  5
6E7A
  8
0
 10
3035.509255500540803
 20
99.1541278550082836
 30
0.0
 11
3042.6503654324419585
 21
99.1566104066082232
 31
0.0
  0
ARC
  5
6E7B
  8
0
 10
3042.6410974813911707
 20
99.071164037826037
 30
0.0
 40
0.0859475238429649
 50
4.6549835224725138
 51
83.8096064397835363
  0
LINE
  5
6E7C
  8
0
 10
3042.7267615036421375
 20
99.0781391469082848
 30
0.0
 11
3042.726752358541944
 21
96.7015705516973583
 31
0.0
  0
ARC
  5
6E7D
  8
0
 10
3042.6445180474202061
 20
96.7071004171516222
 30
0.0
 40
0.0824200299533133
 50
278.6135839955026086
 51
356.1529236846291724
  0
LINE
  5
6E7E
  8
0
 10
3042.6568620754419499
 20
96.6256100109082041
 30
0.0
 11
3035.515752150642129
 21
96.6231274592082912
 31
0.0
  0
ARC
  5
6E7F
  8
0
 10
3035.5250142241679896
 20
96.7085681129149464
 30
0.0
 40
0.0859412084614658
 50
184.6514972331663103
 51
263.813091192919785
  0
LINE
  5
6E80
  8
0
 10
3035.4393560722419352
 20
96.7015987284082996
 30
0.0
 11
3035.4393652108419701
 21
99.0781672938082636
 31
0.0
  0
ARC
  5
6E81
  8
0
 10
3042.8206237051608696
 20
99.0776408321394655
 30
0.0
 40
0.0796300539901669
 50
89.0823246574788215
 51
183.0096542621299989
  0
LINE
  5
6E82
  8
0
 10
3042.8218990419040892
 20
99.1572606727237087
 30
0.0
 11
3045.8578998843408954
 21
99.1572788205487967
 31
0.0
  0
LINE
  5
6E83
  8
0
 10
3045.8578998849561685
 20
96.6224590445084743
 30
0.0
 11
3042.8220472855891785
 21
96.6223250670669529
 31
0.0
  0
ARC
  5
6E84
  8
0
 10
3042.820807826481996
 20
96.7021949174762483
 30
0.0
 40
0.0798794670943839
 50
177.0077559573117867
 51
270.8890723521619748
  0
LINE
  5
6E85
  8
0
 10
3042.7410372662411646
 20
96.7063646875082839
 30
0.0
 11
3042.7411034847418705
 21
99.0734599180083109
 31
0.0
  0
LINE
  5
6E86
  8
0
 10
3047.0797587879419552
 20
100.6670403696083014
 30
0.0
 11
3047.0797587891638614
 21
99.5277827591915809
 31
0.0
  0
LINE
  5
6E87
  8
0
 10
2989.2934542874509134
 20
72.9371707163793701
 30
0.0
 11
3045.0660605656707958
 21
72.9371707163793701
 31
0.0
  0
LINE
  5
6E88
  8
0
 10
2988.5366702828800953
 20
71.6536122015289436
 30
0.0
 11
3045.8228445702420686
 21
71.653612038546072
 31
0.0
  0
LINE
  5
6E89
  8
0
 10
2994.3576332228949468
 20
25.2629303108985006
 30
0.0
 11
3039.9539565323420902
 21
25.2627853554084005
 31
0.0
  0
ARC
  5
6E8A
  8
0
 10
3040.0183849182781159
 20
27.1450013822223788
 30
0.0
 40
1.8833183980703101
 50
268.0395269240614198
 51
337.7286924221446043
  0
ARC
  5
6E8B
  8
0
 10
3013.3350582094922174
 20
37.7061322532152587
 30
0.0
 40
30.5805362079422416
 50
338.3648345588766233
 51
1.5253091724718579
  0
LINE
  5
6E8C
  8
0
 10
2990.4547562099801326
 20
38.5201409523083669
 30
0.0
 11
3043.9047586431420314
 21
38.52014095230831
 31
0.0
  0
LINE
  5
6E8D
  8
0
 10
3047.1797587879418643
 20
100.7315914329083029
 30
0.0
 11
3047.1797587879418643
 21
42.9848420962082614
 31
0.0
  0
ARC
  5
6E8E
  8
0
 10
3045.0046548810050808
 20
73.7233211867176976
 30
0.0
 40
0.7885450019640446
 50
274.4662665479622206
 51
356.3564961187485096
  0
ARC
  5
6E8F
  8
0
 10
3045.4453389487571258
 20
67.8925110421393043
 30
0.0
 40
3.3030006539860381
 50
82.7482021412068462
 51
90.2649259234084269
  0
LINE
  5
6E90
  8
0
 10
3047.1389877876417813
 20
100.7294547153082931
 30
0.0
 11
3047.1797587879418643
 21
100.7315914329083029
 31
0.0
  0
LINE
  5
6E91
  8
0
 10
2991.6254004682418781
 20
99.4809329928083059
 30
0.0
 11
3042.7341171077409854
 21
99.4809329928083059
 31
0.0
  0
ARC
  5
6E92
  8
0
 10
3043.0810408432080294
 20
123.3592155771273013
 30
0.0
 40
23.8808026509751201
 50
269.1676173799197045
 51
276.0910462949219095
  0
ARC
  5
6E93
  8
0
 10
3046.6438049306620997
 20
94.7258649427747343
 30
0.0
 40
4.9944754097227317
 50
93.0274795321702044
 51
101.8873600633993988
  0
ARC
  5
6E94
  8
0
 10
11875.9456104674700327
 20
-168057.2696137186139822
 30
0.0
 40
168388.6342796013050247
 50
93.0055546351912881
 51
93.0057192370443744
  0
ARC
  5
6E95
  8
0
 10
3046.8597538782400989
 20
99.8011930724561438
 30
0.0
 40
0.0625483017807696
 50
273.0767498460692764
 51
359.8532436870153219
  0
LINE
  5
6E96
  8
0
 10
3046.9223019748419574
 20
99.8010328626083094
 30
0.0
 11
3046.9223019748419574
 21
100.6711079159081947
 31
0.0
  0
ARC
  5
6E97
  8
0
 10
3046.9931555987632237
 20
100.6674388004195038
 30
0.0
 40
0.0709485618690393
 50
96.6998139987199465
 51
177.0356178381715893
  0
ARC
  5
6E98
  8
0
 10
3046.9042488179320571
 20
42.6860919251958819
 30
0.0
 40
0.2600000061127105
 50
91.9914142453118018
 51
177.9914179558201113
  0
LINE
  5
6E99
  8
0
 10
3047.1340983184418292
 20
22.4188714329082792
 30
0.0
 11
3047.1340983184418292
 21
38.52014095230831
 31
0.0
  0
ARC
  5
6E9A
  8
0
 10
3215.0042063547061844
 20
39.6269483821656934
 30
0.0
 40
167.8737567185355033
 50
178.8629679233289949
 51
180.3777591872942878
  0
LINE
  5
6E9B
  8
0
 10
3046.9627885794420763
 20
42.9188714329082828
 30
0.0
 11
3047.1627292478187883
 21
42.9188714329082828
 31
0.0
  0
LINE
  5
6E9C
  8
0
 10
3047.0372242375419773
 20
42.9188714329082828
 30
0.0
 11
3047.0383602956958384
 21
42.9509336875342171
 31
0.0
  0
ARC
  5
6E9D
  8
0
 10
3046.9627885794420763
 20
42.6438714329082984
 30
0.0
 40
0.2749999999999932
 50
90.0
 51
177.9987819023012889
  0
LINE
  5
6E9E
  8
0
 10
3046.687956306112028
 20
42.6534746373870632
 30
0.0
 11
3046.6807704377420123
 21
42.4478239584082928
 31
0.0
  0
ARC
  5
6E9F
  8
0
 10
3046.647454066283899
 20
42.4523246325871568
 30
0.0
 40
0.0336189927746337
 50
275.692553769398387
 51
352.3065461366578006
  0
ARC
  5
6EA0
  8
0
 10
3028.2206605387600575
 20
99.0724892997910445
 30
0.0
 40
0.082590736034968
 50
98.7086293287311918
 51
176.0578882937620051
  0
LINE
  5
6EA1
  8
0
 10
3028.2081555005420341
 20
99.1541278550082836
 30
0.0
 11
3035.3492654324409159
 21
99.1566104066082232
 31
0.0
  0
ARC
  5
6EA2
  8
0
 10
3035.3399974813919471
 20
99.071164037826037
 30
0.0
 40
0.0859475238429649
 50
4.6549835224725138
 51
83.8096064397835363
  0
LINE
  5
6EA3
  8
0
 10
3035.4256615036420044
 20
99.0781391469082848
 30
0.0
 11
3035.4256523585418108
 21
96.7015705516973583
 31
0.0
  0
ARC
  5
6EA4
  8
0
 10
3035.343418047420073
 20
96.7071004171516222
 30
0.0
 40
0.0824200299533133
 50
278.6135839955026086
 51
356.1529236846291724
  0
LINE
  5
6EA5
  8
0
 10
3035.3557620754418167
 20
96.6256100109082041
 30
0.0
 11
3028.2146521506419958
 21
96.6231274592082912
 31
0.0
  0
ARC
  5
6EA6
  8
0
 10
3028.2239142241678564
 20
96.7085681129149464
 30
0.0
 40
0.0859412084614658
 50
184.6514972331663103
 51
263.813091192919785
  0
LINE
  5
6EA7
  8
0
 10
3028.1382560722408925
 20
96.7015987284082996
 30
0.0
 11
3028.138265210841837
 21
99.0781672938082636
 31
0.0
  0
ARC
  5
6EA8
  8
0
 10
3020.9195605387590149
 20
99.0724892997910445
 30
0.0
 40
0.082590736034968
 50
98.7086293287311918
 51
176.0578882937620051
  0
LINE
  5
6EA9
  8
0
 10
3020.907055500541901
 20
99.1541278550082836
 30
0.0
 11
3028.0481654324407828
 21
99.1566104066082232
 31
0.0
  0
ARC
  5
6EAA
  8
0
 10
3028.0388974813918139
 20
99.071164037826037
 30
0.0
 40
0.0859475238429649
 50
4.6549835224725138
 51
83.8096064397835363
  0
LINE
  5
6EAB
  8
0
 10
3028.1245615036418712
 20
99.0781391469082848
 30
0.0
 11
3028.1245523585421324
 21
96.7015705516973583
 31
0.0
  0
ARC
  5
6EAC
  8
0
 10
3028.0423180474199398
 20
96.7071004171516222
 30
0.0
 40
0.0824200299533133
 50
278.6135839955026086
 51
356.1529236846291724
  0
LINE
  5
6EAD
  8
0
 10
3028.0546620754421383
 20
96.6256100109082041
 30
0.0
 11
3020.9135521506418627
 21
96.6231274592082912
 31
0.0
  0
ARC
  5
6EAE
  8
0
 10
3020.922814224168178
 20
96.7085681129149464
 30
0.0
 40
0.0859412084614658
 50
184.6514972331663103
 51
263.813091192919785
  0
LINE
  5
6EAF
  8
0
 10
3020.8371560722421236
 20
96.7015987284082996
 30
0.0
 11
3020.8371652108421586
 21
99.0781672938082636
 31
0.0
  0
ARC
  5
6EB0
  8
0
 10
3017.2690105387600852
 20
96.5244392997910552
 30
0.0
 40
0.082590736034968
 50
98.7086293287311918
 51
176.0578882937620051
  0
LINE
  5
6EB1
  8
0
 10
3017.2565055005411523
 20
96.6060778550082944
 30
0.0
 11
3024.3976154324409436
 21
96.608560406608234
 31
0.0
  0
ARC
  5
6EB2
  8
0
 10
3024.3883474813919747
 20
96.5231140378259909
 30
0.0
 40
0.0859475238429649
 50
4.6549835224725138
 51
83.8096064397835363
  0
LINE
  5
6EB3
  8
0
 10
3024.474011503642032
 20
96.5300891469082956
 30
0.0
 11
3024.4740023585418385
 21
94.153520551697369
 31
0.0
  0
ARC
  5
6EB4
  8
0
 10
3024.3917680474201006
 20
94.1590504171516329
 30
0.0
 40
0.0824200299533133
 50
278.6135839955026086
 51
356.1529236846291724
  0
LINE
  5
6EB5
  8
0
 10
3024.4041120754418444
 20
94.0775600109082148
 30
0.0
 11
3017.2630021506420235
 21
94.0750774592082877
 31
0.0
  0
ARC
  5
6EB6
  8
0
 10
3017.2722642241678841
 20
94.1605181129149571
 30
0.0
 40
0.0859412084614658
 50
184.6514972331663103
 51
263.813091192919785
  0
LINE
  5
6EB7
  8
0
 10
3017.1866060722418297
 20
94.1535487284082535
 30
0.0
 11
3017.1866152108409551
 21
96.5301172938082743
 31
0.0
  0
ARC
  5
6EB8
  8
0
 10
3024.5701105387602183
 20
96.5244392997910552
 30
0.0
 40
0.082590736034968
 50
98.7086293287311918
 51
176.0578882937620051
  0
LINE
  5
6EB9
  8
0
 10
3024.5576055005421949
 20
96.6060778550082944
 30
0.0
 11
3031.6987154324419862
 21
96.608560406608234
 31
0.0
  0
ARC
  5
6EBA
  8
0
 10
3031.6894474813921079
 20
96.5231140378259909
 30
0.0
 40
0.0859475238429649
 50
4.6549835224725138
 51
83.8096064397835363
  0
LINE
  5
6EBB
  8
0
 10
3031.7751115036421652
 20
96.5300891469082956
 30
0.0
 11
3031.7751023585419716
 21
94.153520551697369
 31
0.0
  0
ARC
  5
6EBC
  8
0
 10
3031.692868047419779
 20
94.1590504171516329
 30
0.0
 40
0.0824200299533133
 50
278.6135839955026086
 51
356.1529236846291724
  0
LINE
  5
6EBD
  8
0
 10
3031.7052120754419775
 20
94.0775600109082148
 30
0.0
 11
3024.5641021506421566
 21
94.0750774592082877
 31
0.0
  0
ARC
  5
6EBE
  8
0
 10
3024.5733642241680172
 20
94.1605181129149571
 30
0.0
 40
0.0859412084614658
 50
184.6514972331663103
 51
263.813091192919785
  0
LINE
  5
6EBF
  8
0
 10
3024.4877060722419628
 20
94.1535487284082535
 30
0.0
 11
3024.4877152108419978
 21
96.5301172938082743
 31
0.0
  0
ARC
  5
6EC0
  8
0
 10
3031.8712105387589872
 20
96.5244392997910552
 30
0.0
 40
0.082590736034968
 50
98.7086293287311918
 51
176.0578882937620051
  0
LINE
  5
6EC1
  8
0
 10
3031.8587055005418733
 20
96.6060778550082944
 30
0.0
 11
3038.9998154324421193
 21
96.608560406608234
 31
0.0
  0
ARC
  5
6EC2
  8
0
 10
3038.9905474813917863
 20
96.5231140378259909
 30
0.0
 40
0.0859475238429649
 50
4.6549835224725138
 51
83.8096064397835363
  0
LINE
  5
6EC3
  8
0
 10
3039.0762115036409341
 20
96.5300891469082956
 30
0.0
 11
3039.0762023585421048
 21
94.153520551697369
 31
0.0
  0
ARC
  5
6EC4
  8
0
 10
3038.9939680474199122
 20
94.1590504171516329
 30
0.0
 40
0.0824200299533133
 50
278.6135839955026086
 51
356.1529236846291724
  0
LINE
  5
6EC5
  8
0
 10
3039.0063120754421107
 20
94.0775600109082148
 30
0.0
 11
3031.8652021506409255
 21
94.0750774592082877
 31
0.0
  0
ARC
  5
6EC6
  8
0
 10
3031.8744642241690599
 20
94.1605181129149571
 30
0.0
 40
0.0859412084614658
 50
184.6514972331663103
 51
263.813091192919785
  0
LINE
  5
6EC7
  8
0
 10
3031.788806072242096
 20
94.1535487284082535
 30
0.0
 11
3031.7888152108421309
 21
96.5301172938082743
 31
0.0
  0
ARC
  5
6EC8
  8
0
 10
3020.9195605387590149
 20
93.9763892997910659
 30
0.0
 40
0.082590736034968
 50
98.7086293287311918
 51
176.0578882937620051
  0
LINE
  5
6EC9
  8
0
 10
3020.907055500541901
 20
94.0580278550083051
 30
0.0
 11
3028.0481654324407828
 21
94.0605104066082447
 31
0.0
  0
ARC
  5
6ECA
  8
0
 10
3028.0388974813918139
 20
93.9750640378260016
 30
0.0
 40
0.0859475238429649
 50
4.6549835224725138
 51
83.8096064397835363
  0
LINE
  5
6ECB
  8
0
 10
3028.1245615036418712
 20
93.9820391469083063
 30
0.0
 11
3028.1245523585421324
 21
91.6054705516973797
 31
0.0
  0
ARC
  5
6ECC
  8
0
 10
3028.0423180474199398
 20
91.6110004171515868
 30
0.0
 40
0.0824200299533133
 50
278.6135839955026086
 51
356.1529236846291724
  0
LINE
  5
6ECD
  8
0
 10
3028.0546620754421383
 20
91.5295100109081687
 30
0.0
 11
3020.9135521506418627
 21
91.5270274592083268
 31
0.0
  0
ARC
  5
6ECE
  8
0
 10
3020.922814224168178
 20
91.612468112914911
 30
0.0
 40
0.0859412084614658
 50
184.6514972331663103
 51
263.813091192919785
  0
LINE
  5
6ECF
  8
0
 10
3020.8371560722421236
 20
91.6054987284082642
 30
0.0
 11
3020.8371652108421586
 21
93.9820672938082851
 31
0.0
  0
ARC
  5
6ED0
  8
0
 10
3028.2206605387600575
 20
93.9763892997910659
 30
0.0
 40
0.082590736034968
 50
98.7086293287311918
 51
176.0578882937620051
  0
LINE
  5
6ED1
  8
0
 10
3028.2081555005420341
 20
94.0580278550083051
 30
0.0
 11
3035.3492654324409159
 21
94.0605104066082447
 31
0.0
  0
ARC
  5
6ED2
  8
0
 10
3035.3399974813919471
 20
93.9750640378260016
 30
0.0
 40
0.0859475238429649
 50
4.6549835224725138
 51
83.8096064397835363
  0
LINE
  5
6ED3
  8
0
 10
3035.4256615036420044
 20
93.9820391469083063
 30
0.0
 11
3035.4256523585418108
 21
91.6054705516973797
 31
0.0
  0
ARC
  5
6ED4
  8
0
 10
3035.343418047420073
 20
91.6110004171515868
 30
0.0
 40
0.0824200299533133
 50
278.6135839955026086
 51
356.1529236846291724
  0
LINE
  5
6ED5
  8
0
 10
3035.3557620754418167
 20
91.5295100109081687
 30
0.0
 11
3028.2146521506419958
 21
91.5270274592083268
 31
0.0
  0
ARC
  5
6ED6
  8
0
 10
3028.2239142241678564
 20
91.612468112914911
 30
0.0
 40
0.0859412084614658
 50
184.6514972331663103
 51
263.813091192919785
  0
LINE
  5
6ED7
  8
0
 10
3028.1382560722408925
 20
91.6054987284082642
 30
0.0
 11
3028.138265210841837
 21
93.9820672938082851
 31
0.0
  0
ARC
  5
6ED8
  8
0
 10
3035.5217605387601907
 20
93.9763892997910659
 30
0.0
 40
0.082590736034968
 50
98.7086293287311918
 51
176.0578882937620051
  0
LINE
  5
6ED9
  8
0
 10
3035.509255500540803
 20
94.0580278550083051
 30
0.0
 11
3042.6503654324419585
 21
94.0605104066082447
 31
0.0
  0
ARC
  5
6EDA
  8
0
 10
3042.6410974813911707
 20
93.9750640378260016
 30
0.0
 40
0.0859475238429649
 50
4.6549835224725138
 51
83.8096064397835363
  0
LINE
  5
6EDB
  8
0
 10
3042.7267615036421375
 20
93.9820391469083063
 30
0.0
 11
3042.726752358541944
 21
91.6054705516973797
 31
0.0
  0
ARC
  5
6EDC
  8
0
 10
3042.6445180474202061
 20
91.6110004171515868
 30
0.0
 40
0.0824200299533133
 50
278.6135839955026086
 51
356.1529236846291724
  0
LINE
  5
6EDD
  8
0
 10
3042.6568620754419499
 20
91.5295100109081687
 30
0.0
 11
3035.515752150642129
 21
91.5270274592083268
 31
0.0
  0
ARC
  5
6EDE
  8
0
 10
3035.5250142241679896
 20
91.612468112914911
 30
0.0
 40
0.0859412084614658
 50
184.6514972331663103
 51
263.813091192919785
  0
LINE
  5
6EDF
  8
0
 10
3035.4393560722419352
 20
91.6054987284082642
 30
0.0
 11
3035.4393652108419701
 21
93.9820672938082851
 31
0.0
  0
ARC
  5
6EE0
  8
0
 10
3031.8712105387589872
 20
91.4283392997910767
 30
0.0
 40
0.082590736034968
 50
98.7086293287311918
 51
176.0578882937620051
  0
LINE
  5
6EE1
  8
0
 10
3031.8587055005418733
 20
91.5099778550082448
 30
0.0
 11
3038.9998154324421193
 21
91.5124604066082554
 31
0.0
  0
ARC
  5
6EE2
  8
0
 10
3038.9905474813917863
 20
91.4270140378259981
 30
0.0
 40
0.0859475238429649
 50
4.6549835224725138
 51
83.8096064397835363
  0
LINE
  5
6EE3
  8
0
 10
3039.0762115036409341
 20
91.433989146908317
 30
0.0
 11
3039.0762023585421048
 21
89.0574205516973905
 31
0.0
  0
ARC
  5
6EE4
  8
0
 10
3038.9939680474199122
 20
89.0629504171515833
 30
0.0
 40
0.0824200299533133
 50
278.6135839955026086
 51
356.1529236846291724
  0
LINE
  5
6EE5
  8
0
 10
3039.0063120754421107
 20
88.9814600109081937
 30
0.0
 11
3031.8652021506409255
 21
88.9789774592082665
 31
0.0
  0
ARC
  5
6EE6
  8
0
 10
3031.8744642241690599
 20
89.0644181129149075
 30
0.0
 40
0.0859412084614658
 50
184.6514972331663103
 51
263.813091192919785
  0
LINE
  5
6EE7
  8
0
 10
3031.788806072242096
 20
89.057448728408275
 30
0.0
 11
3031.7888152108421309
 21
91.4340172938082958
 31
0.0
  0
ARC
  5
6EE8
  8
0
 10
3024.5701105387602183
 20
91.4283392997910767
 30
0.0
 40
0.082590736034968
 50
98.7086293287311918
 51
176.0578882937620051
  0
LINE
  5
6EE9
  8
0
 10
3024.5576055005421949
 20
91.5099778550082448
 30
0.0
 11
3031.6987154324419862
 21
91.5124604066082554
 31
0.0
  0
ARC
  5
6EEA
  8
0
 10
3031.6894474813921079
 20
91.4270140378259981
 30
0.0
 40
0.0859475238429649
 50
4.6549835224725138
 51
83.8096064397835363
  0
LINE
  5
6EEB
  8
0
 10
3031.7751115036421652
 20
91.433989146908317
 30
0.0
 11
3031.7751023585419716
 21
89.0574205516973905
 31
0.0
  0
ARC
  5
6EEC
  8
0
 10
3031.692868047419779
 20
89.0629504171515833
 30
0.0
 40
0.0824200299533133
 50
278.6135839955026086
 51
356.1529236846291724
  0
LINE
  5
6EED
  8
0
 10
3031.7052120754419775
 20
88.9814600109081937
 30
0.0
 11
3024.5641021506421566
 21
88.9789774592082665
 31
0.0
  0
ARC
  5
6EEE
  8
0
 10
3024.5733642241680172
 20
89.0644181129149075
 30
0.0
 40
0.0859412084614658
 50
184.6514972331663103
 51
263.813091192919785
  0
LINE
  5
6EEF
  8
0
 10
3024.4877060722419628
 20
89.057448728408275
 30
0.0
 11
3024.4877152108419978
 21
91.4340172938082958
 31
0.0
  0
ARC
  5
6EF0
  8
0
 10
3017.2690105387600852
 20
91.4283392997910767
 30
0.0
 40
0.082590736034968
 50
98.7086293287311918
 51
176.0578882937620051
  0
LINE
  5
6EF1
  8
0
 10
3017.2565055005411523
 20
91.5099778550082448
 30
0.0
 11
3024.3976154324409436
 21
91.5124604066082554
 31
0.0
  0
ARC
  5
6EF2
  8
0
 10
3024.3883474813919747
 20
91.4270140378259981
 30
0.0
 40
0.0859475238429649
 50
4.6549835224725138
 51
83.8096064397835363
  0
LINE
  5
6EF3
  8
0
 10
3024.474011503642032
 20
91.433989146908317
 30
0.0
 11
3024.4740023585418385
 21
89.0574205516973905
 31
0.0
  0
ARC
  5
6EF4
  8
0
 10
3024.3917680474201006
 20
89.0629504171515833
 30
0.0
 40
0.0824200299533133
 50
278.6135839955026086
 51
356.1529236846291724
  0
LINE
  5
6EF5
  8
0
 10
3024.4041120754418444
 20
88.9814600109081937
 30
0.0
 11
3017.2630021506420235
 21
88.9789774592082665
 31
0.0
  0
ARC
  5
6EF6
  8
0
 10
3017.2722642241678841
 20
89.0644181129149075
 30
0.0
 40
0.0859412084614658
 50
184.6514972331663103
 51
263.813091192919785
  0
LINE
  5
6EF7
  8
0
 10
3017.1866060722418297
 20
89.057448728408275
 30
0.0
 11
3017.1866152108409551
 21
91.4340172938082958
 31
0.0
  0
ARC
  5
6EF8
  8
0
 10
3020.9195605387590149
 20
88.8802892997910305
 30
0.0
 40
0.082590736034968
 50
98.7086293287311918
 51
176.0578882937620051
  0
LINE
  5
6EF9
  8
0
 10
3020.907055500541901
 20
88.9619278550082839
 30
0.0
 11
3028.0481654324407828
 21
88.9644104066082093
 31
0.0
  0
ARC
  5
6EFA
  8
0
 10
3028.0388974813918139
 20
88.8789640378260231
 30
0.0
 40
0.0859475238429649
 50
4.6549835224725138
 51
83.8096064397835363
  0
LINE
  5
6EFB
  8
0
 10
3028.1245615036418712
 20
88.8859391469082851
 30
0.0
 11
3028.1245523585421324
 21
86.5093705516973444
 31
0.0
  0
ARC
  5
6EFC
  8
0
 10
3028.0423180474199398
 20
86.5149004171516083
 30
0.0
 40
0.0824200299533133
 50
278.6135839955026086
 51
356.1529236846291724
  0
LINE
  5
6EFD
  8
0
 10
3028.0546620754421383
 20
86.4334100109082044
 30
0.0
 11
3020.9135521506418627
 21
86.4309274592082772
 31
0.0
  0
ARC
  5
6EFE
  8
0
 10
3020.922814224168178
 20
86.5163681129149467
 30
0.0
 40
0.0859412084614658
 50
184.6514972331663103
 51
263.813091192919785
  0
LINE
  5
6EFF
  8
0
 10
3020.8371560722421236
 20
86.5093987284082857
 30
0.0
 11
3020.8371652108421586
 21
88.8859672938083065
 31
0.0
  0
ARC
  5
6F00
  8
0
 10
3028.2206605387600575
 20
88.8802892997910305
 30
0.0
 40
0.082590736034968
 50
98.7086293287311918
 51
176.0578882937620051
  0
LINE
  5
6F01
  8
0
 10
3028.2081555005420341
 20
88.9619278550082839
 30
0.0
 11
3035.3492654324409159
 21
88.9644104066082093
 31
0.0
  0
ARC
  5
6F02
  8
0
 10
3035.3399974813919471
 20
88.8789640378260231
 30
0.0
 40
0.0859475238429649
 50
4.6549835224725138
 51
83.8096064397835363
  0
LINE
  5
6F03
  8
0
 10
3035.4256615036420044
 20
88.8859391469082851
 30
0.0
 11
3035.4256523585418108
 21
86.5093705516973444
 31
0.0
  0
ARC
  5
6F04
  8
0
 10
3035.343418047420073
 20
86.5149004171516083
 30
0.0
 40
0.0824200299533133
 50
278.6135839955026086
 51
356.1529236846291724
  0
LINE
  5
6F05
  8
0
 10
3035.3557620754418167
 20
86.4334100109082044
 30
0.0
 11
3028.2146521506419958
 21
86.4309274592082772
 31
0.0
  0
ARC
  5
6F06
  8
0
 10
3028.2239142241678564
 20
86.5163681129149467
 30
0.0
 40
0.0859412084614658
 50
184.6514972331663103
 51
263.813091192919785
  0
LINE
  5
6F07
  8
0
 10
3028.1382560722408925
 20
86.5093987284082857
 30
0.0
 11
3028.138265210841837
 21
88.8859672938083065
 31
0.0
  0
ARC
  5
6F08
  8
0
 10
3035.5217605387601907
 20
88.8802892997910305
 30
0.0
 40
0.082590736034968
 50
98.7086293287311918
 51
176.0578882937620051
  0
LINE
  5
6F09
  8
0
 10
3035.509255500540803
 20
88.9619278550082839
 30
0.0
 11
3042.6503654324419585
 21
88.9644104066082093
 31
0.0
  0
ARC
  5
6F0A
  8
0
 10
3042.6410974813911707
 20
88.8789640378260231
 30
0.0
 40
0.0859475238429649
 50
4.6549835224725138
 51
83.8096064397835363
  0
LINE
  5
6F0B
  8
0
 10
3042.7267615036421375
 20
88.8859391469082851
 30
0.0
 11
3042.726752358541944
 21
86.5093705516973444
 31
0.0
  0
ARC
  5
6F0C
  8
0
 10
3042.6445180474202061
 20
86.5149004171516083
 30
0.0
 40
0.0824200299533133
 50
278.6135839955026086
 51
356.1529236846291724
  0
LINE
  5
6F0D
  8
0
 10
3042.6568620754419499
 20
86.4334100109082044
 30
0.0
 11
3035.515752150642129
 21
86.4309274592082772
 31
0.0
  0
ARC
  5
6F0E
  8
0
 10
3035.5250142241679896
 20
86.5163681129149467
 30
0.0
 40
0.0859412084614658
 50
184.6514972331663103
 51
263.813091192919785
  0
LINE
  5
6F0F
  8
0
 10
3035.4393560722419352
 20
86.5093987284082857
 30
0.0
 11
3035.4393652108419701
 21
88.8859672938083065
 31
0.0
  0
ARC
  5
6F10
  8
0
 10
3031.8712105387589872
 20
86.3322392997910413
 30
0.0
 40
0.082590736034968
 50
98.7086293287311918
 51
176.0578882937620051
  0
LINE
  5
6F11
  8
0
 10
3031.8587055005418733
 20
86.4138778550082804
 30
0.0
 11
3038.9998154324421193
 21
86.41636040660822
 31
0.0
  0
ARC
  5
6F12
  8
0
 10
3038.9905474813917863
 20
86.3309140378259769
 30
0.0
 40
0.0859475238429649
 50
4.6549835224725138
 51
83.8096064397835363
  0
LINE
  5
6F13
  8
0
 10
3039.0762115036409341
 20
86.3378891469082816
 30
0.0
 11
3039.0762023585421048
 21
83.9613205516973551
 31
0.0
  0
ARC
  5
6F14
  8
0
 10
3038.9939680474199122
 20
83.966850417151619
 30
0.0
 40
0.0824200299533133
 50
278.6135839955026086
 51
356.1529236846291724
  0
LINE
  5
6F15
  8
0
 10
3039.0063120754421107
 20
83.8853600109082151
 30
0.0
 11
3031.8652021506409255
 21
83.882877459208288
 31
0.0
  0
ARC
  5
6F16
  8
0
 10
3031.8744642241690599
 20
83.9683181129149432
 30
0.0
 40
0.0859412084614658
 50
184.6514972331663103
 51
263.813091192919785
  0
LINE
  5
6F17
  8
0
 10
3031.788806072242096
 20
83.9613487284082964
 30
0.0
 11
3031.7888152108421309
 21
86.337917293808303
 31
0.0
  0
ARC
  5
6F18
  8
0
 10
3024.5701105387602183
 20
86.3322392997910413
 30
0.0
 40
0.082590736034968
 50
98.7086293287311918
 51
176.0578882937620051
  0
LINE
  5
6F19
  8
0
 10
3024.5576055005421949
 20
86.4138778550082804
 30
0.0
 11
3031.6987154324419862
 21
86.41636040660822
 31
0.0
  0
ARC
  5
6F1A
  8
0
 10
3031.6894474813921079
 20
86.3309140378259769
 30
0.0
 40
0.0859475238429649
 50
4.6549835224725138
 51
83.8096064397835363
  0
LINE
  5
6F1B
  8
0
 10
3031.7751115036421652
 20
86.3378891469082816
 30
0.0
 11
3031.7751023585419716
 21
83.9613205516973551
 31
0.0
  0
ARC
  5
6F1C
  8
0
 10
3031.692868047419779
 20
83.966850417151619
 30
0.0
 40
0.0824200299533133
 50
278.6135839955026086
 51
356.1529236846291724
  0
LINE
  5
6F1D
  8
0
 10
3031.7052120754419775
 20
83.8853600109082151
 30
0.0
 11
3024.5641021506421566
 21
83.882877459208288
 31
0.0
  0
ARC
  5
6F1E
  8
0
 10
3024.5733642241680172
 20
83.9683181129149432
 30
0.0
 40
0.0859412084614658
 50
184.6514972331663103
 51
263.813091192919785
  0
LINE
  5
6F1F
  8
0
 10
3024.4877060722419628
 20
83.9613487284082964
 30
0.0
 11
3024.4877152108419978
 21
86.337917293808303
 31
0.0
  0
ARC
  5
6F20
  8
0
 10
3017.2690105387600852
 20
86.3322392997910413
 30
0.0
 40
0.082590736034968
 50
98.7086293287311918
 51
176.0578882937620051
  0
LINE
  5
6F21
  8
0
 10
3017.2565055005411523
 20
86.4138778550082804
 30
0.0
 11
3024.3976154324409436
 21
86.41636040660822
 31
0.0
  0
ARC
  5
6F22
  8
0
 10
3024.3883474813919747
 20
86.3309140378259769
 30
0.0
 40
0.0859475238429649
 50
4.6549835224725138
 51
83.8096064397835363
  0
LINE
  5
6F23
  8
0
 10
3024.474011503642032
 20
86.3378891469082816
 30
0.0
 11
3024.4740023585418385
 21
83.9613205516973551
 31
0.0
  0
ARC
  5
6F24
  8
0
 10
3024.3917680474201006
 20
83.966850417151619
 30
0.0
 40
0.0824200299533133
 50
278.6135839955026086
 51
356.1529236846291724
  0
LINE
  5
6F25
  8
0
 10
3024.4041120754418444
 20
83.8853600109082151
 30
0.0
 11
3017.2630021506420235
 21
83.882877459208288
 31
0.0
  0
ARC
  5
6F26
  8
0
 10
3017.2722642241678841
 20
83.9683181129149432
 30
0.0
 40
0.0859412084614658
 50
184.6514972331663103
 51
263.813091192919785
  0
LINE
  5
6F27
  8
0
 10
3017.1866060722418297
 20
83.9613487284082964
 30
0.0
 11
3017.1866152108409551
 21
86.337917293808303
 31
0.0
  0
ARC
  5
6F28
  8
0
 10
3020.9195605387590149
 20
83.784189299791052
 30
0.0
 40
0.082590736034968
 50
98.7086293287311918
 51
176.0578882937620051
  0
LINE
  5
6F29
  8
0
 10
3020.907055500541901
 20
83.8658278550082912
 30
0.0
 11
3028.0481654324407828
 21
83.8683104066082308
 31
0.0
  0
ARC
  5
6F2A
  8
0
 10
3028.0388974813918139
 20
83.7828640378259877
 30
0.0
 40
0.0859475238429649
 50
4.6549835224725138
 51
83.8096064397835363
  0
LINE
  5
6F2B
  8
0
 10
3028.1245615036418712
 20
83.7898391469082924
 30
0.0
 11
3028.1245523585421324
 21
81.4132705516973658
 31
0.0
  0
ARC
  5
6F2C
  8
0
 10
3028.0423180474199398
 20
81.4188004171516297
 30
0.0
 40
0.0824200299533133
 50
278.6135839955026086
 51
356.1529236846291724
  0
LINE
  5
6F2D
  8
0
 10
3028.0546620754421383
 20
81.3373100109082259
 30
0.0
 11
3020.9135521506418627
 21
81.3348274592082845
 31
0.0
  0
ARC
  5
6F2E
  8
0
 10
3020.922814224168178
 20
81.4202681129149539
 30
0.0
 40
0.0859412084614658
 50
184.6514972331663103
 51
263.813091192919785
  0
LINE
  5
6F2F
  8
0
 10
3020.8371560722421236
 20
81.4132987284083072
 30
0.0
 11
3020.8371652108421586
 21
83.7898672938082711
 31
0.0
  0
ARC
  5
6F30
  8
0
 10
3028.2206605387600575
 20
83.784189299791052
 30
0.0
 40
0.082590736034968
 50
98.7086293287311918
 51
176.0578882937620051
  0
LINE
  5
6F31
  8
0
 10
3028.2081555005420341
 20
83.8658278550082912
 30
0.0
 11
3035.3492654324409159
 21
83.8683104066082308
 31
0.0
  0
ARC
  5
6F32
  8
0
 10
3035.3399974813919471
 20
83.7828640378259877
 30
0.0
 40
0.0859475238429649
 50
4.6549835224725138
 51
83.8096064397835363
  0
LINE
  5
6F33
  8
0
 10
3035.4256615036420044
 20
83.7898391469082924
 30
0.0
 11
3035.4256523585418108
 21
81.4132705516973658
 31
0.0
  0
ARC
  5
6F34
  8
0
 10
3035.343418047420073
 20
81.4188004171516297
 30
0.0
 40
0.0824200299533133
 50
278.6135839955026086
 51
356.1529236846291724
  0
LINE
  5
6F35
  8
0
 10
3035.3557620754418167
 20
81.3373100109082259
 30
0.0
 11
3028.2146521506419958
 21
81.3348274592082845
 31
0.0
  0
ARC
  5
6F36
  8
0
 10
3028.2239142241678564
 20
81.4202681129149539
 30
0.0
 40
0.0859412084614658
 50
184.6514972331663103
 51
263.813091192919785
  0
LINE
  5
6F37
  8
0
 10
3028.1382560722408925
 20
81.4132987284083072
 30
0.0
 11
3028.138265210841837
 21
83.7898672938082711
 31
0.0
  0
ARC
  5
6F38
  8
0
 10
3035.5217605387601907
 20
83.784189299791052
 30
0.0
 40
0.082590736034968
 50
98.7086293287311918
 51
176.0578882937620051
  0
LINE
  5
6F39
  8
0
 10
3035.509255500540803
 20
83.8658278550082912
 30
0.0
 11
3042.6503654324419585
 21
83.8683104066082308
 31
0.0
  0
ARC
  5
6F3A
  8
0
 10
3042.6410974813911707
 20
83.7828640378259877
 30
0.0
 40
0.0859475238429649
 50
4.6549835224725138
 51
83.8096064397835363
  0
LINE
  5
6F3B
  8
0
 10
3042.7267615036421375
 20
83.7898391469082924
 30
0.0
 11
3042.726752358541944
 21
81.4132705516973658
 31
0.0
  0
ARC
  5
6F3C
  8
0
 10
3042.6445180474202061
 20
81.4188004171516297
 30
0.0
 40
0.0824200299533133
 50
278.6135839955026086
 51
356.1529236846291724
  0
LINE
  5
6F3D
  8
0
 10
3042.6568620754419499
 20
81.3373100109082259
 30
0.0
 11
3035.515752150642129
 21
81.3348274592082845
 31
0.0
  0
ARC
  5
6F3E
  8
0
 10
3035.5250142241679896
 20
81.4202681129149539
 30
0.0
 40
0.0859412084614658
 50
184.6514972331663103
 51
263.813091192919785
  0
LINE
  5
6F3F
  8
0
 10
3035.4393560722419352
 20
81.4132987284083072
 30
0.0
 11
3035.4393652108419701
 21
83.7898672938082711
 31
0.0
  0
ARC
  5
6F40
  8
0
 10
3031.8715346310359564
 20
81.2360734553360828
 30
0.0
 40
0.082590736034968
 50
98.7086293287311918
 51
176.0578882937620051
  0
LINE
  5
6F41
  8
0
 10
3031.859029592817933
 20
81.317712010553322
 30
0.0
 11
3039.0001395247190885
 21
81.3201945621532616
 31
0.0
  0
ARC
  5
6F42
  8
0
 10
3038.990871573667846
 20
81.2347481933710185
 30
0.0
 40
0.0859475238429649
 50
4.6549835224725138
 51
83.8096064397835363
  0
LINE
  5
6F43
  8
0
 10
3039.0765355959179033
 20
81.2417233024533232
 30
0.0
 11
3039.0765264508190739
 21
78.8651547072423966
 31
0.0
  0
ARC
  5
6F44
  8
0
 10
3038.9942921396959719
 20
78.8706845726966606
 30
0.0
 40
0.0824200299533133
 50
278.6135839955026086
 51
356.1529236846291724
  0
LINE
  5
6F45
  8
0
 10
3039.0066361677181703
 20
78.7891941664532567
 30
0.0
 11
3031.8655262429178947
 21
78.7867116147533295
 31
0.0
  0
ARC
  5
6F46
  8
0
 10
3031.8747883164451196
 20
78.8721522684599847
 30
0.0
 40
0.0859412084614658
 50
184.6514972331663103
 51
263.813091192919785
  0
LINE
  5
6F47
  8
0
 10
3031.7891301645181557
 20
78.8651828839533238
 30
0.0
 11
3031.7891393031181906
 21
81.241751449353302
 31
0.0
  0
ARC
  5
6F48
  8
0
 10
3024.5701105387602183
 20
81.2361392997910485
 30
0.0
 40
0.082590736034968
 50
98.7086293287311918
 51
176.0578882937620051
  0
LINE
  5
6F49
  8
0
 10
3024.5576055005421949
 20
81.3177778550083019
 30
0.0
 11
3031.6987154324419862
 21
81.3202604066082273
 31
0.0
  0
ARC
  5
6F4A
  8
0
 10
3031.6894474813921079
 20
81.2348140378259984
 30
0.0
 40
0.0859475238429649
 50
4.6549835224725138
 51
83.8096064397835363
  0
LINE
  5
6F4B
  8
0
 10
3031.7751115036421652
 20
81.2417891469083031
 30
0.0
 11
3031.7751023585419716
 21
78.8652205516973765
 31
0.0
  0
ARC
  5
6F4C
  8
0
 10
3031.692868047419779
 20
78.8707504171515836
 30
0.0
 40
0.0824200299533133
 50
278.6135839955026086
 51
356.1529236846291724
  0
LINE
  5
6F4D
  8
0
 10
3031.7052120754419775
 20
78.7892600109082366
 30
0.0
 11
3024.5641021506421566
 21
78.7867774592083094
 31
0.0
  0
ARC
  5
6F4E
  8
0
 10
3024.5733642241680172
 20
78.8722181129149646
 30
0.0
 40
0.0859412084614658
 50
184.6514972331663103
 51
263.813091192919785
  0
LINE
  5
6F4F
  8
0
 10
3024.4877060722419628
 20
78.8652487284082611
 30
0.0
 11
3024.4877152108419978
 21
81.2418172938082677
 31
0.0
  0
ARC
  5
6F50
  8
0
 10
3017.2690105387600852
 20
81.2361392997910485
 30
0.0
 40
0.082590736034968
 50
98.7086293287311918
 51
176.0578882937620051
  0
LINE
  5
6F51
  8
0
 10
3017.2565055005411523
 20
81.3177778550083019
 30
0.0
 11
3024.3976154324409436
 21
81.3202604066082273
 31
0.0
  0
ARC
  5
6F52
  8
0
 10
3024.3883474813919747
 20
81.2348140378259984
 30
0.0
 40
0.0859475238429649
 50
4.6549835224725138
 51
83.8096064397835363
  0
LINE
  5
6F53
  8
0
 10
3024.474011503642032
 20
81.2417891469083031
 30
0.0
 11
3024.4740023585418385
 21
78.8652205516973765
 31
0.0
  0
ARC
  5
6F54
  8
0
 10
3024.3917680474201006
 20
78.8707504171515836
 30
0.0
 40
0.0824200299533133
 50
278.6135839955026086
 51
356.1529236846291724
  0
LINE
  5
6F55
  8
0
 10
3024.4041120754418444
 20
78.7892600109082366
 30
0.0
 11
3017.2630021506420235
 21
78.7867774592083094
 31
0.0
  0
ARC
  5
6F56
  8
0
 10
3017.2722642241678841
 20
78.8722181129149646
 30
0.0
 40
0.0859412084614658
 50
184.6514972331663103
 51
263.813091192919785
  0
LINE
  5
6F57
  8
0
 10
3017.1866060722418297
 20
78.8652487284082611
 30
0.0
 11
3017.1866152108409551
 21
81.2418172938082677
 31
0.0
  0
ARC
  5
6F58
  8
0
 10
3020.9195605387590149
 20
78.6880892997910735
 30
0.0
 40
0.082590736034968
 50
98.7086293287311918
 51
176.0578882937620051
  0
LINE
  5
6F59
  8
0
 10
3020.907055500541901
 20
78.7697278550083126
 30
0.0
 11
3028.0481654324407828
 21
78.7722104066082522
 31
0.0
  0
ARC
  5
6F5A
  8
0
 10
3028.0388974813918139
 20
78.6867640378259949
 30
0.0
 40
0.0859475238429649
 50
4.6549835224725138
 51
83.8096064397835363
  0
LINE
  5
6F5B
  8
0
 10
3028.1245615036418712
 20
78.6937391469083138
 30
0.0
 11
3028.1245523585421324
 21
76.3171705516973873
 31
0.0
  0
ARC
  5
6F5C
  8
0
 10
3028.0423180474199398
 20
76.3227004171515944
 30
0.0
 40
0.0824200299533133
 50
278.6135839955026086
 51
356.1529236846291724
  0
LINE
  5
6F5D
  8
0
 10
3028.0546620754421383
 20
76.2412100109081905
 30
0.0
 11
3020.9135521506418627
 21
76.2387274592083202
 31
0.0
  0
ARC
  5
6F5E
  8
0
 10
3020.922814224168178
 20
76.3241681129149043
 30
0.0
 40
0.0859412084614658
 50
184.6514972331663103
 51
263.813091192919785
  0
LINE
  5
6F5F
  8
0
 10
3020.8371560722421236
 20
76.3171987284082718
 30
0.0
 11
3020.8371652108421586
 21
78.6937672938082926
 31
0.0
  0
ARC
  5
6F60
  8
0
 10
3028.2206605387600575
 20
78.6880892997910735
 30
0.0
 40
0.082590736034968
 50
98.7086293287311918
 51
176.0578882937620051
  0
LINE
  5
6F61
  8
0
 10
3028.2081555005420341
 20
78.7697278550083126
 30
0.0
 11
3035.3492654324409159
 21
78.7722104066082522
 31
0.0
  0
ARC
  5
6F62
  8
0
 10
3035.3399974813919471
 20
78.6867640378259949
 30
0.0
 40
0.0859475238429649
 50
4.6549835224725138
 51
83.8096064397835363
  0
LINE
  5
6F63
  8
0
 10
3035.4256615036420044
 20
78.6937391469083138
 30
0.0
 11
3035.4256523585418108
 21
76.3171705516973873
 31
0.0
  0
ARC
  5
6F64
  8
0
 10
3035.343418047420073
 20
76.3227004171515944
 30
0.0
 40
0.0824200299533133
 50
278.6135839955026086
 51
356.1529236846291724
  0
LINE
  5
6F65
  8
0
 10
3035.3557620754418167
 20
76.2412100109081905
 30
0.0
 11
3028.2146521506419958
 21
76.2387274592083202
 31
0.0
  0
ARC
  5
6F66
  8
0
 10
3028.2239142241678564
 20
76.3241681129149043
 30
0.0
 40
0.0859412084614658
 50
184.6514972331663103
 51
263.813091192919785
  0
LINE
  5
6F67
  8
0
 10
3028.1382560722408925
 20
76.3171987284082718
 30
0.0
 11
3028.138265210841837
 21
78.6937672938082926
 31
0.0
  0
ARC
  5
6F68
  8
0
 10
3035.5217605387601907
 20
78.6880892997910735
 30
0.0
 40
0.082590736034968
 50
98.7086293287311918
 51
176.0578882937620051
  0
LINE
  5
6F69
  8
0
 10
3035.509255500540803
 20
78.7697278550083126
 30
0.0
 11
3042.6503654324419585
 21
78.7722104066082522
 31
0.0
  0
ARC
  5
6F6A
  8
0
 10
3042.6410974813911707
 20
78.6867640378259949
 30
0.0
 40
0.0859475238429649
 50
4.6549835224725138
 51
83.8096064397835363
  0
LINE
  5
6F6B
  8
0
 10
3042.7267615036421375
 20
78.6937391469083138
 30
0.0
 11
3042.726752358541944
 21
76.3171705516973873
 31
0.0
  0
ARC
  5
6F6C
  8
0
 10
3042.6445180474202061
 20
76.3227004171515944
 30
0.0
 40
0.0824200299533133
 50
278.6135839955026086
 51
356.1529236846291724
  0
LINE
  5
6F6D
  8
0
 10
3042.6568620754419499
 20
76.2412100109081905
 30
0.0
 11
3035.515752150642129
 21
76.2387274592083202
 31
0.0
  0
ARC
  5
6F6E
  8
0
 10
3035.5250142241679896
 20
76.3241681129149043
 30
0.0
 40
0.0859412084614658
 50
184.6514972331663103
 51
263.813091192919785
  0
LINE
  5
6F6F
  8
0
 10
3035.4393560722419352
 20
76.3171987284082718
 30
0.0
 11
3035.4393652108419701
 21
78.6937672938082926
 31
0.0
  0
ARC
  5
6F70
  8
0
 10
3031.8712105387589872
 20
76.1400392997910131
 30
0.0
 40
0.082590736034968
 50
98.7086293287311918
 51
176.0578882937620051
  0
LINE
  5
6F71
  8
0
 10
3031.8587055005418733
 20
76.2216778550082665
 30
0.0
 11
3038.9998154324421193
 21
76.2241604066082061
 31
0.0
  0
ARC
  5
6F72
  8
0
 10
3038.9905474813917863
 20
76.1387140378260199
 30
0.0
 40
0.0859475238429649
 50
4.6549835224725138
 51
83.8096064397835363
  0
LINE
  5
6F73
  8
0
 10
3039.0762115036409341
 20
76.1456891469083246
 30
0.0
 11
3039.0762023585421048
 21
73.7691205516973412
 31
0.0
  0
ARC
  5
6F74
  8
0
 10
3038.9939680474199122
 20
73.7746504171516051
 30
0.0
 40
0.0824200299533133
 50
278.6135839955026086
 51
356.1529236846291724
  0
LINE
  5
6F75
  8
0
 10
3039.0063120754421107
 20
73.6931600109082012
 30
0.0
 11
3031.8652021506409255
 21
73.6906774592082741
 31
0.0
  0
ARC
  5
6F76
  8
0
 10
3031.8744642241690599
 20
73.7761181129149293
 30
0.0
 40
0.0859412084614658
 50
184.6514972331663103
 51
263.813091192919785
  0
LINE
  5
6F77
  8
0
 10
3031.788806072242096
 20
73.7691487284082825
 30
0.0
 11
3031.7888152108421309
 21
76.1457172938083033
 31
0.0
  0
ARC
  5
6F78
  8
0
 10
3024.5701105387602183
 20
76.1400392997910131
 30
0.0
 40
0.082590736034968
 50
98.7086293287311918
 51
176.0578882937620051
  0
LINE
  5
6F79
  8
0
 10
3024.5576055005421949
 20
76.2216778550082665
 30
0.0
 11
3031.6987154324419862
 21
76.2241604066082061
 31
0.0
  0
ARC
  5
6F7A
  8
0
 10
3031.6894474813921079
 20
76.1387140378260199
 30
0.0
 40
0.0859475238429649
 50
4.6549835224725138
 51
83.8096064397835363
  0
LINE
  5
6F7B
  8
0
 10
3031.7751115036421652
 20
76.1456891469083246
 30
0.0
 11
3031.7751023585419716
 21
73.7691205516973412
 31
0.0
  0
ARC
  5
6F7C
  8
0
 10
3031.692868047419779
 20
73.7746504171516051
 30
0.0
 40
0.0824200299533133
 50
278.6135839955026086
 51
356.1529236846291724
  0
LINE
  5
6F7D
  8
0
 10
3031.7052120754419775
 20
73.6931600109082012
 30
0.0
 11
3024.5641021506421566
 21
73.6906774592082741
 31
0.0
  0
ARC
  5
6F7E
  8
0
 10
3024.5733642241680172
 20
73.7761181129149293
 30
0.0
 40
0.0859412084614658
 50
184.6514972331663103
 51
263.813091192919785
  0
LINE
  5
6F7F
  8
0
 10
3024.4877060722419628
 20
73.7691487284082825
 30
0.0
 11
3024.4877152108419978
 21
76.1457172938083033
 31
0.0
  0
ARC
  5
6F80
  8
0
 10
3017.2690105387600852
 20
76.1400392997910131
 30
0.0
 40
0.082590736034968
 50
98.7086293287311918
 51
176.0578882937620051
  0
LINE
  5
6F81
  8
0
 10
3017.2565055005411523
 20
76.2216778550082665
 30
0.0
 11
3024.3976154324409436
 21
76.2241604066082061
 31
0.0
  0
ARC
  5
6F82
  8
0
 10
3024.3883474813919747
 20
76.1387140378260199
 30
0.0
 40
0.0859475238429649
 50
4.6549835224725138
 51
83.8096064397835363
  0
LINE
  5
6F83
  8
0
 10
3024.474011503642032
 20
76.1456891469083246
 30
0.0
 11
3024.4740023585418385
 21
73.7691205516973412
 31
0.0
  0
ARC
  5
6F84
  8
0
 10
3024.3917680474201006
 20
73.7746504171516051
 30
0.0
 40
0.0824200299533133
 50
278.6135839955026086
 51
356.1529236846291724
  0
LINE
  5
6F85
  8
0
 10
3024.4041120754418444
 20
73.6931600109082012
 30
0.0
 11
3017.2630021506420235
 21
73.6906774592082741
 31
0.0
  0
ARC
  5
6F86
  8
0
 10
3017.2722642241678841
 20
73.7761181129149293
 30
0.0
 40
0.0859412084614658
 50
184.6514972331663103
 51
263.813091192919785
  0
LINE
  5
6F87
  8
0
 10
3017.1866060722418297
 20
73.7691487284082825
 30
0.0
 11
3017.1866152108409551
 21
76.1457172938083033
 31
0.0
  0
ARC
  5
6F88
  8
0
 10
3047.426697071649869
 20
93.6711051073212104
 30
0.0
 40
1.6165649126030699
 50
166.0368440684389952
 51
178.7003171073747865
  0
LINE
  5
6F89
  8
0
 10
3045.810548044827101
 20
93.7077717100498546
 30
0.0
 11
3045.8105480441408872
 21
91.8797689329091156
 31
0.0
  0
ARC
  5
6F8A
  8
0
 10
3047.4283418507361603
 20
91.9166528521342627
 30
0.0
 40
1.618214208364283
 50
181.3060544878989901
 51
193.9566661938935965
  0
ARC
  5
6F8B
  8
0
 10
3042.8206237051608696
 20
93.9815408321402259
 30
0.0
 40
0.0796300539901669
 50
89.0823246574788215
 51
183.0096542621299989
  0
LINE
  5
6F8C
  8
0
 10
3042.8218990419040892
 20
94.061160672724526
 30
0.0
 11
3045.8578998843408954
 21
94.0611788205495998
 31
0.0
  0
LINE
  5
6F8D
  8
0
 10
3045.8578998849561685
 20
91.5263590445092348
 30
0.0
 11
3042.8220472855891785
 21
91.5262250670677133
 31
0.0
  0
ARC
  5
6F8E
  8
0
 10
3042.820807826481996
 20
91.6060949174770656
 30
0.0
 40
0.0798794670943839
 50
177.0077559573117867
 51
270.8890723521619748
  0
LINE
  5
6F8F
  8
0
 10
3042.7410372662411646
 20
91.6102646875090869
 30
0.0
 11
3042.7411034847418705
 21
93.9773599180091139
 31
0.0
  0
ARC
  5
6F90
  8
0
 10
3042.8206237051608696
 20
88.8854408321404037
 30
0.0
 40
0.0796300539901669
 50
89.0823246574788215
 51
183.0096542621299989
  0
LINE
  5
6F91
  8
0
 10
3042.8218990419040892
 20
88.9650606727246753
 30
0.0
 11
3045.8578998843408954
 21
88.9650788205497349
 31
0.0
  0
LINE
  5
6F92
  8
0
 10
3045.8578998849561685
 20
86.4302590445094268
 30
0.0
 11
3042.8220472855891785
 21
86.4301250670679053
 31
0.0
  0
ARC
  5
6F93
  8
0
 10
3042.820807826481996
 20
86.5099949174772007
 30
0.0
 40
0.0798794670943839
 50
177.0077559573117867
 51
270.8890723521619748
  0
LINE
  5
6F94
  8
0
 10
3042.7410372662411646
 20
86.5141646875092363
 30
0.0
 11
3042.7411034847418705
 21
88.8812599180092349
 31
0.0
  0
ARC
  5
6F95
  8
0
 10
3047.4266851784332175
 20
83.4789051064301759
 30
0.0
 40
1.6165649126030699
 50
166.0368440684420932
 51
178.7003171073747865
  0
LINE
  5
6F96
  8
0
 10
3045.8105361516099947
 20
83.5155717091588201
 30
0.0
 11
3045.8105361509251452
 21
81.6875689320180669
 31
0.0
  0
ARC
  5
6F97
  8
0
 10
3047.428329957519054
 20
81.7244528512432282
 30
0.0
 40
1.618214208364283
 50
181.3060544878989901
 51
193.9566661938935965
  0
ARC
  5
6F98
  8
0
 10
3042.8206118119442181
 20
83.789340831249163
 30
0.0
 40
0.0796300539901669
 50
89.0823246574788215
 51
183.0096542621299989
  0
LINE
  5
6F99
  8
0
 10
3042.821887148686983
 20
83.8689606718334772
 30
0.0
 11
3045.8578879911251533
 21
83.8689788196585653
 31
0.0
  0
LINE
  5
6F9A
  8
0
 10
3045.8578879917399718
 20
81.3341590436182003
 30
0.0
 11
3042.8220353923720722
 21
81.3340250661766788
 31
0.0
  0
ARC
  5
6F9B
  8
0
 10
3042.8207959332657992
 20
81.4138949165860311
 30
0.0
 40
0.0798794670943839
 50
177.0077559573117867
 51
270.8890723521619748
  0
LINE
  5
6F9C
  8
0
 10
3042.7410253730240584
 20
81.4180646866180666
 30
0.0
 11
3042.741091591525219
 21
83.7851599171180652
 31
0.0
  0
ARC
  5
6F9D
  8
0
 10
3047.4266973969261016
 20
78.3828050648578767
 30
0.0
 40
1.616565238696688
 50
166.0368453636482116
 51
178.7003164681044041
  0
LINE
  5
6F9E
  8
0
 10
3045.8105480445019566
 20
78.4194716930148559
 30
0.0
 11
3045.8105480438171071
 21
76.5914689158741169
 31
0.0
  0
ARC
  5
6F9F
  8
0
 10
3047.4283414863261896
 20
76.6283528066452106
 30
0.0
 40
1.6182138437253071
 50
181.3060537745205067
 51
193.9566677405067878
  0
ARC
  5
6FA0
  8
0
 10
3042.820623735468871
 20
78.6932408048791245
 30
0.0
 40
0.0796300831407492
 50
89.0823468040049704
 51
183.0096337336011914
  0
LINE
  5
6FA1
  8
0
 10
3042.8218990419040892
 20
78.7728606751032032
 30
0.0
 11
3045.8578998843408954
 21
78.7728788213082964
 31
0.0
  0
LINE
  5
6FA2
  8
0
 10
3045.8578998849561685
 20
76.2380590445748965
 30
0.0
 11
3042.8220497326187797
 21
76.237925028364856
 31
0.0
  0
ARC
  5
6FA3
  8
0
 10
3042.82080732154418
 20
76.317793491878291
 30
0.0
 40
0.0798781262253188
 50
177.0066720221012986
 51
270.8912049506047879
  0
LINE
  5
6FA4
  8
0
 10
3042.741038179241059
 20
76.3219647010082838
 30
0.0
 11
3042.741103484442192
 21
78.6890599177088177
 31
0.0
  0
ARC
  5
6FA5
  8
0
 10
3039.1723105387600299
 20
96.5244392997910552
 30
0.0
 40
0.082590736034968
 50
98.7086293287311918
 51
176.0578882937620051
  0
LINE
  5
6FA6
  8
0
 10
3039.1598055005420065
 20
96.6060778550082944
 30
0.0
 11
3045.8578998819671142
 21
96.6084063956808166
 31
0.0
  0
LINE
  5
6FA7
  8
0
 10
3045.8578998843408954
 20
94.0774037414675348
 30
0.0
 11
3039.1663021506419682
 21
94.0750774592082877
 31
0.0
  0
ARC
  5
6FA8
  8
0
 10
3039.1755642241678288
 20
94.1605181129149571
 30
0.0
 40
0.0859412084614658
 50
184.6514972331663103
 51
263.813091192919785
  0
LINE
  5
6FA9
  8
0
 10
3039.0899060722417744
 20
94.1535487284083104
 30
0.0
 11
3039.0899152108418093
 21
96.5301172938082743
 31
0.0
  0
ARC
  5
6FAA
  8
0
 10
3047.3241213583000899
 20
94.4471881232144312
 30
0.0
 40
1.4985765344588109
 50
180.7402684163834863
 51
191.063567459646606
  0
LINE
  5
6FAB
  8
0
 10
3045.8256699004409711
 20
94.4278268714114546
 30
0.0
 11
3045.8256808342098338
 21
96.2558333519615701
 31
0.0
  0
ARC
  5
6FAC
  8
0
 10
3047.3518968615771882
 20
96.2337835651339049
 30
0.0
 40
1.526360408779335
 50
169.0840592185953142
 51
179.1728408020861139
  0
ARC
  5
6FAD
  8
0
 10
3039.1723105387600299
 20
91.4283392997910767
 30
0.0
 40
0.082590736034968
 50
98.7086293287311918
 51
176.0578882937620051
  0
LINE
  5
6FAE
  8
0
 10
3039.1598055005420065
 20
91.5099778550083158
 30
0.0
 11
3045.8578998848420269
 21
91.5123063956818044
 31
0.0
  0
LINE
  5
6FAF
  8
0
 10
3045.8578998848220181
 20
88.9813037414676558
 30
0.0
 11
3039.1663021506419682
 21
88.9789774592083234
 31
0.0
  0
ARC
  5
6FB0
  8
0
 10
3039.1755642241678288
 20
89.0644181129149075
 30
0.0
 40
0.0859412084614658
 50
184.6514972331663103
 51
263.813091192919785
  0
LINE
  5
6FB1
  8
0
 10
3039.0899060722417744
 20
89.057448728408275
 30
0.0
 11
3039.0899152108418093
 21
91.4340172938082958
 31
0.0
  0
ARC
  5
6FB2
  8
0
 10
3047.3241213583000899
 20
89.3510881232144527
 30
0.0
 40
1.4985765344588109
 50
180.7402684163834863
 51
191.063567459646606
  0
LINE
  5
6FB3
  8
0
 10
3045.8256699004409711
 20
89.3317268714114618
 30
0.0
 11
3045.8256808342098338
 21
91.1597333519615916
 31
0.0
  0
ARC
  5
6FB4
  8
0
 10
3047.3518968615771882
 20
91.1376835651338837
 30
0.0
 40
1.526360408779335
 50
169.0840592185953142
 51
179.1728408020861139
  0
ARC
  5
6FB5
  8
0
 10
3039.1723105387600299
 20
86.3322392997910413
 30
0.0
 40
0.082590736034968
 50
98.7086293287311918
 51
176.0578882937620051
  0
LINE
  5
6FB6
  8
0
 10
3039.1598055005420065
 20
86.4138778550082804
 30
0.0
 11
3045.857899884840208
 21
86.416206395681769
 31
0.0
  0
LINE
  5
6FB7
  8
0
 10
3045.8578905787740041
 20
83.8852037382324909
 30
0.0
 11
3039.1663021506419682
 21
83.882877459208288
 31
0.0
  0
ARC
  5
6FB8
  8
0
 10
3039.1755642241678288
 20
83.9683181129149432
 30
0.0
 40
0.0859412084614658
 50
184.6514972331663103
 51
263.813091192919785
  0
LINE
  5
6FB9
  8
0
 10
3039.0899060722417744
 20
83.9613487284082964
 30
0.0
 11
3039.0899152108418093
 21
86.337917293808303
 31
0.0
  0
ARC
  5
6FBA
  8
0
 10
3047.3241213583000899
 20
84.2549881232144031
 30
0.0
 40
1.4985765344588109
 50
180.7402684163834863
 51
191.063567459646606
  0
LINE
  5
6FBB
  8
0
 10
3045.8256699004409711
 20
84.2356268714114265
 30
0.0
 11
3045.8256808342098338
 21
86.0636333519615562
 31
0.0
  0
ARC
  5
6FBC
  8
0
 10
3047.3518968615771882
 20
86.0415835651338909
 30
0.0
 40
1.526360408779335
 50
169.0840592185953142
 51
179.1728408020861139
  0
ARC
  5
6FBD
  8
0
 10
3039.1723105387600299
 20
81.2361392997910485
 30
0.0
 40
0.082590736034968
 50
98.7086293287311918
 51
176.0578882937620051
  0
LINE
  5
6FBE
  8
0
 10
3039.1598055005420065
 20
81.3177778550083019
 30
0.0
 11
3045.8578902364602072
 21
81.3201063923276308
 31
0.0
  0
LINE
  5
6FBF
  8
0
 10
3045.8578998843408954
 20
78.7891037414674713
 30
0.0
 11
3039.1663021506419682
 21
78.7867774592083094
 31
0.0
  0
ARC
  5
6FC0
  8
0
 10
3039.1755642241678288
 20
78.8722181129149646
 30
0.0
 40
0.0859412084614658
 50
184.6514972331663103
 51
263.813091192919785
  0
LINE
  5
6FC1
  8
0
 10
3039.0899060722417744
 20
78.8652487284083179
 30
0.0
 11
3039.0899152108418093
 21
81.2418172938082677
 31
0.0
  0
ARC
  5
6FC2
  8
0
 10
3047.3241213583000899
 20
79.1588881232144388
 30
0.0
 40
1.4985765344588109
 50
180.7402684163834863
 51
191.063567459646606
  0
LINE
  5
6FC3
  8
0
 10
3045.8256699004409711
 20
79.1395268714114337
 30
0.0
 11
3045.8256808342098338
 21
80.9675333519615776
 31
0.0
  0
ARC
  5
6FC4
  8
0
 10
3047.3518968615771882
 20
80.9454835651338556
 30
0.0
 40
1.526360408779335
 50
169.0840592185953142
 51
179.1728408020861139
  0
ARC
  5
6FC5
  8
0
 10
3039.1723105387600299
 20
76.1400392997910131
 30
0.0
 40
0.082590736034968
 50
98.7086293287311918
 51
176.0578882937620051
  0
LINE
  5
6FC6
  8
0
 10
3039.1598055005420065
 20
76.2216778550082665
 30
0.0
 11
3045.8578998861048603
 21
76.2240063956822098
 31
0.0
  0
LINE
  5
6FC7
  8
0
 10
3045.8579001113580489
 20
73.6930037415463914
 30
0.0
 11
3039.1663021506419682
 21
73.6906774592082741
 31
0.0
  0
ARC
  5
6FC8
  8
0
 10
3039.1755642241678288
 20
73.7761181129149293
 30
0.0
 40
0.0859412084614658
 50
184.6514972331663103
 51
263.813091192919785
  0
LINE
  5
6FC9
  8
0
 10
3039.0899060722417744
 20
73.7691487284082825
 30
0.0
 11
3039.0899152108418093
 21
76.1457172938083033
 31
0.0
  0
ARC
  5
6FCA
  8
0
 10
3047.3241213583000899
 20
74.0627881232144034
 30
0.0
 40
1.4985765344588109
 50
180.7402684163834863
 51
191.063567459646606
  0
LINE
  5
6FCB
  8
0
 10
3045.8256699004409711
 20
74.0434268714114125
 30
0.0
 11
3045.8256808342098338
 21
75.8714333519615423
 31
0.0
  0
ARC
  5
6FCC
  8
0
 10
3047.3518968615771882
 20
75.849383565133877
 30
0.0
 40
1.526360408779335
 50
169.0840592185953142
 51
179.1728408020861139
  0
LINE
  5
6FCD
  8
0
 10
3045.8578998814141414
 20
96.6224590445083038
 30
0.0
 11
3045.8578998843408954
 21
96.5480078044819123
 31
0.0
  0
LINE
  5
6FCE
  8
0
 10
3045.8578998843408954
 20
96.5480078044819123
 30
0.0
 11
3045.8531543192420941
 21
96.5228283528083182
 31
0.0
  0
LINE
  5
6FCF
  8
0
 10
3045.8578998843408954
 20
94.0611788205495998
 30
0.0
 11
3045.8578998843408954
 21
94.1357509286082887
 31
0.0
  0
LINE
  5
6FD0
  8
0
 10
3045.8578998843408954
 20
94.1357509286082887
 30
0.0
 11
3045.853396042391978
 21
94.1596143504580994
 31
0.0
  0
LINE
  5
6FD1
  8
0
 10
3045.8578998849579875
 20
91.5263590445008788
 30
0.0
 11
3045.8578998843408954
 21
91.4519076449082888
 31
0.0
  0
LINE
  5
6FD2
  8
0
 10
3045.8578998843408954
 20
91.4519076449082888
 30
0.0
 11
3045.8531543192420941
 21
91.4267283528082828
 31
0.0
  0
LINE
  5
6FD3
  8
0
 10
3045.8578998849561685
 20
88.9650788204491789
 30
0.0
 11
3045.8578998843408954
 21
89.0396509286083244
 31
0.0
  0
LINE
  5
6FD4
  8
0
 10
3045.8578998843408954
 20
89.0396509286083244
 30
0.0
 11
3045.853396042391978
 21
89.0635143504573819
 31
0.0
  0
LINE
  5
6FD5
  8
0
 10
3045.8578998849561685
 20
86.4302590445704766
 30
0.0
 11
3045.8578998843408954
 21
86.3558076449082961
 31
0.0
  0
LINE
  5
6FD6
  8
0
 10
3045.8578998843408954
 20
86.3558076449082961
 30
0.0
 11
3045.8531543192420941
 21
86.3306283528083043
 31
0.0
  0
LINE
  5
6FD7
  8
0
 10
3045.8578879911251533
 20
83.8689788196585653
 30
0.0
 11
3045.8578998843408954
 21
83.943550928608289
 31
0.0
  0
LINE
  5
6FD8
  8
0
 10
3045.8578998843408954
 20
83.943550928608289
 30
0.0
 11
3045.853396042391978
 21
83.9674143504574033
 31
0.0
  0
LINE
  5
6FD9
  8
0
 10
3045.8578879917399718
 20
81.3341590436180866
 30
0.0
 11
3045.8578998843408954
 21
81.2597076449082749
 31
0.0
  0
LINE
  5
6FDA
  8
0
 10
3045.8578998843408954
 20
81.2597076449082749
 30
0.0
 11
3045.8531543192420941
 21
81.2345283528082689
 31
0.0
  0
LINE
  5
6FDB
  8
0
 10
3045.8578998843408954
 20
78.7728788213082964
 30
0.0
 11
3045.8578998843408954
 21
78.8474509286083105
 31
0.0
  0
LINE
  5
6FDC
  8
0
 10
3045.8578998843408954
 20
78.8474509286083105
 30
0.0
 11
3045.8533960417848903
 21
78.8713143535593701
 31
0.0
  0
LINE
  5
6FDD
  8
0
 10
3045.8578998849561685
 20
76.2380590445748965
 30
0.0
 11
3045.8578998910411428
 21
76.1636076797082922
 31
0.0
  0
LINE
  5
6FDE
  8
0
 10
3045.8578998910411428
 20
76.1636076797082922
 30
0.0
 11
3045.8531543192420941
 21
76.1384283528082904
 31
0.0
  0
LINE
  5
6FDF
  8
0
 10
3045.8529282414660884
 20
73.6040407809155965
 30
0.0
 11
3045.8579001171378877
 21
73.6283486592453471
 31
0.0
  0
LINE
  5
6FE0
  8
0
 10
3045.8579001171378877
 20
73.6283486592453471
 30
0.0
 11
3045.8579001061420968
 21
73.7513497710083072
 31
0.0
  0
LINE
  5
6FE1
  8
0
 10
3045.8579001061420968
 20
73.7513497710083072
 30
0.0
 11
3045.853396042391978
 21
73.7752143504570483
 31
0.0
  0
ARC
  5
6FE2
  8
0
 10
3047.2702073115237908
 20
73.3101822873782965
 30
0.0
 40
1.447422805074277
 50
168.2862739863302863
 51
179.4780272873476861
  0
LINE
  5
6FE3
  8
0
 10
3045.8228445702420686
 20
73.3233683329083021
 30
0.0
 11
3045.8228445702420686
 21
71.4953683329083276
 31
0.0
  0
ARC
  5
6FE4
  8
0
 10
3047.4067738481608103
 20
71.5212736606942201
 30
0.0
 40
1.584141105917636
 50
180.9369948830083104
 51
193.6039619736496036
  0
LINE
  5
6FE5
  8
0
 10
3045.6885403667420178
 20
73.6769666441083189
 30
0.0
 11
2988.6709772091421655
 21
73.6769666441083189
 31
0.0
  0
ARC
  5
6FE6
  8
0
 10
3045.682879549298832
 20
72.1057385290719424
 30
0.0
 40
1.5712383123939999
 50
86.0320775262706547
 51
89.7935757757743431
  0
LINE
  5
6FE7
  8
0
 10
3045.6586889028421865
 20
71.2096252240083061
 30
0.0
 11
2988.7008259502799774
 21
71.2096252240083061
 31
0.0
  0
ARC
  5
6FE8
  8
0
 10
3045.2439297788191652
 20
25.3989037008633716
 30
0.0
 40
45.8125990487561694
 50
89.236951471586508
 51
89.481272129122658
  0
ARC
  5
6FE9
  8
0
 10
3017.2690681935891917
 20
71.0438832392831756
 30
0.0
 40
0.0826573140842531
 50
98.7882941876262635
 51
176.0416938207403064
  0
LINE
  5
6FEA
  8
0
 10
3017.2564394840419482
 20
71.1255701248083199
 30
0.0
 11
3024.4041778430419072
 21
71.1255686686082811
 31
0.0
  0
ARC
  5
6FEB
  8
0
 10
3024.3915618417318001
 20
71.0439015351861087
 30
0.0
 40
0.0826358528148742
 50
3.9639699068329799
 51
81.2183212518416155
  0
LINE
  5
6FEC
  8
0
 10
3024.474000006361166
 20
71.049614081291125
 30
0.0
 11
3024.4740095210840991
 21
68.6730487471162121
 31
0.0
  0
ARC
  5
6FED
  8
0
 10
3024.3915315410808944
 20
68.6787710235892916
 30
0.0
 40
0.0826762458821125
 50
278.798777159644203
 51
356.0312104063303877
  0
LINE
  5
6FEE
  8
0
 10
3024.404178091941958
 20
68.5970677410083169
 30
0.0
 11
3017.2564397359419672
 21
68.5973188532082361
 31
0.0
  0
ARC
  5
6FEF
  8
0
 10
3017.2685098894589828
 20
68.6785020313854204
 30
0.0
 40
0.0820755568051146
 50
183.8293813992376045
 51
261.5433263201916247
  0
LINE
  5
6FF0
  8
0
 10
3017.1866175785057749
 20
68.6730205688359945
 30
0.0
 11
3017.186608054599219
 21
71.0495891177735359
 31
0.0
  0
ARC
  5
6FF1
  8
0
 10
3024.5701681935888701
 20
71.0438832392831756
 30
0.0
 40
0.0826573140842531
 50
98.7882941876262635
 51
176.0416938207403064
  0
LINE
  5
6FF2
  8
0
 10
3024.5575394840420813
 20
71.1255701248083199
 30
0.0
 11
3031.7052778430420403
 21
71.1255686686082811
 31
0.0
  0
ARC
  5
6FF3
  8
0
 10
3031.6926618417328427
 20
71.0439015351860519
 30
0.0
 40
0.0826358528148742
 50
3.9639699068329799
 51
81.2183212518416155
  0
LINE
  5
6FF4
  8
0
 10
3031.7751000063608444
 20
71.049614081291125
 30
0.0
 11
3031.775109521082868
 21
68.6730487471162121
 31
0.0
  0
ARC
  5
6FF5
  8
0
 10
3031.6926315410810275
 20
68.6787710235892916
 30
0.0
 40
0.0826762458821125
 50
278.798777159644203
 51
356.0312104063303877
  0
LINE
  5
6FF6
  8
0
 10
3031.7052780919411816
 20
68.5970677410083169
 30
0.0
 11
3024.5575397359411909
 21
68.5973188532082361
 31
0.0
  0
ARC
  5
6FF7
  8
0
 10
3024.5696098894591159
 20
68.6785020313854204
 30
0.0
 40
0.0820755568051146
 50
183.8293813992376045
 51
261.5433263201916247
  0
LINE
  5
6FF8
  8
0
 10
3024.487717578505908
 20
68.6730205688359945
 30
0.0
 11
3024.4877080545988974
 21
71.0495891177735359
 31
0.0
  0
ARC
  5
6FF9
  8
0
 10
3031.8712681935890032
 20
71.0438832392831756
 30
0.0
 40
0.0826573140842531
 50
98.7882941876262635
 51
176.0416938207403064
  0
LINE
  5
6FFA
  8
0
 10
3031.8586394840408502
 20
71.1255701248083199
 30
0.0
 11
3039.0063778430408092
 21
71.1255686686082811
 31
0.0
  0
ARC
  5
6FFB
  8
0
 10
3038.9937618417320664
 20
71.0439015351860519
 30
0.0
 40
0.0826358528148742
 50
3.9639699068329799
 51
81.2183212518416155
  0
LINE
  5
6FFC
  8
0
 10
3039.0762000063609776
 20
71.049614081291125
 30
0.0
 11
3039.0762095210839107
 21
68.6730487471162121
 31
0.0
  0
ARC
  5
6FFD
  8
0
 10
3038.9937315410811607
 20
68.6787710235892916
 30
0.0
 40
0.0826762458821125
 50
278.798777159644203
 51
356.0312104063303877
  0
LINE
  5
6FFE
  8
0
 10
3039.00637809194086
 20
68.5970677410083169
 30
0.0
 11
3031.8586397359417788
 21
68.5973188532082361
 31
0.0
  0
ARC
  5
6FFF
  8
0
 10
3031.8707098894587944
 20
68.6785020313854204
 30
0.0
 40
0.0820755568051146
 50
183.8293813992376045
 51
261.5433263201916247
  0
LINE
  5
7000
  8
0
 10
3031.7888175785060412
 20
68.6730205688359945
 30
0.0
 11
3031.7888080545990306
 21
71.0495891177735359
 31
0.0
  0
ARC
  5
7001
  8
0
 10
3035.5218181935888424
 20
68.4958332392832006
 30
0.0
 40
0.0826573140842531
 50
98.7882941876262635
 51
176.0416938207403064
  0
LINE
  5
7002
  8
0
 10
3035.5091894840420537
 20
68.5775201248082737
 30
0.0
 11
3042.6569278430420127
 21
68.5775186686082918
 31
0.0
  0
ARC
  5
7003
  8
0
 10
3042.6443118417328151
 20
68.4958515351860626
 30
0.0
 40
0.0826358528148742
 50
3.9639699068329799
 51
81.2183212518416155
  0
LINE
  5
7004
  8
0
 10
3042.7267500063608168
 20
68.5015640812910931
 30
0.0
 11
3042.7267595210828404
 21
66.124998747116166
 31
0.0
  0
ARC
  5
7005
  8
0
 10
3042.6442815410809999
 20
66.1307210235893024
 30
0.0
 40
0.0826762458821125
 50
278.798777159644203
 51
356.0312104063303877
  0
LINE
  5
7006
  8
0
 10
3042.656928091941154
 20
66.0490177410082708
 30
0.0
 11
3035.5091897359411632
 21
66.0492688532082468
 31
0.0
  0
ARC
  5
7007
  8
0
 10
3035.5212598894581788
 20
66.1304520313854312
 30
0.0
 40
0.0820755568051146
 50
183.8293813992376045
 51
261.5433263201916247
  0
LINE
  5
7008
  8
0
 10
3035.4393675785058804
 20
66.1249705688360052
 30
0.0
 11
3035.4393580545988698
 21
68.5015391177734898
 31
0.0
  0
ARC
  5
7009
  8
0
 10
3028.220718193589164
 20
68.4958332392832006
 30
0.0
 40
0.0826573140842531
 50
98.7882941876262635
 51
176.0416938207403064
  0
LINE
  5
700A
  8
0
 10
3028.2080894840419205
 20
68.5775201248082737
 30
0.0
 11
3035.3558278430418795
 21
68.5775186686082918
 31
0.0
  0
ARC
  5
700B
  8
0
 10
3035.3432118417331367
 20
68.4958515351860626
 30
0.0
 40
0.0826358528148742
 50
3.9639699068329799
 51
81.2183212518416155
  0
LINE
  5
700C
  8
0
 10
3035.4256500063620479
 20
68.5015640812910931
 30
0.0
 11
3035.4256595210840715
 21
66.124998747116166
 31
0.0
  0
ARC
  5
700D
  8
0
 10
3035.3431815410808667
 20
66.1307210235893024
 30
0.0
 40
0.0826762458821125
 50
278.798777159644203
 51
356.0312104063303877
  0
LINE
  5
700E
  8
0
 10
3035.3558280919419303
 20
66.0490177410082708
 30
0.0
 11
3028.2080897359410301
 21
66.0492688532082468
 31
0.0
  0
ARC
  5
700F
  8
0
 10
3028.2201598894589551
 20
66.1304520313854312
 30
0.0
 40
0.0820755568051146
 50
183.8293813992376045
 51
261.5433263201916247
  0
LINE
  5
7010
  8
0
 10
3028.1382675785048377
 20
66.1249705688360052
 30
0.0
 11
3028.1382580545991914
 21
68.5015391177734898
 31
0.0
  0
ARC
  5
7011
  8
0
 10
3020.9196181935890309
 20
68.4958332392832006
 30
0.0
 40
0.0826573140842531
 50
98.7882941876262635
 51
176.0416938207403064
  0
LINE
  5
7012
  8
0
 10
3020.9069894840408779
 20
68.5775201248082737
 30
0.0
 11
3028.0547278430422011
 21
68.5775186686082918
 31
0.0
  0
ARC
  5
7013
  8
0
 10
3028.0421118417330035
 20
68.4958515351860626
 30
0.0
 40
0.0826358528148742
 50
3.9639699068329799
 51
81.2183212518416155
  0
LINE
  5
7014
  8
0
 10
3028.1245500063619147
 20
68.5015640812910931
 30
0.0
 11
3028.1245595210839383
 21
66.124998747116166
 31
0.0
  0
ARC
  5
7015
  8
0
 10
3028.0420815410811883
 20
66.1307210235893024
 30
0.0
 40
0.0826762458821125
 50
278.798777159644203
 51
356.0312104063303877
  0
LINE
  5
7016
  8
0
 10
3028.0547280919408877
 20
66.0490177410082708
 30
0.0
 11
3020.9069897359408969
 21
66.0492688532082468
 31
0.0
  0
ARC
  5
7017
  8
0
 10
3020.919059889458822
 20
66.1304520313854312
 30
0.0
 40
0.0820755568051146
 50
183.8293813992376045
 51
261.5433263201916247
  0
LINE
  5
7018
  8
0
 10
3020.8371675785060688
 20
66.1249705688360052
 30
0.0
 11
3020.8371580545990582
 21
68.5015391177734898
 31
0.0
  0
ARC
  5
7019
  8
0
 10
3017.2690681935891917
 20
65.9477832392832113
 30
0.0
 40
0.0826573140842531
 50
98.7882941876262635
 51
176.0416938207403064
  0
LINE
  5
701A
  8
0
 10
3017.2564394840419482
 20
66.0294701248082845
 30
0.0
 11
3024.4041778430419072
 21
66.0294686686083026
 31
0.0
  0
ARC
  5
701B
  8
0
 10
3024.3915618417318001
 20
65.9478015351860734
 30
0.0
 40
0.0826358528148742
 50
3.9639699068329799
 51
81.2183212518416155
  0
LINE
  5
701C
  8
0
 10
3024.474000006361166
 20
65.9535140812911038
 30
0.0
 11
3024.4740095210840991
 21
63.5769487471161767
 31
0.0
  0
ARC
  5
701D
  8
0
 10
3024.3915315410808944
 20
63.5826710235893131
 30
0.0
 40
0.0826762458821125
 50
278.798777159644203
 51
356.0312104063303877
  0
LINE
  5
701E
  8
0
 10
3024.404178091941958
 20
63.5009677410082816
 30
0.0
 11
3017.2564397359419672
 21
63.5012188532082575
 31
0.0
  0
ARC
  5
701F
  8
0
 10
3017.2685098894589828
 20
63.5824020313854419
 30
0.0
 40
0.0820755568051146
 50
183.8293813992376045
 51
261.5433263201916247
  0
LINE
  5
7020
  8
0
 10
3017.1866175785057749
 20
63.5769205688360088
 30
0.0
 11
3017.186608054599219
 21
65.9534891177735005
 31
0.0
  0
ARC
  5
7021
  8
0
 10
3024.5701681935888701
 20
65.9477832392832113
 30
0.0
 40
0.0826573140842531
 50
98.7882941876262635
 51
176.0416938207403064
  0
LINE
  5
7022
  8
0
 10
3024.5575394840420813
 20
66.0294701248082845
 30
0.0
 11
3031.7052778430420403
 21
66.0294686686083026
 31
0.0
  0
ARC
  5
7023
  8
0
 10
3031.6926618417328427
 20
65.9478015351860734
 30
0.0
 40
0.0826358528148742
 50
3.9639699068329799
 51
81.2183212518416155
  0
LINE
  5
7024
  8
0
 10
3031.7751000063608444
 20
65.9535140812911038
 30
0.0
 11
3031.775109521082868
 21
63.5769487471161767
 31
0.0
  0
ARC
  5
7025
  8
0
 10
3031.6926315410810275
 20
63.5826710235893131
 30
0.0
 40
0.0826762458821125
 50
278.798777159644203
 51
356.0312104063303877
  0
LINE
  5
7026
  8
0
 10
3031.7052780919411816
 20
63.5009677410082816
 30
0.0
 11
3024.5575397359411909
 21
63.5012188532082575
 31
0.0
  0
ARC
  5
7027
  8
0
 10
3024.5696098894591159
 20
63.5824020313854419
 30
0.0
 40
0.0820755568051146
 50
183.8293813992376045
 51
261.5433263201916247
  0
LINE
  5
7028
  8
0
 10
3024.487717578505908
 20
63.5769205688360088
 30
0.0
 11
3024.4877080545988974
 21
65.9534891177735005
 31
0.0
  0
ARC
  5
7029
  8
0
 10
3031.8712681935890032
 20
65.9477832392832113
 30
0.0
 40
0.0826573140842531
 50
98.7882941876262635
 51
176.0416938207403064
  0
LINE
  5
702A
  8
0
 10
3031.8586394840408502
 20
66.0294701248082845
 30
0.0
 11
3039.0063778430408092
 21
66.0294686686083026
 31
0.0
  0
ARC
  5
702B
  8
0
 10
3038.9937618417320664
 20
65.9478015351860734
 30
0.0
 40
0.0826358528148742
 50
3.9639699068329799
 51
81.2183212518416155
  0
LINE
  5
702C
  8
0
 10
3039.0762000063609776
 20
65.9535140812911038
 30
0.0
 11
3039.0762095210839107
 21
63.5769487471161767
 31
0.0
  0
ARC
  5
702D
  8
0
 10
3038.9937315410811607
 20
63.5826710235893131
 30
0.0
 40
0.0826762458821125
 50
278.798777159644203
 51
356.0312104063303877
  0
LINE
  5
702E
  8
0
 10
3039.00637809194086
 20
63.5009677410082816
 30
0.0
 11
3031.8586397359417788
 21
63.5012188532082575
 31
0.0
  0
ARC
  5
702F
  8
0
 10
3031.8707098894587944
 20
63.5824020313854419
 30
0.0
 40
0.0820755568051146
 50
183.8293813992376045
 51
261.5433263201916247
  0
LINE
  5
7030
  8
0
 10
3031.7888175785060412
 20
63.5769205688360088
 30
0.0
 11
3031.7888080545990306
 21
65.9534891177735005
 31
0.0
  0
ARC
  5
7031
  8
0
 10
3020.9196181935890309
 20
63.3997332392831581
 30
0.0
 40
0.0826573140842531
 50
98.7882941876262635
 51
176.0416938207403064
  0
LINE
  5
7032
  8
0
 10
3020.9069894840408779
 20
63.4814201248082881
 30
0.0
 11
3028.0547278430422011
 21
63.4814186686083204
 31
0.0
  0
ARC
  5
7033
  8
0
 10
3028.0421118417330035
 20
63.399751535186077
 30
0.0
 40
0.0826358528148742
 50
3.9639699068329799
 51
81.2183212518416155
  0
LINE
  5
7034
  8
0
 10
3028.1245500063619147
 20
63.4054640812911074
 30
0.0
 11
3028.1245595210839383
 21
61.0288987471161803
 31
0.0
  0
ARC
  5
7035
  8
0
 10
3028.0420815410811883
 20
61.034621023589267
 30
0.0
 40
0.0826762458821125
 50
278.798777159644203
 51
356.0312104063303877
  0
LINE
  5
7036
  8
0
 10
3028.0547280919408877
 20
60.9529177410082923
 30
0.0
 11
3020.9069897359408969
 21
60.9531688532082612
 31
0.0
  0
ARC
  5
7037
  8
0
 10
3020.919059889458822
 20
61.0343520313854526
 30
0.0
 40
0.0820755568051146
 50
183.8293813992376045
 51
261.5433263201916247
  0
LINE
  5
7038
  8
0
 10
3020.8371675785060688
 20
61.0288705688359698
 30
0.0
 11
3020.8371580545990582
 21
63.4054391177735113
 31
0.0
  0
ARC
  5
7039
  8
0
 10
3028.220718193589164
 20
63.3997332392831581
 30
0.0
 40
0.0826573140842531
 50
98.7882941876262635
 51
176.0416938207403064
  0
LINE
  5
703A
  8
0
 10
3028.2080894840419205
 20
63.4814201248082881
 30
0.0
 11
3035.3558278430418795
 21
63.4814186686083204
 31
0.0
  0
ARC
  5
703B
  8
0
 10
3035.3432118417331367
 20
63.399751535186077
 30
0.0
 40
0.0826358528148742
 50
3.9639699068329799
 51
81.2183212518416155
  0
LINE
  5
703C
  8
0
 10
3035.4256500063620479
 20
63.4054640812911074
 30
0.0
 11
3035.4256595210840715
 21
61.0288987471161803
 31
0.0
  0
ARC
  5
703D
  8
0
 10
3035.3431815410808667
 20
61.034621023589267
 30
0.0
 40
0.0826762458821125
 50
278.798777159644203
 51
356.0312104063303877
  0
LINE
  5
703E
  8
0
 10
3035.3558280919419303
 20
60.9529177410082923
 30
0.0
 11
3028.2080897359410301
 21
60.9531688532082612
 31
0.0
  0
ARC
  5
703F
  8
0
 10
3028.2201598894589551
 20
61.0343520313854526
 30
0.0
 40
0.0820755568051146
 50
183.8293813992376045
 51
261.5433263201916247
  0
LINE
  5
7040
  8
0
 10
3028.1382675785048377
 20
61.0288705688359698
 30
0.0
 11
3028.1382580545991914
 21
63.4054391177735113
 31
0.0
  0
ARC
  5
7041
  8
0
 10
3035.5218181935888424
 20
63.3997332392831581
 30
0.0
 40
0.0826573140842531
 50
98.7882941876262635
 51
176.0416938207403064
  0
LINE
  5
7042
  8
0
 10
3035.5091894840420537
 20
63.4814201248082881
 30
0.0
 11
3042.6569278430420127
 21
63.4814186686083204
 31
0.0
  0
ARC
  5
7043
  8
0
 10
3042.6443118417328151
 20
63.399751535186077
 30
0.0
 40
0.0826358528148742
 50
3.9639699068329799
 51
81.2183212518416155
  0
LINE
  5
7044
  8
0
 10
3042.7267500063608168
 20
63.4054640812911074
 30
0.0
 11
3042.7267595210828404
 21
61.0288987471161803
 31
0.0
  0
ARC
  5
7045
  8
0
 10
3042.6442815410809999
 20
61.034621023589267
 30
0.0
 40
0.0826762458821125
 50
278.798777159644203
 51
356.0312104063303877
  0
LINE
  5
7046
  8
0
 10
3042.656928091941154
 20
60.9529177410082923
 30
0.0
 11
3035.5091897359411632
 21
60.9531688532082612
 31
0.0
  0
ARC
  5
7047
  8
0
 10
3035.5212598894581788
 20
61.0343520313854526
 30
0.0
 40
0.0820755568051146
 50
183.8293813992376045
 51
261.5433263201916247
  0
LINE
  5
7048
  8
0
 10
3035.4393675785058804
 20
61.0288705688359698
 30
0.0
 11
3035.4393580545988698
 21
63.4054391177735113
 31
0.0
  0
ARC
  5
7049
  8
0
 10
3017.2690681935891917
 20
60.851683239283183
 30
0.0
 40
0.0826573140842531
 50
98.7882941876262635
 51
176.0416938207403064
  0
LINE
  5
704A
  8
0
 10
3017.2564394840419482
 20
60.9333701248082988
 30
0.0
 11
3024.4041778430419072
 21
60.9333686686082672
 31
0.0
  0
ARC
  5
704B
  8
0
 10
3024.3915618417318001
 20
60.8517015351861019
 30
0.0
 40
0.0826358528148742
 50
3.9639699068329799
 51
81.2183212518416155
  0
LINE
  5
704C
  8
0
 10
3024.474000006361166
 20
60.8574140812911324
 30
0.0
 11
3024.4740095210840991
 21
58.4808487471161982
 31
0.0
  0
ARC
  5
704D
  8
0
 10
3024.3915315410808944
 20
58.4865710235892706
 30
0.0
 40
0.0826762458821125
 50
278.798777159644203
 51
356.0312104063303877
  0
LINE
  5
704E
  8
0
 10
3024.404178091941958
 20
58.404867741008303
 30
0.0
 11
3017.2564397359419672
 21
58.405118853208279
 31
0.0
  0
ARC
  5
704F
  8
0
 10
3017.2685098894589828
 20
58.4863020313853994
 30
0.0
 40
0.0820755568051146
 50
183.8293813992376045
 51
261.5433263201916247
  0
LINE
  5
7050
  8
0
 10
3017.1866175785057749
 20
58.4808205688359806
 30
0.0
 11
3017.186608054599219
 21
60.857389117773522
 31
0.0
  0
ARC
  5
7051
  8
0
 10
3024.5701681935888701
 20
60.851683239283183
 30
0.0
 40
0.0826573140842531
 50
98.7882941876262635
 51
176.0416938207403064
  0
LINE
  5
7052
  8
0
 10
3024.5575394840420813
 20
60.9333701248082988
 30
0.0
 11
3031.7052778430420403
 21
60.9333686686082672
 31
0.0
  0
ARC
  5
7053
  8
0
 10
3031.6926618417328427
 20
60.8517015351861019
 30
0.0
 40
0.0826358528148742
 50
3.9639699068329799
 51
81.2183212518416155
  0
LINE
  5
7054
  8
0
 10
3031.7751000063608444
 20
60.8574140812911324
 30
0.0
 11
3031.775109521082868
 21
58.4808487471161982
 31
0.0
  0
ARC
  5
7055
  8
0
 10
3031.6926315410810275
 20
58.4865710235892706
 30
0.0
 40
0.0826762458821125
 50
278.798777159644203
 51
356.0312104063303877
  0
LINE
  5
7056
  8
0
 10
3031.7052780919411816
 20
58.404867741008303
 30
0.0
 11
3024.5575397359411909
 21
58.405118853208279
 31
0.0
  0
ARC
  5
7057
  8
0
 10
3024.5696098894591159
 20
58.4863020313853994
 30
0.0
 40
0.0820755568051146
 50
183.8293813992376045
 51
261.5433263201916247
  0
LINE
  5
7058
  8
0
 10
3024.487717578505908
 20
58.4808205688359806
 30
0.0
 11
3024.4877080545988974
 21
60.857389117773522
 31
0.0
  0
ARC
  5
7059
  8
0
 10
3031.8712681935890032
 20
60.851683239283183
 30
0.0
 40
0.0826573140842531
 50
98.7882941876262635
 51
176.0416938207403064
  0
LINE
  5
705A
  8
0
 10
3031.8586394840408502
 20
60.9333701248082988
 30
0.0
 11
3039.0063778430408092
 21
60.9333686686082672
 31
0.0
  0
ARC
  5
705B
  8
0
 10
3038.9937618417320664
 20
60.8517015351861019
 30
0.0
 40
0.0826358528148742
 50
3.9639699068329799
 51
81.2183212518416155
  0
LINE
  5
705C
  8
0
 10
3039.0762000063609776
 20
60.8574140812911324
 30
0.0
 11
3039.0762095210839107
 21
58.4808487471161982
 31
0.0
  0
ARC
  5
705D
  8
0
 10
3038.9937315410811607
 20
58.4865710235892706
 30
0.0
 40
0.0826762458821125
 50
278.798777159644203
 51
356.0312104063303877
  0
LINE
  5
705E
  8
0
 10
3039.00637809194086
 20
58.404867741008303
 30
0.0
 11
3031.8586397359417788
 21
58.405118853208279
 31
0.0
  0
ARC
  5
705F
  8
0
 10
3031.8707098894587944
 20
58.4863020313853994
 30
0.0
 40
0.0820755568051146
 50
183.8293813992376045
 51
261.5433263201916247
  0
LINE
  5
7060
  8
0
 10
3031.7888175785060412
 20
58.4808205688359806
 30
0.0
 11
3031.7888080545990306
 21
60.857389117773522
 31
0.0
  0
ARC
  5
7061
  8
0
 10
3020.9196181935890309
 20
58.3036332392831866
 30
0.0
 40
0.0826573140842531
 50
98.7882941876262635
 51
176.0416938207403064
  0
LINE
  5
7062
  8
0
 10
3020.9069894840408779
 20
58.3853201248083167
 30
0.0
 11
3028.0547278430422011
 21
58.3853186686082779
 31
0.0
  0
ARC
  5
7063
  8
0
 10
3028.0421118417330035
 20
58.3036515351860984
 30
0.0
 40
0.0826358528148742
 50
3.9639699068329799
 51
81.2183212518416155
  0
LINE
  5
7064
  8
0
 10
3028.1245500063619147
 20
58.3093640812911289
 30
0.0
 11
3028.1245595210839383
 21
55.9327987471162089
 31
0.0
  0
ARC
  5
7065
  8
0
 10
3028.0420815410811883
 20
55.9385210235892885
 30
0.0
 40
0.0826762458821125
 50
278.798777159644203
 51
356.0312104063303877
  0
LINE
  5
7066
  8
0
 10
3028.0547280919408877
 20
55.8568177410083067
 30
0.0
 11
3020.9069897359408969
 21
55.8570688532082329
 31
0.0
  0
ARC
  5
7067
  8
0
 10
3020.919059889458822
 20
55.9382520313854172
 30
0.0
 40
0.0820755568051146
 50
183.8293813992376045
 51
261.5433263201916247
  0
LINE
  5
7068
  8
0
 10
3020.8371675785060688
 20
55.9327705688359913
 30
0.0
 11
3020.8371580545990582
 21
58.3093391177735327
 31
0.0
  0
ARC
  5
7069
  8
0
 10
3028.220718193589164
 20
58.3036332392831866
 30
0.0
 40
0.0826573140842531
 50
98.7882941876262635
 51
176.0416938207403064
  0
LINE
  5
706A
  8
0
 10
3028.2080894840419205
 20
58.3853201248083167
 30
0.0
 11
3035.3558278430418795
 21
58.3853186686082779
 31
0.0
  0
ARC
  5
706B
  8
0
 10
3035.3432118417331367
 20
58.3036515351860984
 30
0.0
 40
0.0826358528148742
 50
3.9639699068329799
 51
81.2183212518416155
  0
LINE
  5
706C
  8
0
 10
3035.4256500063620479
 20
58.3093640812911289
 30
0.0
 11
3035.4256595210840715
 21
55.9327987471162089
 31
0.0
  0
ARC
  5
706D
  8
0
 10
3035.3431815410808667
 20
55.9385210235892885
 30
0.0
 40
0.0826762458821125
 50
278.798777159644203
 51
356.0312104063303877
  0
LINE
  5
706E
  8
0
 10
3035.3558280919419303
 20
55.8568177410083067
 30
0.0
 11
3028.2080897359410301
 21
55.8570688532082329
 31
0.0
  0
ARC
  5
706F
  8
0
 10
3028.2201598894589551
 20
55.9382520313854172
 30
0.0
 40
0.0820755568051146
 50
183.8293813992376045
 51
261.5433263201916247
  0
LINE
  5
7070
  8
0
 10
3028.1382675785048377
 20
55.9327705688359913
 30
0.0
 11
3028.1382580545991914
 21
58.3093391177735327
 31
0.0
  0
ARC
  5
7071
  8
0
 10
3035.5218181935888424
 20
58.3036332392831866
 30
0.0
 40
0.0826573140842531
 50
98.7882941876262635
 51
176.0416938207403064
  0
LINE
  5
7072
  8
0
 10
3035.5091894840420537
 20
58.3853201248083167
 30
0.0
 11
3042.6569278430420127
 21
58.3853186686082779
 31
0.0
  0
ARC
  5
7073
  8
0
 10
3042.6443118417328151
 20
58.3036515351860984
 30
0.0
 40
0.0826358528148742
 50
3.9639699068329799
 51
81.2183212518416155
  0
LINE
  5
7074
  8
0
 10
3042.7267500063608168
 20
58.3093640812911289
 30
0.0
 11
3042.7267595210828404
 21
55.9327987471162089
 31
0.0
  0
ARC
  5
7075
  8
0
 10
3042.6442815410809999
 20
55.9385210235892885
 30
0.0
 40
0.0826762458821125
 50
278.798777159644203
 51
356.0312104063303877
  0
LINE
  5
7076
  8
0
 10
3042.656928091941154
 20
55.8568177410083067
 30
0.0
 11
3035.5091897359411632
 21
55.8570688532082329
 31
0.0
  0
ARC
  5
7077
  8
0
 10
3035.5212598894581788
 20
55.9382520313854172
 30
0.0
 40
0.0820755568051146
 50
183.8293813992376045
 51
261.5433263201916247
  0
LINE
  5
7078
  8
0
 10
3035.4393675785058804
 20
55.9327705688359913
 30
0.0
 11
3035.4393580545988698
 21
58.3093391177735327
 31
0.0
  0
ARC
  5
7079
  8
0
 10
3031.8712681935890032
 20
55.7555832392831903
 30
0.0
 40
0.0826573140842531
 50
98.7882941876262635
 51
176.0416938207403064
  0
LINE
  5
707A
  8
0
 10
3031.8586394840408502
 20
55.8372701248082706
 30
0.0
 11
3039.0063778430408092
 21
55.8372686686082815
 31
0.0
  0
ARC
  5
707B
  8
0
 10
3038.9937618417320664
 20
55.7556015351860594
 30
0.0
 40
0.0826358528148742
 50
3.9639699068329799
 51
81.2183212518416155
  0
LINE
  5
707C
  8
0
 10
3039.0762000063609776
 20
55.7613140812910899
 30
0.0
 11
3039.0762095210839107
 21
53.3847487471162125
 31
0.0
  0
ARC
  5
707D
  8
0
 10
3038.9937315410811607
 20
53.3904710235892992
 30
0.0
 40
0.0826762458821125
 50
278.798777159644203
 51
356.0312104063303877
  0
LINE
  5
707E
  8
0
 10
3039.00637809194086
 20
53.3087677410082605
 30
0.0
 11
3031.8586397359417788
 21
53.3090188532082365
 31
0.0
  0
ARC
  5
707F
  8
0
 10
3031.8707098894587944
 20
53.3902020313854209
 30
0.0
 40
0.0820755568051146
 50
183.8293813992376045
 51
261.5433263201916247
  0
LINE
  5
7080
  8
0
 10
3031.7888175785060412
 20
53.384720568836002
 30
0.0
 11
3031.7888080545990306
 21
55.7612891177734866
 31
0.0
  0
ARC
  5
7081
  8
0
 10
3024.5701681935888701
 20
55.7555832392831903
 30
0.0
 40
0.0826573140842531
 50
98.7882941876262635
 51
176.0416938207403064
  0
LINE
  5
7082
  8
0
 10
3024.5575394840420813
 20
55.8372701248082706
 30
0.0
 11
3031.7052778430420403
 21
55.8372686686082815
 31
0.0
  0
ARC
  5
7083
  8
0
 10
3031.6926618417328427
 20
55.7556015351860594
 30
0.0
 40
0.0826358528148742
 50
3.9639699068329799
 51
81.2183212518416155
  0
LINE
  5
7084
  8
0
 10
3031.7751000063608444
 20
55.7613140812910899
 30
0.0
 11
3031.775109521082868
 21
53.3847487471162125
 31
0.0
  0
ARC
  5
7085
  8
0
 10
3031.6926315410810275
 20
53.3904710235892992
 30
0.0
 40
0.0826762458821125
 50
278.798777159644203
 51
356.0312104063303877
  0
LINE
  5
7086
  8
0
 10
3031.7052780919411816
 20
53.3087677410082605
 30
0.0
 11
3024.5575397359411909
 21
53.3090188532082365
 31
0.0
  0
ARC
  5
7087
  8
0
 10
3024.5696098894591159
 20
53.3902020313854209
 30
0.0
 40
0.0820755568051146
 50
183.8293813992376045
 51
261.5433263201916247
  0
LINE
  5
7088
  8
0
 10
3024.487717578505908
 20
53.384720568836002
 30
0.0
 11
3024.4877080545988974
 21
55.7612891177734866
 31
0.0
  0
ARC
  5
7089
  8
0
 10
3017.2690681935891917
 20
55.7555832392831903
 30
0.0
 40
0.0826573140842531
 50
98.7882941876262635
 51
176.0416938207403064
  0
LINE
  5
708A
  8
0
 10
3017.2564394840419482
 20
55.8372701248082706
 30
0.0
 11
3024.4041778430419072
 21
55.8372686686082815
 31
0.0
  0
ARC
  5
708B
  8
0
 10
3024.3915618417318001
 20
55.7556015351860594
 30
0.0
 40
0.0826358528148742
 50
3.9639699068329799
 51
81.2183212518416155
  0
LINE
  5
708C
  8
0
 10
3024.474000006361166
 20
55.7613140812910899
 30
0.0
 11
3024.4740095210840991
 21
53.3847487471162125
 31
0.0
  0
ARC
  5
708D
  8
0
 10
3024.3915315410808944
 20
53.3904710235892992
 30
0.0
 40
0.0826762458821125
 50
278.798777159644203
 51
356.0312104063303877
  0
LINE
  5
708E
  8
0
 10
3024.404178091941958
 20
53.3087677410082605
 30
0.0
 11
3017.2564397359419672
 21
53.3090188532082365
 31
0.0
  0
ARC
  5
708F
  8
0
 10
3017.2685098894589828
 20
53.3902020313854209
 30
0.0
 40
0.0820755568051146
 50
183.8293813992376045
 51
261.5433263201916247
  0
LINE
  5
7090
  8
0
 10
3017.1866175785057749
 20
53.384720568836002
 30
0.0
 11
3017.186608054599219
 21
55.7612891177734866
 31
0.0
  0
ARC
  5
7091
  8
0
 10
3020.9196181935890309
 20
53.2075332392832081
 30
0.0
 40
0.0826573140842531
 50
98.7882941876262635
 51
176.0416938207403064
  0
LINE
  5
7092
  8
0
 10
3020.9069894840408779
 20
53.2892201248082813
 30
0.0
 11
3028.0547278430422011
 21
53.2892186686082994
 31
0.0
  0
ARC
  5
7093
  8
0
 10
3028.0421118417330035
 20
53.2075515351860702
 30
0.0
 40
0.0826358528148742
 50
3.9639699068329799
 51
81.2183212518416155
  0
LINE
  5
7094
  8
0
 10
3028.1245500063619147
 20
53.2132640812911006
 30
0.0
 11
3028.1245595210839383
 21
50.8366987471161735
 31
0.0
  0
ARC
  5
7095
  8
0
 10
3028.0420815410811883
 20
50.8424210235893099
 30
0.0
 40
0.0826762458821125
 50
278.798777159644203
 51
356.0312104063303877
  0
LINE
  5
7096
  8
0
 10
3028.0547280919408877
 20
50.7607177410082784
 30
0.0
 11
3020.9069897359408969
 21
50.7609688532082615
 31
0.0
  0
ARC
  5
7097
  8
0
 10
3020.919059889458822
 20
50.8421520313854387
 30
0.0
 40
0.0820755568051146
 50
183.8293813992376045
 51
261.5433263201916247
  0
LINE
  5
7098
  8
0
 10
3020.8371675785060688
 20
50.8366705688360128
 30
0.0
 11
3020.8371580545990582
 21
53.2132391177734974
 31
0.0
  0
ARC
  5
7099
  8
0
 10
3028.220718193589164
 20
53.2075332392832081
 30
0.0
 40
0.0826573140842531
 50
98.7882941876262635
 51
176.0416938207403064
  0
LINE
  5
709A
  8
0
 10
3028.2080894840419205
 20
53.2892201248082813
 30
0.0
 11
3035.3558278430418795
 21
53.2892186686082994
 31
0.0
  0
ARC
  5
709B
  8
0
 10
3035.3432118417331367
 20
53.2075515351860702
 30
0.0
 40
0.0826358528148742
 50
3.9639699068329799
 51
81.2183212518416155
  0
LINE
  5
709C
  8
0
 10
3035.4256500063620479
 20
53.2132640812911006
 30
0.0
 11
3035.4256595210840715
 21
50.8366987471161735
 31
0.0
  0
ARC
  5
709D
  8
0
 10
3035.3431815410808667
 20
50.8424210235893099
 30
0.0
 40
0.0826762458821125
 50
278.798777159644203
 51
356.0312104063303877
  0
LINE
  5
709E
  8
0
 10
3035.3558280919419303
 20
50.7607177410082784
 30
0.0
 11
3028.2080897359410301
 21
50.7609688532082615
 31
0.0
  0
ARC
  5
709F
  8
0
 10
3028.2201598894589551
 20
50.8421520313854387
 30
0.0
 40
0.0820755568051146
 50
183.8293813992376045
 51
261.5433263201916247
  0
LINE
  5
70A0
  8
0
 10
3028.1382675785048377
 20
50.8366705688360128
 30
0.0
 11
3028.1382580545991914
 21
53.2132391177734974
 31
0.0
  0
ARC
  5
70A1
  8
0
 10
3035.5218181935888424
 20
53.2075332392832081
 30
0.0
 40
0.0826573140842531
 50
98.7882941876262635
 51
176.0416938207403064
  0
LINE
  5
70A2
  8
0
 10
3035.5091894840420537
 20
53.2892201248082813
 30
0.0
 11
3042.6569278430420127
 21
53.2892186686082994
 31
0.0
  0
ARC
  5
70A3
  8
0
 10
3042.6443118417328151
 20
53.2075515351860702
 30
0.0
 40
0.0826358528148742
 50
3.9639699068329799
 51
81.2183212518416155
  0
LINE
  5
70A4
  8
0
 10
3042.7267500063608168
 20
53.2132640812911006
 30
0.0
 11
3042.7267595210828404
 21
50.8366987471161735
 31
0.0
  0
ARC
  5
70A5
  8
0
 10
3042.6442815410809999
 20
50.8424210235893099
 30
0.0
 40
0.0826762458821125
 50
278.798777159644203
 51
356.0312104063303877
  0
LINE
  5
70A6
  8
0
 10
3042.656928091941154
 20
50.7607177410082784
 30
0.0
 11
3035.5091897359411632
 21
50.7609688532082615
 31
0.0
  0
ARC
  5
70A7
  8
0
 10
3035.5212598894581788
 20
50.8421520313854387
 30
0.0
 40
0.0820755568051146
 50
183.8293813992376045
 51
261.5433263201916247
  0
LINE
  5
70A8
  8
0
 10
3035.4393675785058804
 20
50.8366705688360128
 30
0.0
 11
3035.4393580545988698
 21
53.2132391177734974
 31
0.0
  0
ARC
  5
70A9
  8
0
 10
3031.8712681935890032
 20
50.659483239283162
 30
0.0
 40
0.0826573140842531
 50
98.7882941876262635
 51
176.0416938207403064
  0
LINE
  5
70AA
  8
0
 10
3031.8586394840408502
 20
50.741170124808292
 30
0.0
 11
3039.0063778430408092
 21
50.7411686686083101
 31
0.0
  0
ARC
  5
70AB
  8
0
 10
3038.9937618417320664
 20
50.6595015351860809
 30
0.0
 40
0.0826358528148742
 50
3.9639699068329799
 51
81.2183212518416155
  0
LINE
  5
70AC
  8
0
 10
3039.0762000063609776
 20
50.6652140812911114
 30
0.0
 11
3039.0762095210839107
 21
48.2886487471161772
 31
0.0
  0
ARC
  5
70AD
  8
0
 10
3038.9937315410811607
 20
48.2943710235892709
 30
0.0
 40
0.0826762458821125
 50
278.798777159644203
 51
356.0312104063303877
  0
LINE
  5
70AE
  8
0
 10
3039.00637809194086
 20
48.2126677410082891
 30
0.0
 11
3031.8586397359417788
 21
48.212918853208258
 31
0.0
  0
ARC
  5
70AF
  8
0
 10
3031.8707098894587944
 20
48.2941020313854494
 30
0.0
 40
0.0820755568051146
 50
183.8293813992376045
 51
261.5433263201916247
  0
LINE
  5
70B0
  8
0
 10
3031.7888175785060412
 20
48.2886205688359667
 30
0.0
 11
3031.7888080545990306
 21
50.665189117773501
 31
0.0
  0
ARC
  5
70B1
  8
0
 10
3024.5701681935888701
 20
50.659483239283162
 30
0.0
 40
0.0826573140842531
 50
98.7882941876262635
 51
176.0416938207403064
  0
LINE
  5
70B2
  8
0
 10
3024.5575394840420813
 20
50.741170124808292
 30
0.0
 11
3031.7052778430420403
 21
50.7411686686083101
 31
0.0
  0
ARC
  5
70B3
  8
0
 10
3031.6926618417328427
 20
50.6595015351860809
 30
0.0
 40
0.0826358528148742
 50
3.9639699068329799
 51
81.2183212518416155
  0
LINE
  5
70B4
  8
0
 10
3031.7751000063608444
 20
50.6652140812911114
 30
0.0
 11
3031.775109521082868
 21
48.2886487471161772
 31
0.0
  0
ARC
  5
70B5
  8
0
 10
3031.6926315410810275
 20
48.2943710235892709
 30
0.0
 40
0.0826762458821125
 50
278.798777159644203
 51
356.0312104063303877
  0
LINE
  5
70B6
  8
0
 10
3031.7052780919411816
 20
48.2126677410082891
 30
0.0
 11
3024.5575397359411909
 21
48.212918853208258
 31
0.0
  0
ARC
  5
70B7
  8
0
 10
3024.5696098894591159
 20
48.2941020313854494
 30
0.0
 40
0.0820755568051146
 50
183.8293813992376045
 51
261.5433263201916247
  0
LINE
  5
70B8
  8
0
 10
3024.487717578505908
 20
48.2886205688359667
 30
0.0
 11
3024.4877080545988974
 21
50.665189117773501
 31
0.0
  0
ARC
  5
70B9
  8
0
 10
3017.2690681935891917
 20
50.659483239283162
 30
0.0
 40
0.0826573140842531
 50
98.7882941876262635
 51
176.0416938207403064
  0
LINE
  5
70BA
  8
0
 10
3017.2564394840419482
 20
50.741170124808292
 30
0.0
 11
3024.4041778430419072
 21
50.7411686686083101
 31
0.0
  0
ARC
  5
70BB
  8
0
 10
3024.3915618417318001
 20
50.6595015351860809
 30
0.0
 40
0.0826358528148742
 50
3.9639699068329799
 51
81.2183212518416155
  0
LINE
  5
70BC
  8
0
 10
3024.474000006361166
 20
50.6652140812911114
 30
0.0
 11
3024.4740095210840991
 21
48.2886487471161772
 31
0.0
  0
ARC
  5
70BD
  8
0
 10
3024.3915315410808944
 20
48.2943710235892709
 30
0.0
 40
0.0826762458821125
 50
278.798777159644203
 51
356.0312104063303877
  0
LINE
  5
70BE
  8
0
 10
3024.404178091941958
 20
48.2126677410082891
 30
0.0
 11
3017.2564397359419672
 21
48.212918853208258
 31
0.0
  0
ARC
  5
70BF
  8
0
 10
3017.2685098894589828
 20
48.2941020313854494
 30
0.0
 40
0.0820755568051146
 50
183.8293813992376045
 51
261.5433263201916247
  0
LINE
  5
70C0
  8
0
 10
3017.1866175785057749
 20
48.2886205688359667
 30
0.0
 11
3017.186608054599219
 21
50.665189117773501
 31
0.0
  0
ARC
  5
70C1
  8
0
 10
3020.9196181935890309
 20
48.1114332392831727
 30
0.0
 40
0.0826573140842531
 50
98.7882941876262635
 51
176.0416938207403064
  0
LINE
  5
70C2
  8
0
 10
3020.9069894840408779
 20
48.1931201248083028
 30
0.0
 11
3028.0547278430422011
 21
48.1931186686082569
 31
0.0
  0
ARC
  5
70C3
  8
0
 10
3028.0421118417330035
 20
48.1114515351860916
 30
0.0
 40
0.0826358528148742
 50
3.9639699068329799
 51
81.2183212518416155
  0
LINE
  5
70C4
  8
0
 10
3028.1245500063619147
 20
48.1171640812911221
 30
0.0
 11
3028.1245595210839383
 21
45.7405987471161879
 31
0.0
  0
ARC
  5
70C5
  8
0
 10
3028.0420815410811883
 20
45.7463210235892674
 30
0.0
 40
0.0826762458821125
 50
278.798777159644203
 51
356.0312104063303877
  0
LINE
  5
70C6
  8
0
 10
3028.0547280919408877
 20
45.6646177410082927
 30
0.0
 11
3020.9069897359408969
 21
45.6648688532082687
 31
0.0
  0
ARC
  5
70C7
  8
0
 10
3020.919059889458822
 20
45.7460520313854033
 30
0.0
 40
0.0820755568051146
 50
183.8293813992376045
 51
261.5433263201916247
  0
LINE
  5
70C8
  8
0
 10
3020.8371675785060688
 20
45.7405705688359774
 30
0.0
 11
3020.8371580545990582
 21
48.1171391177735188
 31
0.0
  0
ARC
  5
70C9
  8
0
 10
3028.220718193589164
 20
48.1114332392831727
 30
0.0
 40
0.0826573140842531
 50
98.7882941876262635
 51
176.0416938207403064
  0
LINE
  5
70CA
  8
0
 10
3028.2080894840419205
 20
48.1931201248083028
 30
0.0
 11
3035.3558278430418795
 21
48.1931186686082569
 31
0.0
  0
ARC
  5
70CB
  8
0
 10
3035.3432118417331367
 20
48.1114515351860916
 30
0.0
 40
0.0826358528148742
 50
3.9639699068329799
 51
81.2183212518416155
  0
LINE
  5
70CC
  8
0
 10
3035.4256500063620479
 20
48.1171640812911221
 30
0.0
 11
3035.4256595210840715
 21
45.7405987471161879
 31
0.0
  0
ARC
  5
70CD
  8
0
 10
3035.3431815410808667
 20
45.7463210235892674
 30
0.0
 40
0.0826762458821125
 50
278.798777159644203
 51
356.0312104063303877
  0
LINE
  5
70CE
  8
0
 10
3035.3558280919419303
 20
45.6646177410082927
 30
0.0
 11
3028.2080897359410301
 21
45.6648688532082687
 31
0.0
  0
ARC
  5
70CF
  8
0
 10
3028.2201598894589551
 20
45.7460520313854033
 30
0.0
 40
0.0820755568051146
 50
183.8293813992376045
 51
261.5433263201916247
  0
LINE
  5
70D0
  8
0
 10
3028.1382675785048377
 20
45.7405705688359774
 30
0.0
 11
3028.1382580545991914
 21
48.1171391177735188
 31
0.0
  0
ARC
  5
70D1
  8
0
 10
3035.5218181935888424
 20
48.1114332392831727
 30
0.0
 40
0.0826573140842531
 50
98.7882941876262635
 51
176.0416938207403064
  0
LINE
  5
70D2
  8
0
 10
3035.5091894840420537
 20
48.1931201248083028
 30
0.0
 11
3042.6569278430420127
 21
48.1931186686082569
 31
0.0
  0
ARC
  5
70D3
  8
0
 10
3042.6443118417328151
 20
48.1114515351860916
 30
0.0
 40
0.0826358528148742
 50
3.9639699068329799
 51
81.2183212518416155
  0
LINE
  5
70D4
  8
0
 10
3042.7267500063608168
 20
48.1171640812911221
 30
0.0
 11
3042.7267595210828404
 21
45.7405987471161879
 31
0.0
  0
ARC
  5
70D5
  8
0
 10
3042.6442815410809999
 20
45.7463210235892674
 30
0.0
 40
0.0826762458821125
 50
278.798777159644203
 51
356.0312104063303877
  0
LINE
  5
70D6
  8
0
 10
3042.656928091941154
 20
45.6646177410082927
 30
0.0
 11
3035.5091897359411632
 21
45.6648688532082687
 31
0.0
  0
ARC
  5
70D7
  8
0
 10
3035.5212598894581788
 20
45.7460520313854033
 30
0.0
 40
0.0820755568051146
 50
183.8293813992376045
 51
261.5433263201916247
  0
LINE
  5
70D8
  8
0
 10
3035.4393675785058804
 20
45.7405705688359774
 30
0.0
 11
3035.4393580545988698
 21
48.1171391177735188
 31
0.0
  0
ARC
  5
70D9
  8
0
 10
3031.8712681935890032
 20
45.5633832392831835
 30
0.0
 40
0.0826573140842531
 50
98.7882941876262635
 51
176.0416938207403064
  0
LINE
  5
70DA
  8
0
 10
3031.8586394840408502
 20
45.6450701248083135
 30
0.0
 11
3039.0063778430408092
 21
45.6450686686082676
 31
0.0
  0
ARC
  5
70DB
  8
0
 10
3038.9937618417320664
 20
45.5634015351861024
 30
0.0
 40
0.0826358528148742
 50
3.9639699068329799
 51
81.2183212518416155
  0
LINE
  5
70DC
  8
0
 10
3039.0762000063609776
 20
45.5691140812911328
 30
0.0
 11
3039.0762095210839107
 21
43.1925487471161986
 31
0.0
  0
ARC
  5
70DD
  8
0
 10
3038.9937315410811607
 20
43.1982710235892782
 30
0.0
 40
0.0826762458821125
 50
278.798777159644203
 51
356.0312104063303877
  0
LINE
  5
70DE
  8
0
 10
3039.00637809194086
 20
43.1165677410083106
 30
0.0
 11
3031.8586397359417788
 21
43.1168188532082226
 31
0.0
  0
ARC
  5
70DF
  8
0
 10
3031.8707098894587944
 20
43.198002031385407
 30
0.0
 40
0.0820755568051146
 50
183.8293813992376045
 51
261.5433263201916247
  0
LINE
  5
70E0
  8
0
 10
3031.7888175785060412
 20
43.192520568835981
 30
0.0
 11
3031.7888080545990306
 21
45.5690891177735296
 31
0.0
  0
ARC
  5
70E1
  8
0
 10
3024.5701681935888701
 20
45.5633832392831835
 30
0.0
 40
0.0826573140842531
 50
98.7882941876262635
 51
176.0416938207403064
  0
LINE
  5
70E2
  8
0
 10
3024.5575394840420813
 20
45.6450701248083135
 30
0.0
 11
3031.7052778430420403
 21
45.6450686686082676
 31
0.0
  0
ARC
  5
70E3
  8
0
 10
3031.6926618417328427
 20
45.5634015351861024
 30
0.0
 40
0.0826358528148742
 50
3.9639699068329799
 51
81.2183212518416155
  0
LINE
  5
70E4
  8
0
 10
3031.7751000063608444
 20
45.5691140812911328
 30
0.0
 11
3031.775109521082868
 21
43.1925487471161986
 31
0.0
  0
ARC
  5
70E5
  8
0
 10
3031.6926315410810275
 20
43.1982710235892782
 30
0.0
 40
0.0826762458821125
 50
278.798777159644203
 51
356.0312104063303877
  0
LINE
  5
70E6
  8
0
 10
3031.7052780919411816
 20
43.1165677410083106
 30
0.0
 11
3024.5575397359411909
 21
43.1168188532082226
 31
0.0
  0
ARC
  5
70E7
  8
0
 10
3024.5696098894591159
 20
43.198002031385407
 30
0.0
 40
0.0820755568051146
 50
183.8293813992376045
 51
261.5433263201916247
  0
LINE
  5
70E8
  8
0
 10
3024.487717578505908
 20
43.192520568835981
 30
0.0
 11
3024.4877080545988974
 21
45.5690891177735296
 31
0.0
  0
ARC
  5
70E9
  8
0
 10
3017.2690681935891917
 20
45.5633832392831835
 30
0.0
 40
0.0826573140842531
 50
98.7882941876262635
 51
176.0416938207403064
  0
LINE
  5
70EA
  8
0
 10
3017.2564394840419482
 20
45.6450701248083135
 30
0.0
 11
3024.4041778430419072
 21
45.6450686686082676
 31
0.0
  0
ARC
  5
70EB
  8
0
 10
3024.3915618417318001
 20
45.5634015351861024
 30
0.0
 40
0.0826358528148742
 50
3.9639699068329799
 51
81.2183212518416155
  0
LINE
  5
70EC
  8
0
 10
3024.474000006361166
 20
45.5691140812911328
 30
0.0
 11
3024.4740095210840991
 21
43.1925487471161986
 31
0.0
  0
ARC
  5
70ED
  8
0
 10
3024.3915315410808944
 20
43.1982710235892782
 30
0.0
 40
0.0826762458821125
 50
278.798777159644203
 51
356.0312104063303877
  0
LINE
  5
70EE
  8
0
 10
3024.404178091941958
 20
43.1165677410083106
 30
0.0
 11
3017.2564397359419672
 21
43.1168188532082226
 31
0.0
  0
ARC
  5
70EF
  8
0
 10
3017.2685098894589828
 20
43.198002031385407
 30
0.0
 40
0.0820755568051146
 50
183.8293813992376045
 51
261.5433263201916247
  0
LINE
  5
70F0
  8
0
 10
3017.1866175785057749
 20
43.192520568835981
 30
0.0
 11
3017.186608054599219
 21
45.5690891177735296
 31
0.0
  0
ARC
  5
70F1
  8
0
 10
3039.1721763249270225
 20
65.9479595824977025
 30
0.0
 40
0.0824538872278029
 50
98.6752550162745763
 51
176.1547205045253861
  0
LINE
  5
70F2
  8
0
 10
3039.1597394840418929
 20
66.0294701248082845
 30
0.0
 11
3045.8577937560630744
 21
66.0292184480625934
 31
0.0
  0
LINE
  5
70F3
  8
0
 10
3045.8577937763270711
 20
63.501218862030413
 30
0.0
 11
3039.1597397359419119
 21
63.5012188532083073
 31
0.0
  0
ARC
  5
70F4
  8
0
 10
3039.1713838263299294
 20
63.5820090592160625
 30
0.0
 40
0.0816250098177938
 50
183.5741281445166067
 51
261.7985800050547027
  0
LINE
  5
70F5
  8
0
 10
3039.0899175788149478
 20
63.5769205679306069
 30
0.0
 11
3039.0899080593721919
 21
65.953489139586253
 31
0.0
  0
ARC
  5
70F6
  8
0
 10
3047.3077097336081351
 20
63.8689032301623669
 30
0.0
 40
1.48214524480013
 50
180.6836061534050089
 51
191.0796124920007912
  0
LINE
  5
70F7
  8
0
 10
3045.825669981476949
 20
63.8512199107346134
 30
0.0
 11
3045.8256804987740907
 21
65.6792106027083094
 31
0.0
  0
ARC
  5
70F8
  8
0
 10
3047.3360268641690709
 20
65.6586751861597406
 30
0.0
 40
1.5104859637853101
 50
169.0263617270177861
 51
179.221026229282586
  0
LINE
  5
70F9
  8
0
 10
3045.8578244093419016
 20
65.9710122567082919
 30
0.0
 11
3045.8531603317510417
 21
65.9462072605887499
 31
0.0
  0
LINE
  5
70FA
  8
0
 10
3045.8578244093419016
 20
63.5595449130082883
 30
0.0
 11
3045.8531900357420454
 21
63.5840752554081234
 31
0.0
  0
ARC
  5
70FB
  8
0
 10
3039.1721763249270225
 20
71.044059582497681
 30
0.0
 40
0.0824538872278029
 50
98.6752550162745763
 51
176.1547205045253861
  0
LINE
  5
70FC
  8
0
 10
3039.1597394840418929
 20
71.1255701248083199
 30
0.0
 11
3045.1368326209521911
 21
71.114150795456311
 31
0.0
  0
LINE
  5
70FD
  8
0
 10
3045.8577937763238879
 20
68.5973188620304484
 30
0.0
 11
3039.1597397359419119
 21
68.5973188532082929
 31
0.0
  0
ARC
  5
70FE
  8
0
 10
3039.1713838263299294
 20
68.678109059216041
 30
0.0
 40
0.0816250098177938
 50
183.5741281445166067
 51
261.7985800050547027
  0
LINE
  5
70FF
  8
0
 10
3039.0899175788149478
 20
68.6730205679305925
 30
0.0
 11
3039.0899080593721919
 21
71.0495891395862316
 31
0.0
  0
ARC
  5
7100
  8
0
 10
3047.3077097336081351
 20
68.9650032301623526
 30
0.0
 40
1.48214524480013
 50
180.6836061534050089
 51
191.0796124920007912
  0
LINE
  5
7101
  8
0
 10
3045.825669981476949
 20
68.9473199107346488
 30
0.0
 11
3045.8256804987740907
 21
70.7753106027082737
 31
0.0
  0
ARC
  5
7102
  8
0
 10
3047.3360268641708899
 20
70.7547751861596623
 30
0.0
 40
1.510485963787308
 50
169.0932626300790957
 51
179.2210262292794027
  0
LINE
  5
7103
  8
0
 10
3045.8578244093419016
 20
71.0671122567082705
 30
0.0
 11
3045.8528256084377972
 21
71.0405756091672345
 31
0.0
  0
LINE
  5
7104
  8
0
 10
3045.8578244093419016
 20
68.655644913008274
 30
0.0
 11
3045.8531900357420454
 21
68.680175255408102
 31
0.0
  0
ARC
  5
7105
  8
0
 10
3039.1721763249270225
 20
60.85185958249766
 30
0.0
 40
0.0824538872278029
 50
98.6752550162745763
 51
176.1547205045253861
  0
LINE
  5
7106
  8
0
 10
3039.1597394840418929
 20
60.9333701248082988
 30
0.0
 11
3045.8577937560658029
 21
60.9331184480626291
 31
0.0
  0
LINE
  5
7107
  8
0
 10
3045.8577937763197951
 20
58.4051188620304274
 30
0.0
 11
3039.1597397359419119
 21
58.405118853208279
 31
0.0
  0
ARC
  5
7108
  8
0
 10
3039.1713838263299294
 20
58.4859090592160271
 30
0.0
 40
0.0816250098177938
 50
183.5741281445166067
 51
261.7985800050547027
  0
LINE
  5
7109
  8
0
 10
3039.0899175788149478
 20
58.4808205679306425
 30
0.0
 11
3039.0899080593721919
 21
60.8573891395862674
 31
0.0
  0
ARC
  5
710A
  8
0
 10
3047.3077097336081351
 20
58.7728032301623387
 30
0.0
 40
1.48214524480013
 50
180.6836061534050089
 51
191.0796124920007912
  0
LINE
  5
710B
  8
0
 10
3045.825669981476949
 20
58.7551199107346278
 30
0.0
 11
3045.8256804987740907
 21
60.5831106027082811
 31
0.0
  0
ARC
  5
710C
  8
0
 10
3047.3360268641690709
 20
60.5625751861597621
 30
0.0
 40
1.5104859637853101
 50
169.0263617270177861
 51
179.221026229282586
  0
LINE
  5
710D
  8
0
 10
3045.8578244093419016
 20
60.8749122567083134
 30
0.0
 11
3045.8531603317510417
 21
60.8501072605887714
 31
0.0
  0
LINE
  5
710E
  8
0
 10
3045.8578244093419016
 20
58.4634449130083169
 30
0.0
 11
3045.8531900357420454
 21
58.4879752554080881
 31
0.0
  0
ARC
  5
710F
  8
0
 10
3039.1721763249270225
 20
55.7557595824976886
 30
0.0
 40
0.0824538872278029
 50
98.6752550162745763
 51
176.1547205045253861
  0
LINE
  5
7110
  8
0
 10
3039.1597394840418929
 20
55.8372701248082706
 30
0.0
 11
3045.8577937560658029
 21
55.8370184480626008
 31
0.0
  0
LINE
  5
7111
  8
0
 10
3045.8577937763288901
 20
53.3090188620304488
 30
0.0
 11
3039.1597397359419119
 21
53.3090188532083005
 31
0.0
  0
ARC
  5
7112
  8
0
 10
3039.1713838263299294
 20
53.3898090592160486
 30
0.0
 40
0.0816250098177938
 50
183.5741281445166067
 51
261.7985800050547027
  0
LINE
  5
7113
  8
0
 10
3039.0899175788149478
 20
53.3847205679306001
 30
0.0
 11
3039.0899080593721919
 21
55.7612891395862391
 31
0.0
  0
ARC
  5
7114
  8
0
 10
3047.3077097336081351
 20
53.6767032301623601
 30
0.0
 40
1.48214524480013
 50
180.6836061534050089
 51
191.0796124920007912
  0
LINE
  5
7115
  8
0
 10
3045.825669981476949
 20
53.6590199107345995
 30
0.0
 11
3045.8256804987740907
 21
55.4870106027082883
 31
0.0
  0
ARC
  5
7116
  8
0
 10
3047.3360268641690709
 20
55.4664751861597765
 30
0.0
 40
1.5104859637853101
 50
169.0263617270177861
 51
179.221026229282586
  0
LINE
  5
7117
  8
0
 10
3045.8578244093419016
 20
55.778812256708278
 30
0.0
 11
3045.8531603317510417
 21
55.7540072605887929
 31
0.0
  0
LINE
  5
7118
  8
0
 10
3045.8578244093419016
 20
53.3673449130082815
 30
0.0
 11
3045.8531900357420454
 21
53.3918752554081095
 31
0.0
  0
ARC
  5
7119
  8
0
 10
3039.1721763249270225
 20
50.6596595824977101
 30
0.0
 40
0.0824538872278029
 50
98.6752550162745763
 51
176.1547205045253861
  0
LINE
  5
711A
  8
0
 10
3039.1597394840418929
 20
50.741170124808292
 30
0.0
 11
3045.8577937560821738
 21
50.7409184480626081
 31
0.0
  0
LINE
  5
711B
  8
0
 10
3045.857793776255221
 20
48.2129188620304205
 30
0.0
 11
3039.1597397359419119
 21
48.2129188532083219
 31
0.0
  0
ARC
  5
711C
  8
0
 10
3039.1713838263299294
 20
48.29370905921607
 30
0.0
 40
0.0816250098177938
 50
183.5741281445166067
 51
261.7985800050547027
  0
LINE
  5
711D
  8
0
 10
3039.0899175788149478
 20
48.2886205679306215
 30
0.0
 11
3039.0899080593721919
 21
50.6651891395862606
 31
0.0
  0
ARC
  5
711E
  8
0
 10
3047.3077097336081351
 20
48.5806032301623816
 30
0.0
 40
1.48214524480013
 50
180.6836061534050089
 51
191.0796124920007912
  0
LINE
  5
711F
  8
0
 10
3045.825669981476949
 20
48.562919910734621
 30
0.0
 11
3045.8256804987740907
 21
50.3909106027083098
 31
0.0
  0
ARC
  5
7120
  8
0
 10
3047.3360268641690709
 20
50.3703751861597411
 30
0.0
 40
1.5104859637853101
 50
169.0263617270177861
 51
179.221026229282586
  0
LINE
  5
7121
  8
0
 10
3045.8578244093419016
 20
50.6827122567082995
 30
0.0
 11
3045.8531603317510417
 21
50.6579072605887504
 31
0.0
  0
LINE
  5
7122
  8
0
 10
3045.8578244093419016
 20
48.271244913008303
 30
0.0
 11
3045.8531900357420454
 21
48.295775255408131
 31
0.0
  0
ARC
  5
7123
  8
0
 10
3039.1721763249270225
 20
45.5635595824976676
 30
0.0
 40
0.0824538872278029
 50
98.6752550162745763
 51
176.1547205045253861
  0
LINE
  5
7124
  8
0
 10
3039.1597394840418929
 20
45.6450701248083135
 30
0.0
 11
3045.8577937559912243
 21
45.6448184480626296
 31
0.0
  0
LINE
  5
7125
  8
0
 10
3045.8678353939408225
 20
43.1168188620436794
 30
0.0
 11
3039.1597397359419119
 21
43.1168188532082866
 31
0.0
  0
ARC
  5
7126
  8
0
 10
3039.1713838263299294
 20
43.1976090592160276
 30
0.0
 40
0.0816250098177938
 50
183.5741281445166067
 51
261.7985800050547027
  0
LINE
  5
7127
  8
0
 10
3039.0899175788149478
 20
43.192520567930643
 30
0.0
 11
3039.0899080593721919
 21
45.569089139586282
 31
0.0
  0
ARC
  5
7128
  8
0
 10
3047.3077097336081351
 20
43.4845032301623391
 30
0.0
 40
1.48214524480013
 50
180.6836061534050089
 51
191.0796124920007912
  0
LINE
  5
7129
  8
0
 10
3045.825669981476949
 20
43.4668199107346425
 30
0.0
 11
3045.8256804987740907
 21
45.2948106027082673
 31
0.0
  0
ARC
  5
712A
  8
0
 10
3047.3360268641690709
 20
45.2742751861597696
 30
0.0
 40
1.5104859637853101
 50
169.0263617270177861
 51
179.221026229282586
  0
LINE
  5
712B
  8
0
 10
3045.8578244093419016
 20
45.586612256708321
 30
0.0
 11
3045.8531603317510417
 21
45.5618072605887789
 31
0.0
  0
LINE
  5
712C
  8
0
 10
3045.8678353939408225
 20
43.1195077315083211
 30
0.0
 11
3045.8531900357420454
 21
43.1996752554081027
 31
0.0
  0
ARC
  5
712D
  8
0
 10
3047.3624161818670473
 20
68.1956850678202784
 30
0.0
 40
1.552264963746703
 50
165.7694696824613061
 51
178.834124908259497
  0
LINE
  5
712E
  8
0
 10
3045.8104725691209751
 20
68.227268932908288
 30
0.0
 11
3045.8104725690459418
 21
66.3992689329228654
 31
0.0
  0
ARC
  5
712F
  8
0
 10
3047.3624190489281318
 20
66.430852974380656
 30
0.0
 40
1.5522678338785421
 50
181.1658794470882867
 51
194.2305101640066027
  0
ARC
  5
7130
  8
0
 10
3042.8164738536161167
 20
68.5025249852502895
 30
0.0
 40
0.0755817696212508
 50
90.8347771827583301
 51
184.2985242068693879
  0
LINE
  5
7131
  8
0
 10
3042.8153726956420542
 20
68.5780987330083178
 30
0.0
 11
3045.8577832460441641
 21
68.577268932927808
 31
0.0
  0
LINE
  5
7132
  8
0
 10
3045.8577831968232204
 20
66.0492689329752523
 30
0.0
 11
3042.8220482612869091
 21
66.0457732827574944
 31
0.0
  0
ARC
  5
7133
  8
0
 10
3042.8206553312179494
 20
66.1254936550809731
 30
0.0
 40
0.0797325405187388
 50
176.9293652561642034
 51
271.0010100502386763
  0
LINE
  5
7134
  8
0
 10
3042.7410372662420741
 20
66.1297646909082744
 30
0.0
 11
3042.7411046906418051
 21
68.4968599017083477
 31
0.0
  0
ARC
  5
7135
  8
0
 10
3047.36241618187114
 20
63.0995850678202999
 30
0.0
 40
1.552264963746703
 50
165.7694696824613061
 51
178.834124908259497
  0
LINE
  5
7136
  8
0
 10
3045.8104725691259773
 20
63.1311689329083094
 30
0.0
 11
3045.8104725690500345
 21
61.30316893292283
 31
0.0
  0
ARC
  5
7137
  8
0
 10
3047.3624190489322245
 20
61.3347529743806206
 30
0.0
 40
1.5522678338785421
 50
181.1658794470882867
 51
194.2305101640066027
  0
ARC
  5
7138
  8
0
 10
3042.8164738536211189
 20
63.4064249852502471
 30
0.0
 40
0.0755817696212508
 50
90.8347771827583301
 51
184.2985242068693879
  0
LINE
  5
7139
  8
0
 10
3042.8153726956461469
 20
63.4819987330082824
 30
0.0
 11
3045.8577832460468926
 21
63.4811689329277726
 31
0.0
  0
LINE
  5
713A
  8
0
 10
3045.8577831968282226
 20
60.9531689329752666
 30
0.0
 11
3042.8220482612919113
 21
60.9496732827575087
 31
0.0
  0
ARC
  5
713B
  8
0
 10
3042.8206553312220422
 20
61.0293936550810088
 30
0.0
 40
0.0797325405187388
 50
176.9293652561642034
 51
271.0010100502386763
  0
LINE
  5
713C
  8
0
 10
3042.7410372662461668
 20
61.0336646909082887
 30
0.0
 11
3042.7411046906458978
 21
63.4007599017083692
 31
0.0
  0
ARC
  5
713D
  8
0
 10
3047.36241618187114
 20
58.0034850678202574
 30
0.0
 40
1.552264963746703
 50
165.7694696824613061
 51
178.834124908259497
  0
LINE
  5
713E
  8
0
 10
3045.8104725691259773
 20
58.035068932908267
 30
0.0
 11
3045.8104725690500345
 21
56.2070689329228514
 31
0.0
  0
ARC
  5
713F
  8
0
 10
3047.3624190489322245
 20
56.238652974380642
 30
0.0
 40
1.5522678338785421
 50
181.1658794470882867
 51
194.2305101640066027
  0
ARC
  5
7140
  8
0
 10
3042.8164738536211189
 20
58.3103249852502685
 30
0.0
 40
0.0755817696212508
 50
90.8347771827583301
 51
184.2985242068693879
  0
LINE
  5
7141
  8
0
 10
3042.8153726956461469
 20
58.3858987330082968
 30
0.0
 11
3045.8577832460468926
 21
58.385068932927787
 31
0.0
  0
LINE
  5
7142
  8
0
 10
3045.8577831968282226
 20
55.8570689329752383
 30
0.0
 11
3042.8220482612919113
 21
55.8535732827574805
 31
0.0
  0
ARC
  5
7143
  8
0
 10
3042.8206553312220422
 20
55.9332936550810302
 30
0.0
 40
0.0797325405187388
 50
176.9293652561642034
 51
271.0010100502386763
  0
LINE
  5
7144
  8
0
 10
3042.7410372662461668
 20
55.9375646909082604
 30
0.0
 11
3042.7411046906458978
 21
58.3046599017083267
 31
0.0
  0
ARC
  5
7145
  8
0
 10
3047.36241618187114
 20
52.9073850678202788
 30
0.0
 40
1.552264963746703
 50
165.7694696824613061
 51
178.834124908259497
  0
LINE
  5
7146
  8
0
 10
3045.8104725691259773
 20
52.9389689329082884
 30
0.0
 11
3045.8104725690500345
 21
51.11096893292288
 31
0.0
  0
ARC
  5
7147
  8
0
 10
3047.3624190489322245
 20
51.1425529743805996
 30
0.0
 40
1.5522678338785421
 50
181.1658794470882867
 51
194.2305101640066027
  0
ARC
  5
7148
  8
0
 10
3042.8164738536211189
 20
53.2142249852502403
 30
0.0
 40
0.0755817696212508
 50
90.8347771827583301
 51
184.2985242068693879
  0
LINE
  5
7149
  8
0
 10
3042.8153726956461469
 20
53.2897987330082685
 30
0.0
 11
3045.8577832460468926
 21
53.2889689329277587
 31
0.0
  0
LINE
  5
714A
  8
0
 10
3045.8577831968282226
 20
50.7609689329752598
 30
0.0
 11
3042.8220482612919113
 21
50.7574732827575019
 31
0.0
  0
ARC
  5
714B
  8
0
 10
3042.8206553312220422
 20
50.8371936550809878
 30
0.0
 40
0.0797325405187388
 50
176.9293652561642034
 51
271.0010100502386763
  0
LINE
  5
714C
  8
0
 10
3042.7410372662461668
 20
50.8414646909082819
 30
0.0
 11
3042.7411046906458978
 21
53.2085599017083481
 31
0.0
  0
ARC
  5
714D
  8
0
 10
3047.3624161817710956
 20
47.8112850678202506
 30
0.0
 40
1.552264963746703
 50
165.7694696824613061
 51
178.834124908259497
  0
LINE
  5
714E
  8
0
 10
3045.8104725690259329
 20
47.842868932908317
 30
0.0
 11
3045.8104725689499901
 21
46.0148689329228375
 31
0.0
  0
ARC
  5
714F
  8
0
 10
3047.3624190488330896
 20
46.0464529743806281
 30
0.0
 40
1.5522678338785421
 50
181.1658794470882867
 51
194.2305101640066027
  0
ARC
  5
7150
  8
0
 10
3042.8164738535210745
 20
48.1181249852502617
 30
0.0
 40
0.0755817696212508
 50
90.8347771827583301
 51
184.2985242068693879
  0
LINE
  5
7151
  8
0
 10
3042.8153726955461025
 20
48.1936987330082829
 30
0.0
 11
3045.8577832459468482
 21
48.1928689329277802
 31
0.0
  0
LINE
  5
7152
  8
0
 10
3045.8577831967281782
 20
45.6648689329752173
 30
0.0
 11
3042.8220482611918669
 21
45.6613732827575234
 31
0.0
  0
ARC
  5
7153
  8
0
 10
3042.8206553311219977
 20
45.7410936550810092
 30
0.0
 40
0.0797325405187388
 50
176.9293652561642034
 51
271.0010100502386763
  0
LINE
  5
7154
  8
0
 10
3042.7410372661461224
 20
45.7453646909083034
 30
0.0
 11
3042.7411046905458534
 21
48.1124599017083767
 31
0.0
  0
LINE
  5
7155
  8
0
 10
3045.8578244093419016
 20
45.586612256708321
 30
0.0
 11
3045.8577831967281782
 21
45.6648689329752173
 31
0.0
  0
LINE
  5
7156
  8
0
 10
3045.8578244093419016
 20
48.271244913008303
 30
0.0
 11
3045.8577832459468482
 21
48.1928689329277802
 31
0.0
  0
LINE
  5
7157
  8
0
 10
3045.8577831968500504
 20
50.7609689329752598
 30
0.0
 11
3045.8578244093419016
 21
50.6827122567082995
 31
0.0
  0
LINE
  5
7158
  8
0
 10
3045.8578244093419016
 20
53.3673449130082815
 30
0.0
 11
3045.8577832460468926
 21
53.2889689329277587
 31
0.0
  0
LINE
  5
7159
  8
0
 10
3045.8577831968282226
 20
55.8570689329752383
 30
0.0
 11
3045.8578244093419016
 21
55.778812256708278
 31
0.0
  0
LINE
  5
715A
  8
0
 10
3045.8578244093419016
 20
58.4634449130083169
 30
0.0
 11
3045.8577832460359787
 21
58.385068932927787
 31
0.0
  0
LINE
  5
715B
  8
0
 10
3045.8577831968282226
 20
60.9531689329751103
 30
0.0
 11
3045.8578244093419016
 21
60.8749122567083134
 31
0.0
  0
LINE
  5
715C
  8
0
 10
3045.8577832460441641
 20
63.4811689329325475
 30
0.0
 11
3045.8578244093419016
 21
63.5595449130082883
 31
0.0
  0
LINE
  5
715D
  8
0
 10
3045.8577831968232204
 20
66.0492689329750817
 30
0.0
 11
3045.8578244093419016
 21
65.9710122567082919
 31
0.0
  0
LINE
  5
715E
  8
0
 10
3045.8578244093419016
 20
68.655644913008274
 30
0.0
 11
3045.8577832460400714
 21
68.5772689329157004
 31
0.0
  0
ARC
  5
715F
  8
0
 10
3045.562257878777018
 20
71.1419445588291239
 30
0.0
 40
0.3048925178335519
 50
345.7922624657343817
 51
1.2637496254875811
  0
LINE
  5
7160
  8
0
 10
3045.4300664908619183
 20
71.1954763874407206
 30
0.0
 11
2988.9294483622597909
 21
71.1954763874407206
 31
0.0
  0
ARC
  5
7161
  8
0
 10
3047.4283528309588291
 20
88.5747835445011731
 30
0.0
 40
1.618225219196606
 50
166.0433771215224112
 51
178.6939023676048919
  0
LINE
  5
7162
  8
0
 10
3045.8105480441681721
 20
88.6116689329249567
 30
0.0
 11
3045.8105480164008441
 21
86.7836689329082844
 31
0.0
  0
ARC
  5
7163
  8
0
 10
3047.4283440237900322
 20
86.8205532703496772
 30
0.0
 40
1.6182164181199781
 50
181.306067515631014
 51
193.9566620050970016
  0
ARC
  5
7164
  8
0
 10
3045.6040334565518606
 20
42.4810763799499327
 30
0.0
 40
0.0622799297156135
 50
173.1977761761718
 51
267.1881793452989768
  0
ARC
  5
7165
  8
0
 10
3045.688947089622161
 20
42.5438750758639515
 30
0.0
 40
0.1250036442470351
 50
170.7935793664707091
 51
269.9917642786671195
  0
ARC
  5
7166
  8
0
 10
3047.127187254529872
 20
42.3065067988057066
 30
0.0
 40
1.595404217641563
 50
159.8966152267578025
 51
173.4515163292925024
  0
ARC
  5
7167
  8
0
 10
3047.1514384843690095
 20
42.3068318512326016
 30
0.0
 40
1.6065806992969269
 50
160.0547695640815959
 51
170.7934697040697927
  0
ARC
  5
7168
  8
0
 10
3045.8551068491387923
 20
42.7724072509238624
 30
0.0
 40
0.2406897594336453
 50
114.2045558551420044
 51
159.9636597905517021
  0
ARC
  5
7169
  8
0
 10
3045.8667877040738858
 20
42.77303348361513
 30
0.0
 40
0.2399528833841081
 50
114.1778317577254995
 51
160.0586286530864015
  0
ARC
  5
716A
  8
0
 10
3045.6747559567679673
 20
43.1777639605787371
 30
0.0
 40
0.202981208693281
 50
293.7250691569058176
 51
332.2059092223890957
  0
ARC
  5
716B
  8
0
 10
3045.6881503350109597
 20
43.1727145734802988
 30
0.0
 40
0.197833514560077
 50
293.9663059948259161
 51
333.0697711040746753
  0
LINE
  5
716C
  8
0
 10
3045.8543190349419092
 20
43.0831147554082676
 30
0.0
 11
2988.5051985409418194
 21
43.0831147554082676
 31
0.0
  0
LINE
  5
716D
  8
0
 10
3045.8678353939408225
 20
43.1195077315083211
 30
0.0
 11
3045.8678353939408225
 21
43.0968068049082973
 31
0.0
  0
ARC
  5
716E
  8
0
 10
3045.8377127612411641
 20
43.0968326674636373
 30
0.0
 40
0.030122643800803
 50
332.9091988378236806
 51
359.9508071867921899
  0
ARC
  5
716F
  8
0
 10
3045.0813816072932241
 20
56.6524192272426887
 30
0.0
 40
14.4618378764934992
 50
86.9009795169401684
 51
89.7803102991118465
  0
ARC
  5
7170
  8
0
 10
2989.0208881055359598
 20
41.0338149973668678
 30
0.0
 40
0.6323823595832474
 50
181.8229587880776137
 51
269.1967365798140008
  0
LINE
  5
7171
  8
0
 10
2987.724758787941937
 20
42.4188714329082686
 30
0.0
 11
2987.715106294279849
 21
42.6952047148082769
 31
0.0
  0
LINE
  5
7172
  8
0
 10
2987.4643009672581684
 20
42.9459349031289079
 30
0.0
 11
2987.2087090802770035
 21
42.954860371397757
 31
0.0
  0
ARC
  5
7173
  8
0
 10
2988.2189001876699876
 20
42.2937975723081934
 30
0.0
 40
0.125154397011138
 50
1.3885425263817881
 51
87.9444214544952558
  0
LINE
  5
7174
  8
0
 10
2988.3440178337828002
 20
42.2968303470377407
 30
0.0
 11
2988.3888257986941426
 21
41.0136981143770285
 31
0.0
  0
ARC
  5
7175
  8
0
 10
2987.2108032875530625
 20
42.985853387097869
 30
0.0
 40
0.031063688227581
 50
181.8656168395982888
 51
266.1343831574179717
  0
ARC
  5
7176
  8
0
 10
2987.2172560652270477
 20
100.6670403696268039
 30
0.0
 40
0.0624999999534858
 50
359.9999999829794888
 51
87.0000001002876928
  0
CIRCLE
  5
7177
  8
0
 10
2987.9297560651798449
 20
100.2409474329082997
 30
0.0
 40
0.09375
  0
CIRCLE
  5
7178
  8
0
 10
2988.6797560651798449
 20
100.2409474329082997
 30
0.0
 40
0.09375
  0
CIRCLE
  5
7179
  8
0
 10
2989.4297560651798449
 20
100.2409474329082997
 30
0.0
 40
0.09375
  0
CIRCLE
  5
717A
  8
0
 10
2990.1797560651798449
 20
100.2409474329082997
 30
0.0
 40
0.09375
  0
CIRCLE
  5
717B
  8
0
 10
2990.9297560651798449
 20
100.2409474329082997
 30
0.0
 40
0.09375
  0
CIRCLE
  5
717C
  8
0
 10
2991.6797560651798449
 20
100.2409474329082997
 30
0.0
 40
0.09375
  0
CIRCLE
  5
717D
  8
0
 10
2992.4297560651798449
 20
100.2409474329082997
 30
0.0
 40
0.09375
  0
CIRCLE
  5
717E
  8
0
 10
2993.1797560651798449
 20
100.2409474329082997
 30
0.0
 40
0.09375
  0
CIRCLE
  5
717F
  8
0
 10
2993.9297560651798449
 20
100.2409474329082997
 30
0.0
 40
0.09375
  0
CIRCLE
  5
7180
  8
0
 10
2994.6797560651798449
 20
100.2409474329082997
 30
0.0
 40
0.09375
  0
CIRCLE
  5
7181
  8
0
 10
2995.4297560651798449
 20
100.2409474329082997
 30
0.0
 40
0.09375
  0
CIRCLE
  5
7182
  8
0
 10
2996.1797560651798449
 20
100.2409474329082997
 30
0.0
 40
0.09375
  0
CIRCLE
  5
7183
  8
0
 10
2996.9297560651798449
 20
100.2409474329082997
 30
0.0
 40
0.09375
  0
CIRCLE
  5
7184
  8
0
 10
2997.6797560651798449
 20
100.2409474329082997
 30
0.0
 40
0.09375
  0
CIRCLE
  5
7185
  8
0
 10
2998.4297560651798449
 20
100.2409474329082997
 30
0.0
 40
0.09375
  0
CIRCLE
  5
7186
  8
0
 10
2999.1797560651798449
 20
100.2409474329082997
 30
0.0
 40
0.09375
  0
CIRCLE
  5
7187
  8
0
 10
2999.9297560651798449
 20
100.2409474329082997
 30
0.0
 40
0.09375
  0
CIRCLE
  5
7188
  8
0
 10
3000.6797560651798449
 20
100.2409474329082997
 30
0.0
 40
0.09375
  0
CIRCLE
  5
7189
  8
0
 10
3001.4297560651798449
 20
100.2409474329082997
 30
0.0
 40
0.09375
  0
CIRCLE
  5
718A
  8
0
 10
3002.1797560651798449
 20
100.2409474329082997
 30
0.0
 40
0.09375
  0
CIRCLE
  5
718B
  8
0
 10
3002.9297560651798449
 20
100.2409474329082997
 30
0.0
 40
0.09375
  0
CIRCLE
  5
718C
  8
0
 10
3003.6797560651798449
 20
100.2409474329082997
 30
0.0
 40
0.09375
  0
CIRCLE
  5
718D
  8
0
 10
3004.4297560651798449
 20
100.2409474329082997
 30
0.0
 40
0.09375
  0
CIRCLE
  5
718E
  8
0
 10
3005.1797560651798449
 20
100.2409474329082997
 30
0.0
 40
0.09375
  0
CIRCLE
  5
718F
  8
0
 10
3005.9297560651798449
 20
100.2409474329082997
 30
0.0
 40
0.09375
  0
CIRCLE
  5
7190
  8
0
 10
3006.6797560651798449
 20
100.2409474329082997
 30
0.0
 40
0.09375
  0
CIRCLE
  5
7191
  8
0
 10
3007.4297560651798449
 20
100.2409474329082997
 30
0.0
 40
0.09375
  0
CIRCLE
  5
7192
  8
0
 10
3008.1797560651798449
 20
100.2409474329082997
 30
0.0
 40
0.09375
  0
CIRCLE
  5
7193
  8
0
 10
3016.4297560650798005
 20
100.2409474329082997
 30
0.0
 40
0.09375
  0
CIRCLE
  5
7194
  8
0
 10
3015.6797560650798005
 20
100.2409474329082997
 30
0.0
 40
0.09375
  0
CIRCLE
  5
7195
  8
0
 10
3014.9297560650798005
 20
100.2409474329082997
 30
0.0
 40
0.09375
  0
CIRCLE
  5
7196
  8
0
 10
3014.1797560650798005
 20
100.2409474329082997
 30
0.0
 40
0.09375
  0
CIRCLE
  5
7197
  8
0
 10
3013.4297560650798005
 20
100.2409474329082997
 30
0.0
 40
0.09375
  0
CIRCLE
  5
7198
  8
0
 10
3012.6797560650798005
 20
100.2409474329082997
 30
0.0
 40
0.09375
  0
CIRCLE
  5
7199
  8
0
 10
3011.9297560650798005
 20
100.2409474329082997
 30
0.0
 40
0.09375
  0
CIRCLE
  5
719A
  8
0
 10
3011.1797560650798005
 20
100.2409474329082997
 30
0.0
 40
0.09375
  0
CIRCLE
  5
719B
  8
0
 10
3010.4297560650798005
 20
100.2409474329082997
 30
0.0
 40
0.09375
  0
CIRCLE
  5
719C
  8
0
 10
3009.6797560650798005
 20
100.2409474329082997
 30
0.0
 40
0.09375
  0
CIRCLE
  5
719D
  8
0
 10
3008.9297560650798005
 20
100.2409474329082997
 30
0.0
 40
0.09375
  0
ARC
  5
719E
  8
0
 10
2987.7198364171990761
 20
87.4499240028961538
 30
0.0
 40
13.2924619577110192
 50
90.9490273167493797
 51
91.591371700244153
  0
ARC
  5
719F
  8
0
 10
2987.3578496287609596
 20
100.6723884989142022
 30
0.0
 40
0.0652645652224314
 50
96.2980609704424353
 51
106.839801671930104
  0
ARC
  5
71A0
  8
0
 10
2987.3399322192208274
 20
100.7315318507539956
 30
0.0
 40
0.0034667890539801
 50
106.5845051380289021
 51
156.1948510659393037
  0
LINE
  5
71A1
  8
0
 10
2987.3367603727961068
 20
100.7329311422166001
 30
0.0
 11
2987.2797805890349991
 21
100.6374526389681989
 31
0.0
  0
ARC
  5
71A2
  8
0
 10
2987.3424993510361674
 20
99.5345488111754833
 30
0.0
 40
0.0631070482025065
 50
186.1548244795951064
 51
266.8064174934531252
  0
LINE
  5
71A3
  8
0
 10
2987.3389836780202131
 20
99.4715397674902846
 30
0.0
 11
2988.0993745095970553
 21
99.4316789219076611
 31
0.0
  0
ARC
  5
71A4
  8
0
 10
2988.0857963680150533
 20
99.1738738227738565
 30
0.0
 40
0.2581624199379199
 50
359.9994696005675223
 51
86.985117613220396
  0
LINE
  5
71A5
  8
0
 10
2988.3439587879411192
 20
99.1738714329082711
 30
0.0
 11
2988.3439560651800093
 21
42.5438714329082686
 31
0.0
  0
ARC
  5
71A6
  8
0
 10
2988.2188158231879243
 20
42.5439280853359207
 30
0.0
 40
0.1251402548152468
 50
272.0944627187232072
 51
359.9740615430495723
  0
ARC
  5
71A7
  8
0
 10
2986.9328177814718401
 20
98.76720510732045
 30
0.0
 40
1.6165649126030699
 50
1.299682892625198
 51
13.9631559315610208
  0
LINE
  5
71A8
  8
0
 10
2988.5489668082950629
 20
98.8038717100490516
 30
0.0
 11
2988.5489668089799125
 21
96.9758689329082983
 31
0.0
  0
ARC
  5
71A9
  8
0
 10
2986.9311730023860036
 20
97.0127528521334455
 30
0.0
 40
1.618214208364283
 50
346.0433338061064887
 51
358.6939455121008109
  0
ARC
  5
71AA
  8
0
 10
2998.8377543143619732
 20
99.0724892997910445
 30
0.0
 40
0.082590736034968
 50
3.942111706237954
 51
81.2913706712688082
  0
LINE
  5
71AB
  8
0
 10
2998.8502593525799966
 20
99.1541278550082836
 30
0.0
 11
2991.7091494206802054
 21
99.1566104066082232
 31
0.0
  0
ARC
  5
71AC
  8
0
 10
2991.7184173717300837
 20
99.071164037826037
 30
0.0
 40
0.0859475238429649
 50
96.1903935602164779
 51
175.3450164775275084
  0
LINE
  5
71AD
  8
0
 10
2991.6327533494800264
 20
99.0781391469082848
 30
0.0
 11
2991.6327624945802199
 21
96.7015705516973583
 31
0.0
  0
ARC
  5
71AE
  8
0
 10
2991.7149968057019578
 20
96.7071004171516222
 30
0.0
 40
0.0824200299533133
 50
183.8470763153707139
 51
261.3864160044975051
  0
LINE
  5
71AF
  8
0
 10
2991.7026527776788498
 20
96.6256100109082041
 30
0.0
 11
2998.8437627024800349
 21
96.6231274592082912
 31
0.0
  0
ARC
  5
71B0
  8
0
 10
2998.8345006289541743
 20
96.7085681129149464
 30
0.0
 40
0.0859412084614658
 50
276.186908807080215
 51
355.3485027668336897
  0
LINE
  5
71B1
  8
0
 10
2998.920158780879774
 20
96.7015987284082996
 30
0.0
 11
2998.9201496422801938
 21
99.0781672938082636
 31
0.0
  0
ARC
  5
71B2
  8
0
 10
2991.5388911479608396
 20
99.0776408321394655
 30
0.0
 40
0.0796300539901669
 50
356.9903457378699727
 51
90.9176753425211785
  0
LINE
  5
71B3
  8
0
 10
2991.5376158112180747
 20
99.1572606727237087
 30
0.0
 11
2988.5016149687799043
 21
99.1572788205487967
 31
0.0
  0
LINE
  5
71B4
  8
0
 10
2988.5016149681650859
 20
96.6224590445084743
 30
0.0
 11
2991.5374675675329854
 21
96.6223250670669529
 31
0.0
  0
ARC
  5
71B5
  8
0
 10
2991.5387070266388037
 20
96.7021949174762483
 30
0.0
 40
0.0798794670943839
 50
269.1109276478380252
 51
2.9922440426882368
  0
LINE
  5
71B6
  8
0
 10
2991.6184775868800898
 20
96.7063646875082839
 30
0.0
 11
2991.6184113683798387
 21
99.0734599180083109
 31
0.0
  0
LINE
  5
71B7
  8
0
 10
2987.2797560651802087
 20
100.6670403696083014
 30
0.0
 11
2987.2797560639578478
 21
99.5277827591915809
 31
0.0
  0
ARC
  5
71B8
  8
0
 10
2994.3383283140988169
 20
27.142675960548079
 30
0.0
 40
1.879844777336759
 50
202.2380808908012
 51
270.5884045606964037
  0
ARC
  5
71B9
  8
0
 10
3021.024456643629037
 20
37.7061322532152587
 30
0.0
 40
30.5805362079423695
 50
178.474690827528093
 51
201.6351654411232914
  0
LINE
  5
71BA
  8
0
 10
2987.1797560651789354
 20
100.7315914329083029
 30
0.0
 11
2987.1797560651798449
 21
42.9848420962082614
 31
0.0
  0
ARC
  5
71BB
  8
0
 10
2989.3548599721161736
 20
73.7233211867176976
 30
0.0
 40
0.7885450019640446
 50
183.6435038812514904
 51
265.5337334520377794
  0
ARC
  5
71BC
  8
0
 10
2988.9141759043641287
 20
67.8925110421393043
 30
0.0
 40
3.3030006539860381
 50
89.7350740765915873
 51
97.2517978587931395
  0
LINE
  5
71BD
  8
0
 10
2987.2205270654799278
 20
100.7294547153082931
 30
0.0
 11
2987.1797560651789354
 21
100.7315914329083029
 31
0.0
  0
ARC
  5
71BE
  8
0
 10
2991.27847483436517
 20
123.359226389999904
 30
0.0
 40
23.8808134902855613
 50
263.9089544909332972
 51
270.832386797440904
  0
ARC
  5
71BF
  8
0
 10
2987.7157099224600643
 20
94.7258649427747343
 30
0.0
 40
4.9944754097227317
 50
78.1126399366005302
 51
86.972520467829824
  0
ARC
  5
71C0
  8
0
 10
-5841.5860956143560543
 20
-168057.2696137186139822
 30
0.0
 40
168388.6342796013050247
 50
86.9942807629556114
 51
86.9944453648087119
  0
ARC
  5
71C1
  8
0
 10
2987.4997609748811556
 20
99.8011930724561438
 30
0.0
 40
0.0625483017807696
 50
180.1467563129847065
 51
266.9232501539307236
  0
LINE
  5
71C2
  8
0
 10
2987.4372128782802065
 20
99.8010328626083094
 30
0.0
 11
2987.4372128782802065
 21
100.6711079159081947
 31
0.0
  0
ARC
  5
71C3
  8
0
 10
2987.3663592543580307
 20
100.6674388004195038
 30
0.0
 40
0.070948561869052
 50
2.9643821618284218
 51
83.3001860012800392
  0
ARC
  5
71C4
  8
0
 10
2987.4552660351901068
 20
42.6860919251958819
 30
0.0
 40
0.2600000061127105
 50
2.008582044179926
 51
88.0085857546881982
  0
LINE
  5
71C5
  8
0
 10
2987.22541653467988
 20
22.4188714329082792
 30
0.0
 11
2987.22541653467988
 21
38.52014095230831
 31
0.0
  0
ARC
  5
71C6
  8
0
 10
2819.3553084984150701
 20
39.6269483821656934
 30
0.0
 40
167.8737567185355033
 50
359.6222408127056269
 51
1.1371568885813701
  0
LINE
  5
71C7
  8
0
 10
2987.3967262736800876
 20
42.9188714329082828
 30
0.0
 11
2987.1967856053029209
 21
42.9188714329082828
 31
0.0
  0
LINE
  5
71C8
  8
0
 10
2987.3222906155801866
 20
42.9188714329082828
 30
0.0
 11
2987.3211545574258707
 21
42.9509336875342171
 31
0.0
  0
ARC
  5
71C9
  8
0
 10
2987.3967262736800876
 20
42.6438714329082984
 30
0.0
 40
0.2749999999999932
 50
2.0012180976986609
 51
90.0
  0
LINE
  5
71CA
  8
0
 10
2987.671558547010136
 20
42.6534746373870632
 30
0.0
 11
2987.6787444153801516
 21
42.4478239584082928
 31
0.0
  0
ARC
  5
71CB
  8
0
 10
2987.712060195966842
 20
42.452324333508578
 30
0.0
 40
0.033618367184186
 50
187.6930835449863935
 51
264.3130060873314733
  0
ARC
  5
71CC
  8
0
 10
3006.1388543143621064
 20
99.0724892997910445
 30
0.0
 40
0.082590736034968
 50
3.942111706237954
 51
81.2913706712688082
  0
LINE
  5
71CD
  8
0
 10
3006.1513593525810393
 20
99.1541278550082836
 30
0.0
 11
2999.0102494206798838
 21
99.1566104066082232
 31
0.0
  0
ARC
  5
71CE
  8
0
 10
2999.0195173717302168
 20
99.071164037826037
 30
0.0
 40
0.0859475238429649
 50
96.1903935602164779
 51
175.3450164775275084
  0
LINE
  5
71CF
  8
0
 10
2998.9338533494801595
 20
99.0781391469082848
 30
0.0
 11
2998.9338624945798983
 21
96.7015705516973583
 31
0.0
  0
ARC
  5
71D0
  8
0
 10
2999.0160968057020909
 20
96.7071004171516222
 30
0.0
 40
0.0824200299533133
 50
183.8470763153707139
 51
261.3864160044975051
  0
LINE
  5
71D1
  8
0
 10
2999.0037527776798925
 20
96.6256100109082041
 30
0.0
 11
3006.1448627024801681
 21
96.6231274592082912
 31
0.0
  0
ARC
  5
71D2
  8
0
 10
3006.1356006289538527
 20
96.7085681129149464
 30
0.0
 40
0.0859412084614658
 50
276.186908807080215
 51
355.3485027668336897
  0
LINE
  5
71D3
  8
0
 10
3006.2212587808799071
 20
96.7015987284082996
 30
0.0
 11
3006.2212496422798722
 21
99.0781672938082636
 31
0.0
  0
ARC
  5
71D4
  8
0
 10
3013.4399543143617848
 20
99.0724892997910445
 30
0.0
 40
0.082590736034968
 50
3.942111706237954
 51
81.2913706712688082
  0
LINE
  5
71D5
  8
0
 10
3013.4524593525798082
 20
99.1541278550082836
 30
0.0
 11
3006.3113494206800169
 21
99.1566104066082232
 31
0.0
  0
ARC
  5
71D6
  8
0
 10
3006.3206173717289857
 20
99.071164037826037
 30
0.0
 40
0.0859475238429649
 50
96.1903935602164779
 51
175.3450164775275084
  0
LINE
  5
71D7
  8
0
 10
3006.2349533494798379
 20
99.0781391469082848
 30
0.0
 11
3006.2349624945800315
 21
96.7015705516973583
 31
0.0
  0
ARC
  5
71D8
  8
0
 10
3006.3171968057022241
 20
96.7071004171516222
 30
0.0
 40
0.0824200299533133
 50
183.8470763153707139
 51
261.3864160044975051
  0
LINE
  5
71D9
  8
0
 10
3006.3048527776800256
 20
96.6256100109082041
 30
0.0
 11
3013.4459627024798465
 21
96.6231274592082912
 31
0.0
  0
ARC
  5
71DA
  8
0
 10
3013.4367006289530764
 20
96.7085681129149464
 30
0.0
 40
0.0859412084614658
 50
276.186908807080215
 51
355.3485027668336897
  0
LINE
  5
71DB
  8
0
 10
3013.5223587808800403
 20
96.7015987284082996
 30
0.0
 11
3013.5223496422800054
 21
99.0781672938082636
 31
0.0
  0
ARC
  5
71DC
  8
0
 10
3017.0905043143620787
 20
96.5244392997910552
 30
0.0
 40
0.082590736034968
 50
3.942111706237954
 51
81.2913706712688082
  0
LINE
  5
71DD
  8
0
 10
3017.1030093525801021
 20
96.6060778550082944
 30
0.0
 11
3009.9618994206798561
 21
96.608560406608234
 31
0.0
  0
ARC
  5
71DE
  8
0
 10
3009.9711673717288249
 20
96.5231140378259909
 30
0.0
 40
0.0859475238429649
 50
96.1903935602164779
 51
175.3450164775275084
  0
LINE
  5
71DF
  8
0
 10
3009.8855033494801319
 20
96.5300891469082956
 30
0.0
 11
3009.8855124945798707
 21
94.153520551697369
 31
0.0
  0
ARC
  5
71E0
  8
0
 10
3009.9677468057020633
 20
94.1590504171516329
 30
0.0
 40
0.0824200299533133
 50
183.8470763153707139
 51
261.3864160044975051
  0
LINE
  5
71E1
  8
0
 10
3009.9554027776789553
 20
94.0775600109082148
 30
0.0
 11
3017.0965127024801404
 21
94.0750774592082877
 31
0.0
  0
ARC
  5
71E2
  8
0
 10
3017.0872506289538251
 20
94.1605181129149571
 30
0.0
 40
0.0859412084614658
 50
276.186908807080215
 51
355.3485027668336897
  0
LINE
  5
71E3
  8
0
 10
3017.1729087808798795
 20
94.1535487284082535
 30
0.0
 11
3017.1728996422798446
 21
96.5301172938082743
 31
0.0
  0
ARC
  5
71E4
  8
0
 10
3009.7894043143619456
 20
96.5244392997910552
 30
0.0
 40
0.082590736034968
 50
3.942111706237954
 51
81.2913706712688082
  0
LINE
  5
71E5
  8
0
 10
3009.801909352579969
 20
96.6060778550082944
 30
0.0
 11
3002.6607994206801777
 21
96.608560406608234
 31
0.0
  0
ARC
  5
71E6
  8
0
 10
3002.670067371730056
 20
96.5231140378259909
 30
0.0
 40
0.0859475238429649
 50
96.1903935602164779
 51
175.3450164775275084
  0
LINE
  5
71E7
  8
0
 10
3002.5844033494799987
 20
96.5300891469082956
 30
0.0
 11
3002.584412494578828
 21
94.153520551697369
 31
0.0
  0
ARC
  5
71E8
  8
0
 10
3002.6666468057019301
 20
94.1590504171516329
 30
0.0
 40
0.0824200299533133
 50
183.8470763153707139
 51
261.3864160044975051
  0
LINE
  5
71E9
  8
0
 10
3002.6543027776788222
 20
94.0775600109082148
 30
0.0
 11
3009.7954127024800073
 21
94.0750774592082877
 31
0.0
  0
ARC
  5
71EA
  8
0
 10
3009.7861506289527824
 20
94.1605181129149571
 30
0.0
 40
0.0859412084614658
 50
276.186908807080215
 51
355.3485027668336897
  0
LINE
  5
71EB
  8
0
 10
3009.8718087808802011
 20
94.1535487284082535
 30
0.0
 11
3009.8717996422801662
 21
96.5301172938082743
 31
0.0
  0
ARC
  5
71EC
  8
0
 10
3002.4883043143618124
 20
96.5244392997910552
 30
0.0
 40
0.082590736034968
 50
3.942111706237954
 51
81.2913706712688082
  0
LINE
  5
71ED
  8
0
 10
3002.5008093525798358
 20
96.6060778550082944
 30
0.0
 11
2995.3596994206800446
 21
96.608560406608234
 31
0.0
  0
ARC
  5
71EE
  8
0
 10
2995.3689673717299229
 20
96.5231140378259909
 30
0.0
 40
0.0859475238429649
 50
96.1903935602164779
 51
175.3450164775275084
  0
LINE
  5
71EF
  8
0
 10
2995.2833033494798656
 20
96.5300891469082956
 30
0.0
 11
2995.2833124945791496
 21
94.153520551697369
 31
0.0
  0
ARC
  5
71F0
  8
0
 10
2995.365546805701797
 20
94.1590504171516329
 30
0.0
 40
0.0824200299533133
 50
183.8470763153707139
 51
261.3864160044975051
  0
LINE
  5
71F1
  8
0
 10
2995.3532027776800533
 20
94.0775600109082148
 30
0.0
 11
3002.4943127024798741
 21
94.0750774592082877
 31
0.0
  0
ARC
  5
71F2
  8
0
 10
3002.485050628953104
 20
94.1605181129149571
 30
0.0
 40
0.0859412084614658
 50
276.186908807080215
 51
355.3485027668336897
  0
LINE
  5
71F3
  8
0
 10
3002.5707087808800679
 20
94.1535487284082535
 30
0.0
 11
3002.570699642280033
 21
96.5301172938082743
 31
0.0
  0
ARC
  5
71F4
  8
0
 10
3013.4399543143617848
 20
93.9763892997910659
 30
0.0
 40
0.082590736034968
 50
3.942111706237954
 51
81.2913706712688082
  0
LINE
  5
71F5
  8
0
 10
3013.4524593525798082
 20
94.0580278550083051
 30
0.0
 11
3006.3113494206800169
 21
94.0605104066082447
 31
0.0
  0
ARC
  5
71F6
  8
0
 10
3006.3206173717289857
 20
93.9750640378260016
 30
0.0
 40
0.0859475238429649
 50
96.1903935602164779
 51
175.3450164775275084
  0
LINE
  5
71F7
  8
0
 10
3006.2349533494798379
 20
93.9820391469083063
 30
0.0
 11
3006.2349624945800315
 21
91.6054705516973797
 31
0.0
  0
ARC
  5
71F8
  8
0
 10
3006.3171968057022241
 20
91.6110004171515868
 30
0.0
 40
0.0824200299533133
 50
183.8470763153707139
 51
261.3864160044975051
  0
LINE
  5
71F9
  8
0
 10
3006.3048527776800256
 20
91.5295100109081687
 30
0.0
 11
3013.4459627024798465
 21
91.5270274592083268
 31
0.0
  0
ARC
  5
71FA
  8
0
 10
3013.4367006289530764
 20
91.612468112914911
 30
0.0
 40
0.0859412084614658
 50
276.186908807080215
 51
355.3485027668336897
  0
LINE
  5
71FB
  8
0
 10
3013.5223587808800403
 20
91.6054987284082642
 30
0.0
 11
3013.5223496422800054
 21
93.9820672938082851
 31
0.0
  0
ARC
  5
71FC
  8
0
 10
3006.1388543143621064
 20
93.9763892997910659
 30
0.0
 40
0.082590736034968
 50
3.942111706237954
 51
81.2913706712688082
  0
LINE
  5
71FD
  8
0
 10
3006.1513593525810393
 20
94.0580278550083051
 30
0.0
 11
2999.0102494206798838
 21
94.0605104066082447
 31
0.0
  0
ARC
  5
71FE
  8
0
 10
2999.0195173717302168
 20
93.9750640378260016
 30
0.0
 40
0.0859475238429649
 50
96.1903935602164779
 51
175.3450164775275084
  0
LINE
  5
71FF
  8
0
 10
2998.9338533494801595
 20
93.9820391469083063
 30
0.0
 11
2998.9338624945798983
 21
91.6054705516973797
 31
0.0
  0
ARC
  5
7200
  8
0
 10
2999.0160968057020909
 20
91.6110004171515868
 30
0.0
 40
0.0824200299533133
 50
183.8470763153707139
 51
261.3864160044975051
  0
LINE
  5
7201
  8
0
 10
2999.0037527776798925
 20
91.5295100109081687
 30
0.0
 11
3006.1448627024801681
 21
91.5270274592083268
 31
0.0
  0
ARC
  5
7202
  8
0
 10
3006.1356006289538527
 20
91.612468112914911
 30
0.0
 40
0.0859412084614658
 50
276.186908807080215
 51
355.3485027668336897
  0
LINE
  5
7203
  8
0
 10
3006.2212587808799071
 20
91.6054987284082642
 30
0.0
 11
3006.2212496422798722
 21
93.9820672938082851
 31
0.0
  0
ARC
  5
7204
  8
0
 10
2998.8377543143619732
 20
93.9763892997910659
 30
0.0
 40
0.082590736034968
 50
3.942111706237954
 51
81.2913706712688082
  0
LINE
  5
7205
  8
0
 10
2998.8502593525799966
 20
94.0580278550083051
 30
0.0
 11
2991.7091494206802054
 21
94.0605104066082447
 31
0.0
  0
ARC
  5
7206
  8
0
 10
2991.7184173717300837
 20
93.9750640378260016
 30
0.0
 40
0.0859475238429649
 50
96.1903935602164779
 51
175.3450164775275084
  0
LINE
  5
7207
  8
0
 10
2991.6327533494800264
 20
93.9820391469083063
 30
0.0
 11
2991.6327624945802199
 21
91.6054705516973797
 31
0.0
  0
ARC
  5
7208
  8
0
 10
2991.7149968057010483
 20
91.6110004171515868
 30
0.0
 40
0.0824200299533133
 50
183.8470763153707139
 51
261.3864160044975051
  0
LINE
  5
7209
  8
0
 10
2991.7026527776788498
 20
91.5295100109081687
 30
0.0
 11
2998.8437627024800349
 21
91.5270274592083268
 31
0.0
  0
ARC
  5
720A
  8
0
 10
2998.8345006289541743
 20
91.612468112914911
 30
0.0
 40
0.0859412084614658
 50
276.186908807080215
 51
355.3485027668336897
  0
LINE
  5
720B
  8
0
 10
2998.920158780879774
 20
91.6054987284082642
 30
0.0
 11
2998.9201496422801938
 21
93.9820672938082851
 31
0.0
  0
ARC
  5
720C
  8
0
 10
3002.4883043143618124
 20
91.4283392997910767
 30
0.0
 40
0.082590736034968
 50
3.942111706237954
 51
81.2913706712688082
  0
LINE
  5
720D
  8
0
 10
3002.5008093525798358
 20
91.5099778550082448
 30
0.0
 11
2995.3596994206800446
 21
91.5124604066082554
 31
0.0
  0
ARC
  5
720E
  8
0
 10
2995.3689673717299229
 20
91.4270140378259981
 30
0.0
 40
0.0859475238429649
 50
96.1903935602164779
 51
175.3450164775275084
  0
LINE
  5
720F
  8
0
 10
2995.2833033494798656
 20
91.433989146908317
 30
0.0
 11
2995.2833124945791496
 21
89.0574205516973905
 31
0.0
  0
ARC
  5
7210
  8
0
 10
2995.365546805701797
 20
89.0629504171515833
 30
0.0
 40
0.0824200299533133
 50
183.8470763153707139
 51
261.3864160044975051
  0
LINE
  5
7211
  8
0
 10
2995.3532027776800533
 20
88.9814600109081937
 30
0.0
 11
3002.4943127024798741
 21
88.9789774592082665
 31
0.0
  0
ARC
  5
7212
  8
0
 10
3002.485050628953104
 20
89.0644181129149075
 30
0.0
 40
0.0859412084614658
 50
276.186908807080215
 51
355.3485027668336897
  0
LINE
  5
7213
  8
0
 10
3002.5707087808800679
 20
89.057448728408275
 30
0.0
 11
3002.570699642280033
 21
91.4340172938082958
 31
0.0
  0
ARC
  5
7214
  8
0
 10
3009.7894043143619456
 20
91.4283392997910767
 30
0.0
 40
0.082590736034968
 50
3.942111706237954
 51
81.2913706712688082
  0
LINE
  5
7215
  8
0
 10
3009.801909352579969
 20
91.5099778550082448
 30
0.0
 11
3002.6607994206801777
 21
91.5124604066082554
 31
0.0
  0
ARC
  5
7216
  8
0
 10
3002.670067371730056
 20
91.4270140378259981
 30
0.0
 40
0.0859475238429649
 50
96.1903935602164779
 51
175.3450164775275084
  0
LINE
  5
7217
  8
0
 10
3002.5844033494799987
 20
91.433989146908317
 30
0.0
 11
3002.584412494578828
 21
89.0574205516973905
 31
0.0
  0
ARC
  5
7218
  8
0
 10
3002.6666468057019301
 20
89.0629504171515833
 30
0.0
 40
0.0824200299533133
 50
183.8470763153707139
 51
261.3864160044975051
  0
LINE
  5
7219
  8
0
 10
3002.6543027776788222
 20
88.9814600109081937
 30
0.0
 11
3009.7954127024800073
 21
88.9789774592082665
 31
0.0
  0
ARC
  5
721A
  8
0
 10
3009.7861506289527824
 20
89.0644181129149075
 30
0.0
 40
0.0859412084614658
 50
276.186908807080215
 51
355.3485027668336897
  0
LINE
  5
721B
  8
0
 10
3009.8718087808802011
 20
89.057448728408275
 30
0.0
 11
3009.8717996422801662
 21
91.4340172938082958
 31
0.0
  0
ARC
  5
721C
  8
0
 10
3017.0905043143620787
 20
91.4283392997910767
 30
0.0
 40
0.082590736034968
 50
3.942111706237954
 51
81.2913706712688082
  0
LINE
  5
721D
  8
0
 10
3017.1030093525801021
 20
91.5099778550082448
 30
0.0
 11
3009.9618994206798561
 21
91.5124604066082554
 31
0.0
  0
ARC
  5
721E
  8
0
 10
3009.9711673717288249
 20
91.4270140378259981
 30
0.0
 40
0.0859475238429649
 50
96.1903935602164779
 51
175.3450164775275084
  0
LINE
  5
721F
  8
0
 10
3009.8855033494801319
 20
91.433989146908317
 30
0.0
 11
3009.8855124945798707
 21
89.0574205516973905
 31
0.0
  0
ARC
  5
7220
  8
0
 10
3009.9677468057020633
 20
89.0629504171515833
 30
0.0
 40
0.0824200299533133
 50
183.8470763153707139
 51
261.3864160044975051
  0
LINE
  5
7221
  8
0
 10
3009.9554027776789553
 20
88.9814600109081937
 30
0.0
 11
3017.0965127024801404
 21
88.9789774592082665
 31
0.0
  0
ARC
  5
7222
  8
0
 10
3017.0872506289538251
 20
89.0644181129149075
 30
0.0
 40
0.0859412084614658
 50
276.186908807080215
 51
355.3485027668336897
  0
LINE
  5
7223
  8
0
 10
3017.1729087808798795
 20
89.057448728408275
 30
0.0
 11
3017.1728996422798446
 21
91.4340172938082958
 31
0.0
  0
ARC
  5
7224
  8
0
 10
3013.4399543143617848
 20
88.8802892997910305
 30
0.0
 40
0.082590736034968
 50
3.942111706237954
 51
81.2913706712688082
  0
LINE
  5
7225
  8
0
 10
3013.4524593525798082
 20
88.9619278550082839
 30
0.0
 11
3006.3113494206800169
 21
88.9644104066082093
 31
0.0
  0
ARC
  5
7226
  8
0
 10
3006.3206173717289857
 20
88.8789640378260231
 30
0.0
 40
0.0859475238429649
 50
96.1903935602164779
 51
175.3450164775275084
  0
LINE
  5
7227
  8
0
 10
3006.2349533494798379
 20
88.8859391469082851
 30
0.0
 11
3006.2349624945800315
 21
86.5093705516973444
 31
0.0
  0
ARC
  5
7228
  8
0
 10
3006.3171968057022241
 20
86.5149004171516083
 30
0.0
 40
0.0824200299533133
 50
183.8470763153707139
 51
261.3864160044975051
  0
LINE
  5
7229
  8
0
 10
3006.3048527776800256
 20
86.4334100109082044
 30
0.0
 11
3013.4459627024798465
 21
86.4309274592082772
 31
0.0
  0
ARC
  5
722A
  8
0
 10
3013.4367006289530764
 20
86.5163681129149467
 30
0.0
 40
0.0859412084614658
 50
276.186908807080215
 51
355.3485027668336897
  0
LINE
  5
722B
  8
0
 10
3013.5223587808800403
 20
86.5093987284082857
 30
0.0
 11
3013.5223496422800054
 21
88.8859672938083065
 31
0.0
  0
ARC
  5
722C
  8
0
 10
3006.1388543143621064
 20
88.8802892997910305
 30
0.0
 40
0.082590736034968
 50
3.942111706237954
 51
81.2913706712688082
  0
LINE
  5
722D
  8
0
 10
3006.1513593525810393
 20
88.9619278550082839
 30
0.0
 11
2999.0102494206798838
 21
88.9644104066082093
 31
0.0
  0
ARC
  5
722E
  8
0
 10
2999.0195173717302168
 20
88.8789640378260231
 30
0.0
 40
0.0859475238429649
 50
96.1903935602164779
 51
175.3450164775275084
  0
LINE
  5
722F
  8
0
 10
2998.9338533494801595
 20
88.8859391469082851
 30
0.0
 11
2998.9338624945798983
 21
86.5093705516973444
 31
0.0
  0
ARC
  5
7230
  8
0
 10
2999.0160968057020909
 20
86.5149004171516083
 30
0.0
 40
0.0824200299533133
 50
183.8470763153707139
 51
261.3864160044975051
  0
LINE
  5
7231
  8
0
 10
2999.0037527776798925
 20
86.4334100109082044
 30
0.0
 11
3006.1448627024801681
 21
86.4309274592082772
 31
0.0
  0
ARC
  5
7232
  8
0
 10
3006.1356006289538527
 20
86.5163681129149467
 30
0.0
 40
0.0859412084614658
 50
276.186908807080215
 51
355.3485027668336897
  0
LINE
  5
7233
  8
0
 10
3006.2212587808799071
 20
86.5093987284082857
 30
0.0
 11
3006.2212496422798722
 21
88.8859672938083065
 31
0.0
  0
ARC
  5
7234
  8
0
 10
2998.8377543143619732
 20
88.8802892997910305
 30
0.0
 40
0.082590736034968
 50
3.942111706237954
 51
81.2913706712688082
  0
LINE
  5
7235
  8
0
 10
2998.8502593525799966
 20
88.9619278550082839
 30
0.0
 11
2991.7091494206802054
 21
88.9644104066082093
 31
0.0
  0
ARC
  5
7236
  8
0
 10
2991.7184173717300837
 20
88.8789640378260231
 30
0.0
 40
0.0859475238429649
 50
96.1903935602164779
 51
175.3450164775275084
  0
LINE
  5
7237
  8
0
 10
2991.6327533494800264
 20
88.8859391469082851
 30
0.0
 11
2991.6327624945802199
 21
86.5093705516973444
 31
0.0
  0
ARC
  5
7238
  8
0
 10
2991.7149968057010483
 20
86.5149004171516083
 30
0.0
 40
0.0824200299533133
 50
183.8470763153707139
 51
261.3864160044975051
  0
LINE
  5
7239
  8
0
 10
2991.7026527776788498
 20
86.4334100109082044
 30
0.0
 11
2998.8437627024800349
 21
86.4309274592082772
 31
0.0
  0
ARC
  5
723A
  8
0
 10
2998.8345006289541743
 20
86.5163681129149467
 30
0.0
 40
0.0859412084614658
 50
276.186908807080215
 51
355.3485027668336897
  0
LINE
  5
723B
  8
0
 10
2998.920158780879774
 20
86.5093987284082857
 30
0.0
 11
2998.9201496422801938
 21
88.8859672938083065
 31
0.0
  0
ARC
  5
723C
  8
0
 10
3002.4883043143618124
 20
86.3322392997910413
 30
0.0
 40
0.082590736034968
 50
3.942111706237954
 51
81.2913706712688082
  0
LINE
  5
723D
  8
0
 10
3002.5008093525798358
 20
86.4138778550082804
 30
0.0
 11
2995.3596994206800446
 21
86.41636040660822
 31
0.0
  0
ARC
  5
723E
  8
0
 10
2995.3689673717299229
 20
86.3309140378259769
 30
0.0
 40
0.0859475238429649
 50
96.1903935602164779
 51
175.3450164775275084
  0
LINE
  5
723F
  8
0
 10
2995.2833033494798656
 20
86.3378891469082816
 30
0.0
 11
2995.2833124945791496
 21
83.9613205516973551
 31
0.0
  0
ARC
  5
7240
  8
0
 10
2995.365546805701797
 20
83.966850417151619
 30
0.0
 40
0.0824200299533133
 50
183.8470763153707139
 51
261.3864160044975051
  0
LINE
  5
7241
  8
0
 10
2995.3532027776800533
 20
83.8853600109082151
 30
0.0
 11
3002.4943127024798741
 21
83.882877459208288
 31
0.0
  0
ARC
  5
7242
  8
0
 10
3002.485050628953104
 20
83.9683181129149432
 30
0.0
 40
0.0859412084614658
 50
276.186908807080215
 51
355.3485027668336897
  0
LINE
  5
7243
  8
0
 10
3002.5707087808800679
 20
83.9613487284082964
 30
0.0
 11
3002.570699642280033
 21
86.337917293808303
 31
0.0
  0
ARC
  5
7244
  8
0
 10
3009.7894043143619456
 20
86.3322392997910413
 30
0.0
 40
0.082590736034968
 50
3.942111706237954
 51
81.2913706712688082
  0
LINE
  5
7245
  8
0
 10
3009.801909352579969
 20
86.4138778550082804
 30
0.0
 11
3002.6607994206801777
 21
86.41636040660822
 31
0.0
  0
ARC
  5
7246
  8
0
 10
3002.670067371730056
 20
86.3309140378259769
 30
0.0
 40
0.0859475238429649
 50
96.1903935602164779
 51
175.3450164775275084
  0
LINE
  5
7247
  8
0
 10
3002.5844033494799987
 20
86.3378891469082816
 30
0.0
 11
3002.584412494578828
 21
83.9613205516973551
 31
0.0
  0
ARC
  5
7248
  8
0
 10
3002.6666468057019301
 20
83.966850417151619
 30
0.0
 40
0.0824200299533133
 50
183.8470763153707139
 51
261.3864160044975051
  0
LINE
  5
7249
  8
0
 10
3002.6543027776788222
 20
83.8853600109082151
 30
0.0
 11
3009.7954127024800073
 21
83.882877459208288
 31
0.0
  0
ARC
  5
724A
  8
0
 10
3009.7861506289527824
 20
83.9683181129149432
 30
0.0
 40
0.0859412084614658
 50
276.186908807080215
 51
355.3485027668336897
  0
LINE
  5
724B
  8
0
 10
3009.8718087808802011
 20
83.9613487284082964
 30
0.0
 11
3009.8717996422801662
 21
86.337917293808303
 31
0.0
  0
ARC
  5
724C
  8
0
 10
3017.0905043143620787
 20
86.3322392997910413
 30
0.0
 40
0.082590736034968
 50
3.942111706237954
 51
81.2913706712688082
  0
LINE
  5
724D
  8
0
 10
3017.1030093525801021
 20
86.4138778550082804
 30
0.0
 11
3009.9618994206798561
 21
86.41636040660822
 31
0.0
  0
ARC
  5
724E
  8
0
 10
3009.9711673717288249
 20
86.3309140378259769
 30
0.0
 40
0.0859475238429649
 50
96.1903935602164779
 51
175.3450164775275084
  0
LINE
  5
724F
  8
0
 10
3009.8855033494801319
 20
86.3378891469082816
 30
0.0
 11
3009.8855124945798707
 21
83.9613205516973551
 31
0.0
  0
ARC
  5
7250
  8
0
 10
3009.9677468057020633
 20
83.966850417151619
 30
0.0
 40
0.0824200299533133
 50
183.8470763153707139
 51
261.3864160044975051
  0
LINE
  5
7251
  8
0
 10
3009.9554027776789553
 20
83.8853600109082151
 30
0.0
 11
3017.0965127024801404
 21
83.882877459208288
 31
0.0
  0
ARC
  5
7252
  8
0
 10
3017.0872506289538251
 20
83.9683181129149432
 30
0.0
 40
0.0859412084614658
 50
276.186908807080215
 51
355.3485027668336897
  0
LINE
  5
7253
  8
0
 10
3017.1729087808798795
 20
83.9613487284082964
 30
0.0
 11
3017.1728996422798446
 21
86.337917293808303
 31
0.0
  0
ARC
  5
7254
  8
0
 10
3013.4399543143617848
 20
83.784189299791052
 30
0.0
 40
0.082590736034968
 50
3.942111706237954
 51
81.2913706712688082
  0
LINE
  5
7255
  8
0
 10
3013.4524593525798082
 20
83.8658278550082912
 30
0.0
 11
3006.3113494206800169
 21
83.8683104066082308
 31
0.0
  0
ARC
  5
7256
  8
0
 10
3006.3206173717289857
 20
83.7828640378259877
 30
0.0
 40
0.0859475238429649
 50
96.1903935602164779
 51
175.3450164775275084
  0
LINE
  5
7257
  8
0
 10
3006.2349533494798379
 20
83.7898391469082924
 30
0.0
 11
3006.2349624945800315
 21
81.4132705516973658
 31
0.0
  0
ARC
  5
7258
  8
0
 10
3006.3171968057022241
 20
81.4188004171516297
 30
0.0
 40
0.0824200299533133
 50
183.8470763153707139
 51
261.3864160044975051
  0
LINE
  5
7259
  8
0
 10
3006.3048527776800256
 20
81.3373100109082259
 30
0.0
 11
3013.4459627024798465
 21
81.3348274592082845
 31
0.0
  0
ARC
  5
725A
  8
0
 10
3013.4367006289530764
 20
81.4202681129149539
 30
0.0
 40
0.0859412084614658
 50
276.186908807080215
 51
355.3485027668336897
  0
LINE
  5
725B
  8
0
 10
3013.5223587808800403
 20
81.4132987284083072
 30
0.0
 11
3013.5223496422800054
 21
83.7898672938082711
 31
0.0
  0
ARC
  5
725C
  8
0
 10
3006.1388543143621064
 20
83.784189299791052
 30
0.0
 40
0.082590736034968
 50
3.942111706237954
 51
81.2913706712688082
  0
LINE
  5
725D
  8
0
 10
3006.1513593525810393
 20
83.8658278550082912
 30
0.0
 11
2999.0102494206798838
 21
83.8683104066082308
 31
0.0
  0
ARC
  5
725E
  8
0
 10
2999.0195173717302168
 20
83.7828640378259877
 30
0.0
 40
0.0859475238429649
 50
96.1903935602164779
 51
175.3450164775275084
  0
LINE
  5
725F
  8
0
 10
2998.9338533494801595
 20
83.7898391469082924
 30
0.0
 11
2998.9338624945798983
 21
81.4132705516973658
 31
0.0
  0
ARC
  5
7260
  8
0
 10
2999.0160968057020909
 20
81.4188004171516297
 30
0.0
 40
0.0824200299533133
 50
183.8470763153707139
 51
261.3864160044975051
  0
LINE
  5
7261
  8
0
 10
2999.0037527776798925
 20
81.3373100109082259
 30
0.0
 11
3006.1448627024801681
 21
81.3348274592082845
 31
0.0
  0
ARC
  5
7262
  8
0
 10
3006.1356006289538527
 20
81.4202681129149539
 30
0.0
 40
0.0859412084614658
 50
276.186908807080215
 51
355.3485027668336897
  0
LINE
  5
7263
  8
0
 10
3006.2212587808799071
 20
81.4132987284083072
 30
0.0
 11
3006.2212496422798722
 21
83.7898672938082711
 31
0.0
  0
ARC
  5
7264
  8
0
 10
2998.8377543143619732
 20
83.784189299791052
 30
0.0
 40
0.082590736034968
 50
3.942111706237954
 51
81.2913706712688082
  0
LINE
  5
7265
  8
0
 10
2998.8502593525799966
 20
83.8658278550082912
 30
0.0
 11
2991.7091494206802054
 21
83.8683104066082308
 31
0.0
  0
ARC
  5
7266
  8
0
 10
2991.7184173717300837
 20
83.7828640378259877
 30
0.0
 40
0.0859475238429649
 50
96.1903935602164779
 51
175.3450164775275084
  0
LINE
  5
7267
  8
0
 10
2991.6327533494800264
 20
83.7898391469082924
 30
0.0
 11
2991.6327624945802199
 21
81.4132705516973658
 31
0.0
  0
ARC
  5
7268
  8
0
 10
2991.7149968057010483
 20
81.4188004171516297
 30
0.0
 40
0.0824200299533133
 50
183.8470763153707139
 51
261.3864160044975051
  0
LINE
  5
7269
  8
0
 10
2991.7026527776788498
 20
81.3373100109082259
 30
0.0
 11
2998.8437627024800349
 21
81.3348274592082845
 31
0.0
  0
ARC
  5
726A
  8
0
 10
2998.8345006289541743
 20
81.4202681129149539
 30
0.0
 40
0.0859412084614658
 50
276.186908807080215
 51
355.3485027668336897
  0
LINE
  5
726B
  8
0
 10
2998.920158780879774
 20
81.4132987284083072
 30
0.0
 11
2998.9201496422801938
 21
83.7898672938082711
 31
0.0
  0
ARC
  5
726C
  8
0
 10
3002.4879802220848433
 20
81.2360734553360828
 30
0.0
 40
0.082590736034968
 50
3.942111706237954
 51
81.2913706712688082
  0
LINE
  5
726D
  8
0
 10
3002.5004852603028667
 20
81.317712010553322
 30
0.0
 11
2995.3593753284030754
 21
81.3201945621532616
 31
0.0
  0
ARC
  5
726E
  8
0
 10
2995.3686432794529537
 20
81.2347481933710185
 30
0.0
 40
0.0859475238429649
 50
96.1903935602164779
 51
175.3450164775275084
  0
LINE
  5
726F
  8
0
 10
2995.2829792572028964
 20
81.2417233024533232
 30
0.0
 11
2995.28298840230309
 21
78.8651547072423966
 31
0.0
  0
ARC
  5
7270
  8
0
 10
2995.3652227134248278
 20
78.8706845726966606
 30
0.0
 40
0.0824200299533133
 50
183.8470763153707139
 51
261.3864160044975051
  0
LINE
  5
7271
  8
0
 10
2995.3528786854039936
 20
78.7891941664532567
 30
0.0
 11
3002.493988610202905
 21
78.7867116147533295
 31
0.0
  0
ARC
  5
7272
  8
0
 10
3002.4847265366770444
 20
78.8721522684599847
 30
0.0
 40
0.0859412084614658
 50
276.186908807080215
 51
355.3485027668336897
  0
LINE
  5
7273
  8
0
 10
3002.5703846886040083
 20
78.8651828839533238
 30
0.0
 11
3002.5703755500039733
 21
81.241751449353302
 31
0.0
  0
ARC
  5
7274
  8
0
 10
3009.7894043143619456
 20
81.2361392997910485
 30
0.0
 40
0.082590736034968
 50
3.942111706237954
 51
81.2913706712688082
  0
LINE
  5
7275
  8
0
 10
3009.801909352579969
 20
81.3177778550083019
 30
0.0
 11
3002.6607994206801777
 21
81.3202604066082273
 31
0.0
  0
ARC
  5
7276
  8
0
 10
3002.670067371730056
 20
81.2348140378259984
 30
0.0
 40
0.0859475238429649
 50
96.1903935602164779
 51
175.3450164775275084
  0
LINE
  5
7277
  8
0
 10
3002.5844033494799987
 20
81.2417891469083031
 30
0.0
 11
3002.584412494578828
 21
78.8652205516973765
 31
0.0
  0
ARC
  5
7278
  8
0
 10
3002.6666468057019301
 20
78.8707504171515836
 30
0.0
 40
0.0824200299533133
 50
183.8470763153707139
 51
261.3864160044975051
  0
LINE
  5
7279
  8
0
 10
3002.6543027776788222
 20
78.7892600109082366
 30
0.0
 11
3009.7954127024800073
 21
78.7867774592083094
 31
0.0
  0
ARC
  5
727A
  8
0
 10
3009.7861506289527824
 20
78.8722181129149646
 30
0.0
 40
0.0859412084614658
 50
276.186908807080215
 51
355.3485027668336897
  0
LINE
  5
727B
  8
0
 10
3009.8718087808802011
 20
78.8652487284082611
 30
0.0
 11
3009.8717996422801662
 21
81.2418172938082677
 31
0.0
  0
ARC
  5
727C
  8
0
 10
3017.0905043143620787
 20
81.2361392997910485
 30
0.0
 40
0.082590736034968
 50
3.942111706237954
 51
81.2913706712688082
  0
LINE
  5
727D
  8
0
 10
3017.1030093525801021
 20
81.3177778550083019
 30
0.0
 11
3009.9618994206798561
 21
81.3202604066082273
 31
0.0
  0
ARC
  5
727E
  8
0
 10
3009.9711673717288249
 20
81.2348140378259984
 30
0.0
 40
0.0859475238429649
 50
96.1903935602164779
 51
175.3450164775275084
  0
LINE
  5
727F
  8
0
 10
3009.8855033494801319
 20
81.2417891469083031
 30
0.0
 11
3009.8855124945798707
 21
78.8652205516973765
 31
0.0
  0
ARC
  5
7280
  8
0
 10
3009.9677468057020633
 20
78.8707504171515836
 30
0.0
 40
0.0824200299533133
 50
183.8470763153707139
 51
261.3864160044975051
  0
LINE
  5
7281
  8
0
 10
3009.9554027776789553
 20
78.7892600109082366
 30
0.0
 11
3017.0965127024801404
 21
78.7867774592083094
 31
0.0
  0
ARC
  5
7282
  8
0
 10
3017.0872506289538251
 20
78.8722181129149646
 30
0.0
 40
0.0859412084614658
 50
276.186908807080215
 51
355.3485027668336897
  0
LINE
  5
7283
  8
0
 10
3017.1729087808798795
 20
78.8652487284082611
 30
0.0
 11
3017.1728996422798446
 21
81.2418172938082677
 31
0.0
  0
ARC
  5
7284
  8
0
 10
3013.4399543143617848
 20
78.6880892997910735
 30
0.0
 40
0.082590736034968
 50
3.942111706237954
 51
81.2913706712688082
  0
LINE
  5
7285
  8
0
 10
3013.4524593525798082
 20
78.7697278550083126
 30
0.0
 11
3006.3113494206800169
 21
78.7722104066082522
 31
0.0
  0
ARC
  5
7286
  8
0
 10
3006.3206173717289857
 20
78.6867640378259949
 30
0.0
 40
0.0859475238429649
 50
96.1903935602164779
 51
175.3450164775275084
  0
LINE
  5
7287
  8
0
 10
3006.2349533494798379
 20
78.6937391469083138
 30
0.0
 11
3006.2349624945800315
 21
76.3171705516973873
 31
0.0
  0
ARC
  5
7288
  8
0
 10
3006.3171968057022241
 20
76.3227004171515944
 30
0.0
 40
0.0824200299533133
 50
183.8470763153707139
 51
261.3864160044975051
  0
LINE
  5
7289
  8
0
 10
3006.3048527776800256
 20
76.2412100109081905
 30
0.0
 11
3013.4459627024798465
 21
76.2387274592083202
 31
0.0
  0
ARC
  5
728A
  8
0
 10
3013.4367006289530764
 20
76.3241681129149043
 30
0.0
 40
0.0859412084614658
 50
276.186908807080215
 51
355.3485027668336897
  0
LINE
  5
728B
  8
0
 10
3013.5223587808800403
 20
76.3171987284082718
 30
0.0
 11
3013.5223496422800054
 21
78.6937672938082926
 31
0.0
  0
ARC
  5
728C
  8
0
 10
3006.1388543143621064
 20
78.6880892997910735
 30
0.0
 40
0.082590736034968
 50
3.942111706237954
 51
81.2913706712688082
  0
LINE
  5
728D
  8
0
 10
3006.1513593525810393
 20
78.7697278550083126
 30
0.0
 11
2999.0102494206798838
 21
78.7722104066082522
 31
0.0
  0
ARC
  5
728E
  8
0
 10
2999.0195173717302168
 20
78.6867640378259949
 30
0.0
 40
0.0859475238429649
 50
96.1903935602164779
 51
175.3450164775275084
  0
LINE
  5
728F
  8
0
 10
2998.9338533494801595
 20
78.6937391469083138
 30
0.0
 11
2998.9338624945798983
 21
76.3171705516973873
 31
0.0
  0
ARC
  5
7290
  8
0
 10
2999.0160968057020909
 20
76.3227004171515944
 30
0.0
 40
0.0824200299533133
 50
183.8470763153707139
 51
261.3864160044975051
  0
LINE
  5
7291
  8
0
 10
2999.0037527776798925
 20
76.2412100109081905
 30
0.0
 11
3006.1448627024801681
 21
76.2387274592083202
 31
0.0
  0
ARC
  5
7292
  8
0
 10
3006.1356006289538527
 20
76.3241681129149043
 30
0.0
 40
0.0859412084614658
 50
276.186908807080215
 51
355.3485027668336897
  0
LINE
  5
7293
  8
0
 10
3006.2212587808799071
 20
76.3171987284082718
 30
0.0
 11
3006.2212496422798722
 21
78.6937672938082926
 31
0.0
  0
ARC
  5
7294
  8
0
 10
2998.8377543143619732
 20
78.6880892997910735
 30
0.0
 40
0.082590736034968
 50
3.942111706237954
 51
81.2913706712688082
  0
LINE
  5
7295
  8
0
 10
2998.8502593525799966
 20
78.7697278550083126
 30
0.0
 11
2991.7091494206802054
 21
78.7722104066082522
 31
0.0
  0
ARC
  5
7296
  8
0
 10
2991.7184173717300837
 20
78.6867640378259949
 30
0.0
 40
0.0859475238429649
 50
96.1903935602164779
 51
175.3450164775275084
  0
LINE
  5
7297
  8
0
 10
2991.6327533494800264
 20
78.6937391469083138
 30
0.0
 11
2991.6327624945802199
 21
76.3171705516973873
 31
0.0
  0
ARC
  5
7298
  8
0
 10
2991.7149968057010483
 20
76.3227004171515944
 30
0.0
 40
0.0824200299533133
 50
183.8470763153707139
 51
261.3864160044975051
  0
LINE
  5
7299
  8
0
 10
2991.7026527776788498
 20
76.2412100109081905
 30
0.0
 11
2998.8437627024800349
 21
76.2387274592083202
 31
0.0
  0
ARC
  5
729A
  8
0
 10
2998.8345006289541743
 20
76.3241681129149043
 30
0.0
 40
0.0859412084614658
 50
276.186908807080215
 51
355.3485027668336897
  0
LINE
  5
729B
  8
0
 10
2998.920158780879774
 20
76.3171987284082718
 30
0.0
 11
2998.9201496422801938
 21
78.6937672938082926
 31
0.0
  0
ARC
  5
729C
  8
0
 10
3002.4883043143618124
 20
76.1400392997910131
 30
0.0
 40
0.082590736034968
 50
3.942111706237954
 51
81.2913706712688082
  0
LINE
  5
729D
  8
0
 10
3002.5008093525798358
 20
76.2216778550082665
 30
0.0
 11
2995.3596994206800446
 21
76.2241604066082061
 31
0.0
  0
ARC
  5
729E
  8
0
 10
2995.3689673717299229
 20
76.1387140378260199
 30
0.0
 40
0.0859475238429649
 50
96.1903935602164779
 51
175.3450164775275084
  0
LINE
  5
729F
  8
0
 10
2995.2833033494798656
 20
76.1456891469083246
 30
0.0
 11
2995.2833124945791496
 21
73.7691205516973412
 31
0.0
  0
ARC
  5
72A0
  8
0
 10
2995.365546805701797
 20
73.7746504171516051
 30
0.0
 40
0.0824200299533133
 50
183.8470763153707139
 51
261.3864160044975051
  0
LINE
  5
72A1
  8
0
 10
2995.3532027776800533
 20
73.6931600109082012
 30
0.0
 11
3002.4943127024798741
 21
73.6906774592082741
 31
0.0
  0
ARC
  5
72A2
  8
0
 10
3002.485050628953104
 20
73.7761181129149293
 30
0.0
 40
0.0859412084614658
 50
276.186908807080215
 51
355.3485027668336897
  0
LINE
  5
72A3
  8
0
 10
3002.5707087808800679
 20
73.7691487284082825
 30
0.0
 11
3002.570699642280033
 21
76.1457172938083033
 31
0.0
  0
ARC
  5
72A4
  8
0
 10
3009.7894043143619456
 20
76.1400392997910131
 30
0.0
 40
0.082590736034968
 50
3.942111706237954
 51
81.2913706712688082
  0
LINE
  5
72A5
  8
0
 10
3009.801909352579969
 20
76.2216778550082665
 30
0.0
 11
3002.6607994206801777
 21
76.2241604066082061
 31
0.0
  0
ARC
  5
72A6
  8
0
 10
3002.670067371730056
 20
76.1387140378260199
 30
0.0
 40
0.0859475238429649
 50
96.1903935602164779
 51
175.3450164775275084
  0
LINE
  5
72A7
  8
0
 10
3002.5844033494799987
 20
76.1456891469083246
 30
0.0
 11
3002.584412494578828
 21
73.7691205516973412
 31
0.0
  0
ARC
  5
72A8
  8
0
 10
3002.6666468057019301
 20
73.7746504171516051
 30
0.0
 40
0.0824200299533133
 50
183.8470763153707139
 51
261.3864160044975051
  0
LINE
  5
72A9
  8
0
 10
3002.6543027776788222
 20
73.6931600109082012
 30
0.0
 11
3009.7954127024800073
 21
73.6906774592082741
 31
0.0
  0
ARC
  5
72AA
  8
0
 10
3009.7861506289527824
 20
73.7761181129149293
 30
0.0
 40
0.0859412084614658
 50
276.186908807080215
 51
355.3485027668336897
  0
LINE
  5
72AB
  8
0
 10
3009.8718087808802011
 20
73.7691487284082825
 30
0.0
 11
3009.8717996422801662
 21
76.1457172938083033
 31
0.0
  0
ARC
  5
72AC
  8
0
 10
3017.0905043143620787
 20
76.1400392997910131
 30
0.0
 40
0.082590736034968
 50
3.942111706237954
 51
81.2913706712688082
  0
LINE
  5
72AD
  8
0
 10
3017.1030093525801021
 20
76.2216778550082665
 30
0.0
 11
3009.9618994206798561
 21
76.2241604066082061
 31
0.0
  0
ARC
  5
72AE
  8
0
 10
3009.9711673717288249
 20
76.1387140378260199
 30
0.0
 40
0.0859475238429649
 50
96.1903935602164779
 51
175.3450164775275084
  0
LINE
  5
72AF
  8
0
 10
3009.8855033494801319
 20
76.1456891469083246
 30
0.0
 11
3009.8855124945798707
 21
73.7691205516973412
 31
0.0
  0
ARC
  5
72B0
  8
0
 10
3009.9677468057020633
 20
73.7746504171516051
 30
0.0
 40
0.0824200299533133
 50
183.8470763153707139
 51
261.3864160044975051
  0
LINE
  5
72B1
  8
0
 10
3009.9554027776789553
 20
73.6931600109082012
 30
0.0
 11
3017.0965127024801404
 21
73.6906774592082741
 31
0.0
  0
ARC
  5
72B2
  8
0
 10
3017.0872506289538251
 20
73.7761181129149293
 30
0.0
 40
0.0859412084614658
 50
276.186908807080215
 51
355.3485027668336897
  0
LINE
  5
72B3
  8
0
 10
3017.1729087808798795
 20
73.7691487284082825
 30
0.0
 11
3017.1728996422798446
 21
76.1457172938083033
 31
0.0
  0
ARC
  5
72B4
  8
0
 10
2986.9328177814718401
 20
93.6711051073212104
 30
0.0
 40
1.6165649126030699
 50
1.299682892625198
 51
13.9631559315610208
  0
LINE
  5
72B5
  8
0
 10
2988.5489668082950629
 20
93.7077717100498546
 30
0.0
 11
2988.5489668089799125
 21
91.8797689329091156
 31
0.0
  0
ARC
  5
72B6
  8
0
 10
2986.9311730023860036
 20
91.9166528521342627
 30
0.0
 40
1.618214208364283
 50
346.0433338061064887
 51
358.6939455121008109
  0
ARC
  5
72B7
  8
0
 10
2991.5388911479608396
 20
93.9815408321402259
 30
0.0
 40
0.0796300539901669
 50
356.9903457378699727
 51
90.9176753425211785
  0
LINE
  5
72B8
  8
0
 10
2991.5376158112180747
 20
94.061160672724526
 30
0.0
 11
2988.5016149687799043
 21
94.0611788205495998
 31
0.0
  0
LINE
  5
72B9
  8
0
 10
2988.5016149681650859
 20
91.5263590445092348
 30
0.0
 11
2991.5374675675329854
 21
91.5262250670677133
 31
0.0
  0
ARC
  5
72BA
  8
0
 10
2991.5387070266388037
 20
91.6060949174770656
 30
0.0
 40
0.0798794670943839
 50
269.1109276478380252
 51
2.9922440426882368
  0
LINE
  5
72BB
  8
0
 10
2991.6184775868800898
 20
91.6102646875090869
 30
0.0
 11
2991.6184113683798387
 21
93.9773599180091139
 31
0.0
  0
ARC
  5
72BC
  8
0
 10
2991.5388911479608396
 20
88.8854408321404037
 30
0.0
 40
0.0796300539901669
 50
356.9903457378699727
 51
90.9176753425211785
  0
LINE
  5
72BD
  8
0
 10
2991.5376158112180747
 20
88.9650606727246753
 30
0.0
 11
2988.5016149687799043
 21
88.9650788205497349
 31
0.0
  0
LINE
  5
72BE
  8
0
 10
2988.5016149681650859
 20
86.4302590445094268
 30
0.0
 11
2991.5374675675329854
 21
86.4301250670679053
 31
0.0
  0
ARC
  5
72BF
  8
0
 10
2991.5387070266388037
 20
86.5099949174772007
 30
0.0
 40
0.0798794670943839
 50
269.1109276478380252
 51
2.9922440426882368
  0
LINE
  5
72C0
  8
0
 10
2991.6184775868800898
 20
86.5141646875092363
 30
0.0
 11
2991.6184113683798387
 21
88.8812599180092349
 31
0.0
  0
ARC
  5
72C1
  8
0
 10
2986.9328296746880369
 20
83.4789051064301759
 30
0.0
 40
1.6165649126030699
 50
1.299682892625198
 51
13.9631559315578606
  0
LINE
  5
72C2
  8
0
 10
2988.5489787015121692
 20
83.5155717091588201
 30
0.0
 11
2988.5489787021970187
 21
81.6875689320180669
 31
0.0
  0
ARC
  5
72C3
  8
0
 10
2986.9311848956031099
 20
81.7244528512432282
 30
0.0
 40
1.618214208364283
 50
346.0433338061064887
 51
358.6939455121008109
  0
ARC
  5
72C4
  8
0
 10
2991.5389030411779459
 20
83.789340831249163
 30
0.0
 40
0.0796300539901669
 50
356.9903457378699727
 51
90.9176753425211785
  0
LINE
  5
72C5
  8
0
 10
2991.5376277044351809
 20
83.8689606718334772
 30
0.0
 11
2988.5016268619970106
 21
83.8689788196585653
 31
0.0
  0
LINE
  5
72C6
  8
0
 10
2988.5016268613821921
 20
81.3341590436182003
 30
0.0
 11
2991.5374794607491822
 21
81.3340250661766788
 31
0.0
  0
ARC
  5
72C7
  8
0
 10
2991.5387189198550004
 20
81.4138949165860311
 30
0.0
 40
0.0798794670943839
 50
269.1109276478380252
 51
2.9922440426882368
  0
LINE
  5
72C8
  8
0
 10
2991.6184894800981056
 20
81.4180646866180666
 30
0.0
 11
2991.6184232615969449
 21
83.7851599171180652
 31
0.0
  0
ARC
  5
72C9
  8
0
 10
2986.9328174561960623
 20
78.3828050648578767
 30
0.0
 40
1.616565238696688
 50
1.299683531895597
 51
13.9631546363517796
  0
LINE
  5
72CA
  8
0
 10
2988.5489668086202073
 20
78.4194716930148559
 30
0.0
 11
2988.5489668093050568
 21
76.5914689158741169
 31
0.0
  0
ARC
  5
72CB
  8
0
 10
2986.9311733667959743
 20
76.6283528066452106
 30
0.0
 40
1.6182138437253071
 50
346.0433322594931838
 51
358.6939462254795217
  0
ARC
  5
72CC
  8
0
 10
2991.5388911176528381
 20
78.6932408048791245
 30
0.0
 40
0.0796300831407492
 50
356.9903662663987234
 51
90.9176531959950154
  0
LINE
  5
72CD
  8
0
 10
2991.5376158112180747
 20
78.7728606751032032
 30
0.0
 11
2988.5016149687799043
 21
78.7728788213082964
 31
0.0
  0
LINE
  5
72CE
  8
0
 10
2988.5016149681650859
 20
76.2380590445748965
 30
0.0
 11
2991.5374651205029295
 21
76.237925028364856
 31
0.0
  0
ARC
  5
72CF
  8
0
 10
2991.5387075315779839
 20
76.317793491878291
 30
0.0
 40
0.0798781262253188
 50
269.1087950493950984
 51
2.993327977898681
  0
LINE
  5
72D0
  8
0
 10
2991.6184766738801954
 20
76.3219647010082838
 30
0.0
 11
2991.6184113686799719
 21
78.6890599177088177
 31
0.0
  0
ARC
  5
72D1
  8
0
 10
2995.187204314362134
 20
96.5244392997910552
 30
0.0
 40
0.082590736034968
 50
3.942111706237954
 51
81.2913706712688082
  0
LINE
  5
72D2
  8
0
 10
2995.1997093525801574
 20
96.6060778550082944
 30
0.0
 11
2988.5016149711550497
 21
96.6084063956808166
 31
0.0
  0
LINE
  5
72D3
  8
0
 10
2988.5016149687799043
 20
94.0774037414675348
 30
0.0
 11
2995.1932127024801957
 21
94.0750774592082877
 31
0.0
  0
ARC
  5
72D4
  8
0
 10
2995.1839506289529709
 20
94.1605181129149571
 30
0.0
 40
0.0859412084614658
 50
276.186908807080215
 51
355.3485027668336897
  0
LINE
  5
72D5
  8
0
 10
2995.2696087808799348
 20
94.1535487284083104
 30
0.0
 11
2995.2695996422798999
 21
96.5301172938082743
 31
0.0
  0
ARC
  5
72D6
  8
0
 10
2987.035393494822074
 20
94.4471881232144312
 30
0.0
 40
1.4985765344588109
 50
348.936432540353394
 51
359.2597315836163716
  0
LINE
  5
72D7
  8
0
 10
2988.5338449526798286
 20
94.4278268714114546
 30
0.0
 11
2988.5338340189118753
 21
96.2558333519615701
 31
0.0
  0
ARC
  5
72D8
  8
0
 10
2987.0076179915440662
 20
96.2337835651339049
 30
0.0
 40
1.526360408779335
 50
0.8271591979138392
 51
10.9159407814046805
  0
ARC
  5
72D9
  8
0
 10
2995.187204314362134
 20
91.4283392997910767
 30
0.0
 40
0.082590736034968
 50
3.942111706237954
 51
81.2913706712688082
  0
LINE
  5
72DA
  8
0
 10
2995.1997093525801574
 20
91.5099778550083158
 30
0.0
 11
2988.501614968280137
 21
91.5123063956818044
 31
0.0
  0
LINE
  5
72DB
  8
0
 10
2988.5016149683001458
 20
88.9813037414676558
 30
0.0
 11
2995.1932127024801957
 21
88.9789774592083234
 31
0.0
  0
ARC
  5
72DC
  8
0
 10
2995.1839506289529709
 20
89.0644181129149075
 30
0.0
 40
0.0859412084614658
 50
276.186908807080215
 51
355.3485027668336897
  0
LINE
  5
72DD
  8
0
 10
2995.2696087808799348
 20
89.057448728408275
 30
0.0
 11
2995.2695996422798999
 21
91.4340172938082958
 31
0.0
  0
ARC
  5
72DE
  8
0
 10
2987.035393494822074
 20
89.3510881232144527
 30
0.0
 40
1.4985765344588109
 50
348.936432540353394
 51
359.2597315836163716
  0
LINE
  5
72DF
  8
0
 10
2988.5338449526798286
 20
89.3317268714114618
 30
0.0
 11
2988.5338340189118753
 21
91.1597333519615916
 31
0.0
  0
ARC
  5
72E0
  8
0
 10
2987.0076179915440662
 20
91.1376835651338837
 30
0.0
 40
1.526360408779335
 50
0.8271591979138392
 51
10.9159407814046805
  0
ARC
  5
72E1
  8
0
 10
2995.187204314362134
 20
86.3322392997910413
 30
0.0
 40
0.082590736034968
 50
3.942111706237954
 51
81.2913706712688082
  0
LINE
  5
72E2
  8
0
 10
2995.1997093525801574
 20
86.4138778550082804
 30
0.0
 11
2988.5016149682810465
 21
86.416206395681769
 31
0.0
  0
LINE
  5
72E3
  8
0
 10
2988.5016242743467956
 20
83.8852037382324909
 30
0.0
 11
2995.1932127024801957
 21
83.882877459208288
 31
0.0
  0
ARC
  5
72E4
  8
0
 10
2995.1839506289529709
 20
83.9683181129149432
 30
0.0
 40
0.0859412084614658
 50
276.186908807080215
 51
355.3485027668336897
  0
LINE
  5
72E5
  8
0
 10
2995.2696087808799348
 20
83.9613487284082964
 30
0.0
 11
2995.2695996422798999
 21
86.337917293808303
 31
0.0
  0
ARC
  5
72E6
  8
0
 10
2987.035393494822074
 20
84.2549881232144031
 30
0.0
 40
1.4985765344588109
 50
348.936432540353394
 51
359.2597315836163716
  0
LINE
  5
72E7
  8
0
 10
2988.5338449526798286
 20
84.2356268714114265
 30
0.0
 11
2988.5338340189118753
 21
86.0636333519615562
 31
0.0
  0
ARC
  5
72E8
  8
0
 10
2987.0076179915440662
 20
86.0415835651338909
 30
0.0
 40
1.526360408779335
 50
0.8271591979138392
 51
10.9159407814046805
  0
ARC
  5
72E9
  8
0
 10
2995.187204314362134
 20
81.2361392997910485
 30
0.0
 40
0.082590736034968
 50
3.942111706237954
 51
81.2913706712688082
  0
LINE
  5
72EA
  8
0
 10
2995.1997093525801574
 20
81.3177778550083019
 30
0.0
 11
2988.5016246166619567
 21
81.3201063923276308
 31
0.0
  0
LINE
  5
72EB
  8
0
 10
2988.5016149687799043
 20
78.7891037414674713
 30
0.0
 11
2995.1932127024801957
 21
78.7867774592083094
 31
0.0
  0
ARC
  5
72EC
  8
0
 10
2995.1839506289529709
 20
78.8722181129149646
 30
0.0
 40
0.0859412084614658
 50
276.186908807080215
 51
355.3485027668336897
  0
LINE
  5
72ED
  8
0
 10
2995.2696087808799348
 20
78.8652487284083179
 30
0.0
 11
2995.2695996422798999
 21
81.2418172938082677
 31
0.0
  0
ARC
  5
72EE
  8
0
 10
2987.035393494822074
 20
79.1588881232144388
 30
0.0
 40
1.4985765344588109
 50
348.936432540353394
 51
359.2597315836163716
  0
LINE
  5
72EF
  8
0
 10
2988.5338449526798286
 20
79.1395268714114337
 30
0.0
 11
2988.5338340189118753
 21
80.9675333519615776
 31
0.0
  0
ARC
  5
72F0
  8
0
 10
2987.0076179915440662
 20
80.9454835651338556
 30
0.0
 40
1.526360408779335
 50
0.8271591979138392
 51
10.9159407814046805
  0
ARC
  5
72F1
  8
0
 10
2995.187204314362134
 20
76.1400392997910131
 30
0.0
 40
0.082590736034968
 50
3.942111706237954
 51
81.2913706712688082
  0
LINE
  5
72F2
  8
0
 10
2995.1997093525801574
 20
76.2216778550082665
 30
0.0
 11
2988.5016149670168488
 21
76.2240063956822098
 31
0.0
  0
LINE
  5
72F3
  8
0
 10
2988.501614741764115
 20
73.6930037415463914
 30
0.0
 11
2995.1932127024801957
 21
73.6906774592082741
 31
0.0
  0
ARC
  5
72F4
  8
0
 10
2995.1839506289529709
 20
73.7761181129149293
 30
0.0
 40
0.0859412084614658
 50
276.186908807080215
 51
355.3485027668336897
  0
LINE
  5
72F5
  8
0
 10
2995.2696087808799348
 20
73.7691487284082825
 30
0.0
 11
2995.2695996422798999
 21
76.1457172938083033
 31
0.0
  0
ARC
  5
72F6
  8
0
 10
2987.035393494822074
 20
74.0627881232144034
 30
0.0
 40
1.4985765344588109
 50
348.936432540353394
 51
359.2597315836163716
  0
LINE
  5
72F7
  8
0
 10
2988.5338449526798286
 20
74.0434268714114125
 30
0.0
 11
2988.5338340189118753
 21
75.8714333519615423
 31
0.0
  0
ARC
  5
72F8
  8
0
 10
2987.0076179915440662
 20
75.849383565133877
 30
0.0
 40
1.526360408779335
 50
0.8271591979138392
 51
10.9159407814046805
  0
LINE
  5
72F9
  8
0
 10
2988.501614971707113
 20
96.6224590445083038
 30
0.0
 11
2988.5016149687799043
 21
96.5480078044819123
 31
0.0
  0
LINE
  5
72FA
  8
0
 10
2988.5016149687799043
 20
96.5480078044819123
 30
0.0
 11
2988.5063605338800699
 21
96.5228283528083182
 31
0.0
  0
LINE
  5
72FB
  8
0
 10
2988.5016149687799043
 20
94.0611788205495998
 30
0.0
 11
2988.5016149687799043
 21
94.1357509286082887
 31
0.0
  0
LINE
  5
72FC
  8
0
 10
2988.5016149687799043
 20
94.1357509286082887
 30
0.0
 11
2988.5061188107301859
 21
94.1596143504580994
 31
0.0
  0
LINE
  5
72FD
  8
0
 10
2988.5016149681628121
 20
91.5263590445008788
 30
0.0
 11
2988.5016149687799043
 21
91.4519076449082888
 31
0.0
  0
LINE
  5
72FE
  8
0
 10
2988.5016149687799043
 20
91.4519076449082888
 30
0.0
 11
2988.5063605338800699
 21
91.4267283528082828
 31
0.0
  0
LINE
  5
72FF
  8
0
 10
2988.5016149681659954
 20
88.9650788204491789
 30
0.0
 11
2988.5016149687799043
 21
89.0396509286083244
 31
0.0
  0
LINE
  5
7300
  8
0
 10
2988.5016149687799043
 20
89.0396509286083244
 30
0.0
 11
2988.5061188107301859
 21
89.0635143504573819
 31
0.0
  0
LINE
  5
7301
  8
0
 10
2988.5016149681650859
 20
86.4302590445704766
 30
0.0
 11
2988.5016149687799043
 21
86.3558076449082961
 31
0.0
  0
LINE
  5
7302
  8
0
 10
2988.5016149687799043
 20
86.3558076449082961
 30
0.0
 11
2988.5063605338800699
 21
86.3306283528083043
 31
0.0
  0
LINE
  5
7303
  8
0
 10
2988.5016268619970106
 20
83.8689788196585653
 30
0.0
 11
2988.5016149687799043
 21
83.943550928608289
 31
0.0
  0
LINE
  5
7304
  8
0
 10
2988.5016149687799043
 20
83.943550928608289
 30
0.0
 11
2988.5061188107301859
 21
83.9674143504574033
 31
0.0
  0
LINE
  5
7305
  8
0
 10
2988.5016268613821921
 20
81.3341590436180866
 30
0.0
 11
2988.5016149687799043
 21
81.2597076449082749
 31
0.0
  0
LINE
  5
7306
  8
0
 10
2988.5016149687799043
 20
81.2597076449082749
 30
0.0
 11
2988.5063605338800699
 21
81.2345283528082689
 31
0.0
  0
LINE
  5
7307
  8
0
 10
2988.5016149687799043
 20
78.7728788213082964
 30
0.0
 11
2988.5016149687799043
 21
78.8474509286083105
 31
0.0
  0
LINE
  5
7308
  8
0
 10
2988.5016149687799043
 20
78.8474509286083105
 30
0.0
 11
2988.5061188113368189
 21
78.8713143535593701
 31
0.0
  0
LINE
  5
7309
  8
0
 10
2988.5016149681650859
 20
76.2380590445748965
 30
0.0
 11
2988.5016149620801116
 21
76.1636076797082922
 31
0.0
  0
LINE
  5
730A
  8
0
 10
2988.5016149620801116
 20
76.1636076797082922
 30
0.0
 11
2988.5063605338800699
 21
76.1384283528082904
 31
0.0
  0
LINE
  5
730B
  8
0
 10
2988.5065866116560755
 20
73.6040407809155965
 30
0.0
 11
2988.501614735982912
 21
73.6283486592453471
 31
0.0
  0
LINE
  5
730C
  8
0
 10
2988.501614735982912
 20
73.6283486592453471
 30
0.0
 11
2988.5016147469800671
 21
73.7513497710083072
 31
0.0
  0
LINE
  5
730D
  8
0
 10
2988.5016147469800671
 20
73.7513497710083072
 30
0.0
 11
2988.5061188107301859
 21
73.7752143504570483
 31
0.0
  0
ARC
  5
730E
  8
0
 10
2987.0893075415979183
 20
73.3101822873782965
 30
0.0
 40
1.447422805074277
 50
0.5219727126523209
 51
11.7137260136696799
  0
LINE
  5
730F
  8
0
 10
2988.5366702828800953
 20
73.3233683329083021
 30
0.0
 11
2988.5366702828800953
 21
71.4953683329083276
 31
0.0
  0
ARC
  5
7310
  8
0
 10
2986.9527410049608989
 20
71.5212736606942201
 30
0.0
 40
1.584141105917636
 50
346.3960380263504248
 51
359.063005116991576
  0
ARC
  5
7311
  8
0
 10
2988.676634823034874
 20
72.1057476194021376
 30
0.0
 40
1.5712292105843659
 50
90.2063085999914875
 51
93.9679279216223762
  0
ARC
  5
7312
  8
0
 10
2989.1155850743029987
 20
25.3989037008633716
 30
0.0
 40
45.8125990487561694
 50
90.5187278708773277
 51
90.7630485284135062
  0
ARC
  5
7313
  8
0
 10
3017.0904466595320628
 20
71.0438832392831756
 30
0.0
 40
0.0826573140842531
 50
3.9583061792597301
 51
81.2117058123737223
  0
LINE
  5
7314
  8
0
 10
3017.1030753690802158
 20
71.1255701248083199
 30
0.0
 11
3009.955337010079802
 21
71.1255686686082811
 31
0.0
  0
ARC
  5
7315
  8
0
 10
3009.9679530113889996
 20
71.0439015351861087
 30
0.0
 40
0.0826358528148742
 50
98.7816787481583845
 51
176.0360300931669997
  0
LINE
  5
7316
  8
0
 10
3009.8855148467600884
 20
71.049614081291125
 30
0.0
 11
3009.8855053320380648
 21
68.6730487471162121
 31
0.0
  0
ARC
  5
7317
  8
0
 10
3009.9679833120408148
 20
68.6787710235892916
 30
0.0
 40
0.0826762458821125
 50
183.9687895936694986
 51
261.201222840355797
  0
LINE
  5
7318
  8
0
 10
3009.9553367611802059
 20
68.5970677410083169
 30
0.0
 11
3017.1030751171811062
 21
68.5973188532082361
 31
0.0
  0
ARC
  5
7319
  8
0
 10
3017.0910049636631811
 20
68.6785020313854204
 30
0.0
 40
0.0820755568051146
 50
278.4566736798083753
 51
356.1706186007623955
  0
LINE
  5
731A
  8
0
 10
3017.1728972746159343
 20
68.6730205688359945
 30
0.0
 11
3017.1729067985229449
 21
71.0495891177735359
 31
0.0
  0
ARC
  5
731B
  8
0
 10
3009.7893466595328391
 20
71.0438832392831756
 30
0.0
 40
0.0826573140842531
 50
3.9583061792597301
 51
81.2117058123737223
  0
LINE
  5
731C
  8
0
 10
3009.8019753690809921
 20
71.1255701248083199
 30
0.0
 11
3002.6542370100801236
 21
71.1255686686082811
 31
0.0
  0
ARC
  5
731D
  8
0
 10
3002.6668530113888664
 20
71.0439015351860519
 30
0.0
 40
0.0826358528148742
 50
98.7816787481583845
 51
176.0360300931669997
  0
LINE
  5
731E
  8
0
 10
3002.5844148467599553
 20
71.049614081291125
 30
0.0
 11
3002.5844053320379317
 21
68.6730487471162121
 31
0.0
  0
ARC
  5
731F
  8
0
 10
3002.6668833120411364
 20
68.6787710235892916
 30
0.0
 40
0.0826762458821125
 50
183.9687895936694986
 51
261.201222840355797
  0
LINE
  5
7320
  8
0
 10
3002.6542367611800728
 20
68.5970677410083169
 30
0.0
 11
3009.801975117180973
 21
68.5973188532082361
 31
0.0
  0
ARC
  5
7321
  8
0
 10
3009.789904963663048
 20
68.6785020313854204
 30
0.0
 40
0.0820755568051146
 50
278.4566736798083753
 51
356.1706186007623955
  0
LINE
  5
7322
  8
0
 10
3009.8717972746158011
 20
68.6730205688359945
 30
0.0
 11
3009.8718067985228117
 21
71.0495891177735359
 31
0.0
  0
ARC
  5
7323
  8
0
 10
3002.4882466595331607
 20
71.0438832392831756
 30
0.0
 40
0.0826573140842531
 50
3.9583061792597301
 51
81.2117058123737223
  0
LINE
  5
7324
  8
0
 10
3002.5008753690799495
 20
71.1255701248083199
 30
0.0
 11
2995.3531370100799904
 21
71.1255686686082811
 31
0.0
  0
ARC
  5
7325
  8
0
 10
2995.365753011389188
 20
71.0439015351860519
 30
0.0
 40
0.0826358528148742
 50
98.7816787481583845
 51
176.0360300931669997
  0
LINE
  5
7326
  8
0
 10
2995.2833148467598221
 20
71.049614081291125
 30
0.0
 11
2995.2833053320377985
 21
68.6730487471162121
 31
0.0
  0
ARC
  5
7327
  8
0
 10
2995.3657833120400937
 20
68.6787710235892916
 30
0.0
 40
0.0826762458821125
 50
183.9687895936694986
 51
261.201222840355797
  0
LINE
  5
7328
  8
0
 10
2995.3531367611799396
 20
68.5970677410083169
 30
0.0
 11
3002.5008751171799304
 21
68.5973188532082361
 31
0.0
  0
ARC
  5
7329
  8
0
 10
3002.4888049636629148
 20
68.6785020313854204
 30
0.0
 40
0.0820755568051146
 50
278.4566736798083753
 51
356.1706186007623955
  0
LINE
  5
732A
  8
0
 10
3002.5706972746161227
 20
68.6730205688359945
 30
0.0
 11
3002.5707067985231333
 21
71.0495891177735359
 31
0.0
  0
ARC
  5
732B
  8
0
 10
2998.8376966595328668
 20
68.4958332392832006
 30
0.0
 40
0.0826573140842531
 50
3.9583061792597301
 51
81.2117058123737223
  0
LINE
  5
732C
  8
0
 10
2998.8503253690801102
 20
68.5775201248082737
 30
0.0
 11
2991.7025870100801512
 21
68.5775186686082918
 31
0.0
  0
ARC
  5
732D
  8
0
 10
2991.7152030113888941
 20
68.4958515351860626
 30
0.0
 40
0.0826358528148742
 50
98.7816787481583845
 51
176.0360300931669997
  0
LINE
  5
732E
  8
0
 10
2991.6327648467599829
 20
68.5015640812910931
 30
0.0
 11
2991.6327553320379593
 21
66.124998747116166
 31
0.0
  0
ARC
  5
732F
  8
0
 10
2991.7152333120397998
 20
66.1307210235893024
 30
0.0
 40
0.0826762458821125
 50
183.9687895936694986
 51
261.201222840355797
  0
LINE
  5
7330
  8
0
 10
2991.7025867611801004
 20
66.0490177410082708
 30
0.0
 11
2998.8503251171810007
 21
66.0492688532082468
 31
0.0
  0
ARC
  5
7331
  8
0
 10
2998.8382549636630756
 20
66.1304520313854312
 30
0.0
 40
0.0820755568051146
 50
278.4566736798083753
 51
356.1706186007623955
  0
LINE
  5
7332
  8
0
 10
2998.9201472746158288
 20
66.1249705688360052
 30
0.0
 11
2998.9201567985228394
 21
68.5015391177734898
 31
0.0
  0
ARC
  5
7333
  8
0
 10
3006.1387966595329999
 20
68.4958332392832006
 30
0.0
 40
0.0826573140842531
 50
3.9583061792597301
 51
81.2117058123737223
  0
LINE
  5
7334
  8
0
 10
3006.1514253690797887
 20
68.5775201248082737
 30
0.0
 11
2999.0036870100798296
 21
68.5775186686082918
 31
0.0
  0
ARC
  5
7335
  8
0
 10
2999.0163030113890272
 20
68.4958515351860626
 30
0.0
 40
0.0826358528148742
 50
98.7816787481583845
 51
176.0360300931669997
  0
LINE
  5
7336
  8
0
 10
2998.9338648467601161
 20
68.5015640812910931
 30
0.0
 11
2998.9338553320380925
 21
66.124998747116166
 31
0.0
  0
ARC
  5
7337
  8
0
 10
2999.0163333120399329
 20
66.1307210235893024
 30
0.0
 40
0.0826762458821125
 50
183.9687895936694986
 51
261.201222840355797
  0
LINE
  5
7338
  8
0
 10
2999.0036867611797788
 20
66.0490177410082708
 30
0.0
 11
3006.1514251171811338
 21
66.0492688532082468
 31
0.0
  0
ARC
  5
7339
  8
0
 10
3006.1393549636632088
 20
66.1304520313854312
 30
0.0
 40
0.0820755568051146
 50
278.4566736798083753
 51
356.1706186007623955
  0
LINE
  5
733A
  8
0
 10
3006.2212472746159619
 20
66.1249705688360052
 30
0.0
 11
3006.2212567985229725
 21
68.5015391177734898
 31
0.0
  0
ARC
  5
733B
  8
0
 10
3013.4398966595331331
 20
68.4958332392832006
 30
0.0
 40
0.0826573140842531
 50
3.9583061792597301
 51
81.2117058123737223
  0
LINE
  5
733C
  8
0
 10
3013.4525253690799218
 20
68.5775201248082737
 30
0.0
 11
3006.3047870100799628
 21
68.5775186686082918
 31
0.0
  0
ARC
  5
733D
  8
0
 10
3006.3174030113891604
 20
68.4958515351860626
 30
0.0
 40
0.0826358528148742
 50
98.7816787481583845
 51
176.0360300931669997
  0
LINE
  5
733E
  8
0
 10
3006.2349648467597945
 20
68.5015640812910931
 30
0.0
 11
3006.2349553320382256
 21
66.124998747116166
 31
0.0
  0
ARC
  5
733F
  8
0
 10
3006.3174333120409756
 20
66.1307210235893024
 30
0.0
 40
0.0826762458821125
 50
183.9687895936694986
 51
261.201222840355797
  0
LINE
  5
7340
  8
0
 10
3006.304786761179912
 20
66.0490177410082708
 30
0.0
 11
3013.4525251171808122
 21
66.0492688532082468
 31
0.0
  0
ARC
  5
7341
  8
0
 10
3013.4404549636628872
 20
66.1304520313854312
 30
0.0
 40
0.0820755568051146
 50
278.4566736798083753
 51
356.1706186007623955
  0
LINE
  5
7342
  8
0
 10
3013.5223472746160951
 20
66.1249705688360052
 30
0.0
 11
3013.5223567985231057
 21
68.5015391177734898
 31
0.0
  0
ARC
  5
7343
  8
0
 10
3017.0904466595320628
 20
65.9477832392832113
 30
0.0
 40
0.0826573140842531
 50
3.9583061792597301
 51
81.2117058123737223
  0
LINE
  5
7344
  8
0
 10
3017.1030753690802158
 20
66.0294701248082845
 30
0.0
 11
3009.955337010079802
 21
66.0294686686083026
 31
0.0
  0
ARC
  5
7345
  8
0
 10
3009.9679530113889996
 20
65.9478015351860734
 30
0.0
 40
0.0826358528148742
 50
98.7816787481583845
 51
176.0360300931669997
  0
LINE
  5
7346
  8
0
 10
3009.8855148467600884
 20
65.9535140812911038
 30
0.0
 11
3009.8855053320380648
 21
63.5769487471161767
 31
0.0
  0
ARC
  5
7347
  8
0
 10
3009.9679833120408148
 20
63.5826710235893131
 30
0.0
 40
0.0826762458821125
 50
183.9687895936694986
 51
261.201222840355797
  0
LINE
  5
7348
  8
0
 10
3009.9553367611802059
 20
63.5009677410082816
 30
0.0
 11
3017.1030751171811062
 21
63.5012188532082575
 31
0.0
  0
ARC
  5
7349
  8
0
 10
3017.0910049636631811
 20
63.5824020313854419
 30
0.0
 40
0.0820755568051146
 50
278.4566736798083753
 51
356.1706186007623955
  0
LINE
  5
734A
  8
0
 10
3017.1728972746159343
 20
63.5769205688360088
 30
0.0
 11
3017.1729067985229449
 21
65.9534891177735005
 31
0.0
  0
ARC
  5
734B
  8
0
 10
3009.7893466595328391
 20
65.9477832392832113
 30
0.0
 40
0.0826573140842531
 50
3.9583061792597301
 51
81.2117058123737223
  0
LINE
  5
734C
  8
0
 10
3009.8019753690809921
 20
66.0294701248082845
 30
0.0
 11
3002.6542370100801236
 21
66.0294686686083026
 31
0.0
  0
ARC
  5
734D
  8
0
 10
3002.6668530113888664
 20
65.9478015351860734
 30
0.0
 40
0.0826358528148742
 50
98.7816787481583845
 51
176.0360300931669997
  0
LINE
  5
734E
  8
0
 10
3002.5844148467599553
 20
65.9535140812911038
 30
0.0
 11
3002.5844053320379317
 21
63.5769487471161767
 31
0.0
  0
ARC
  5
734F
  8
0
 10
3002.6668833120411364
 20
63.5826710235893131
 30
0.0
 40
0.0826762458821125
 50
183.9687895936694986
 51
261.201222840355797
  0
LINE
  5
7350
  8
0
 10
3002.6542367611800728
 20
63.5009677410082816
 30
0.0
 11
3009.801975117180973
 21
63.5012188532082575
 31
0.0
  0
ARC
  5
7351
  8
0
 10
3009.789904963663048
 20
63.5824020313854419
 30
0.0
 40
0.0820755568051146
 50
278.4566736798083753
 51
356.1706186007623955
  0
LINE
  5
7352
  8
0
 10
3009.8717972746158011
 20
63.5769205688360088
 30
0.0
 11
3009.8718067985228117
 21
65.9534891177735005
 31
0.0
  0
ARC
  5
7353
  8
0
 10
3002.4882466595331607
 20
65.9477832392832113
 30
0.0
 40
0.0826573140842531
 50
3.9583061792597301
 51
81.2117058123737223
  0
LINE
  5
7354
  8
0
 10
3002.5008753690799495
 20
66.0294701248082845
 30
0.0
 11
2995.3531370100799904
 21
66.0294686686083026
 31
0.0
  0
ARC
  5
7355
  8
0
 10
2995.365753011389188
 20
65.9478015351860734
 30
0.0
 40
0.0826358528148742
 50
98.7816787481583845
 51
176.0360300931669997
  0
LINE
  5
7356
  8
0
 10
2995.2833148467598221
 20
65.9535140812911038
 30
0.0
 11
2995.2833053320377985
 21
63.5769487471161767
 31
0.0
  0
ARC
  5
7357
  8
0
 10
2995.3657833120400937
 20
63.5826710235893131
 30
0.0
 40
0.0826762458821125
 50
183.9687895936694986
 51
261.201222840355797
  0
LINE
  5
7358
  8
0
 10
2995.3531367611799396
 20
63.5009677410082816
 30
0.0
 11
3002.5008751171799304
 21
63.5012188532082575
 31
0.0
  0
ARC
  5
7359
  8
0
 10
3002.4888049636629148
 20
63.5824020313854419
 30
0.0
 40
0.0820755568051146
 50
278.4566736798083753
 51
356.1706186007623955
  0
LINE
  5
735A
  8
0
 10
3002.5706972746161227
 20
63.5769205688360088
 30
0.0
 11
3002.5707067985231333
 21
65.9534891177735005
 31
0.0
  0
ARC
  5
735B
  8
0
 10
3013.4398966595331331
 20
63.3997332392831581
 30
0.0
 40
0.0826573140842531
 50
3.9583061792597301
 51
81.2117058123737223
  0
LINE
  5
735C
  8
0
 10
3013.4525253690799218
 20
63.4814201248082881
 30
0.0
 11
3006.3047870100799628
 21
63.4814186686083204
 31
0.0
  0
ARC
  5
735D
  8
0
 10
3006.3174030113891604
 20
63.399751535186077
 30
0.0
 40
0.0826358528148742
 50
98.7816787481583845
 51
176.0360300931669997
  0
LINE
  5
735E
  8
0
 10
3006.2349648467597945
 20
63.4054640812911074
 30
0.0
 11
3006.2349553320382256
 21
61.0288987471161803
 31
0.0
  0
ARC
  5
735F
  8
0
 10
3006.3174333120409756
 20
61.034621023589267
 30
0.0
 40
0.0826762458821125
 50
183.9687895936694986
 51
261.201222840355797
  0
LINE
  5
7360
  8
0
 10
3006.304786761179912
 20
60.9529177410082923
 30
0.0
 11
3013.4525251171808122
 21
60.9531688532082612
 31
0.0
  0
ARC
  5
7361
  8
0
 10
3013.4404549636628872
 20
61.0343520313854526
 30
0.0
 40
0.0820755568051146
 50
278.4566736798083753
 51
356.1706186007623955
  0
LINE
  5
7362
  8
0
 10
3013.5223472746160951
 20
61.0288705688359698
 30
0.0
 11
3013.5223567985231057
 21
63.4054391177735113
 31
0.0
  0
ARC
  5
7363
  8
0
 10
3006.1387966595329999
 20
63.3997332392831581
 30
0.0
 40
0.0826573140842531
 50
3.9583061792597301
 51
81.2117058123737223
  0
LINE
  5
7364
  8
0
 10
3006.1514253690797887
 20
63.4814201248082881
 30
0.0
 11
2999.0036870100798296
 21
63.4814186686083204
 31
0.0
  0
ARC
  5
7365
  8
0
 10
2999.0163030113890272
 20
63.399751535186077
 30
0.0
 40
0.0826358528148742
 50
98.7816787481583845
 51
176.0360300931669997
  0
LINE
  5
7366
  8
0
 10
2998.9338648467601161
 20
63.4054640812911074
 30
0.0
 11
2998.9338553320380925
 21
61.0288987471161803
 31
0.0
  0
ARC
  5
7367
  8
0
 10
2999.0163333120399329
 20
61.034621023589267
 30
0.0
 40
0.0826762458821125
 50
183.9687895936694986
 51
261.201222840355797
  0
LINE
  5
7368
  8
0
 10
2999.0036867611797788
 20
60.9529177410082923
 30
0.0
 11
3006.1514251171811338
 21
60.9531688532082612
 31
0.0
  0
ARC
  5
7369
  8
0
 10
3006.1393549636632088
 20
61.0343520313854526
 30
0.0
 40
0.0820755568051146
 50
278.4566736798083753
 51
356.1706186007623955
  0
LINE
  5
736A
  8
0
 10
3006.2212472746159619
 20
61.0288705688359698
 30
0.0
 11
3006.2212567985229725
 21
63.4054391177735113
 31
0.0
  0
ARC
  5
736B
  8
0
 10
2998.8376966595328668
 20
63.3997332392831581
 30
0.0
 40
0.0826573140842531
 50
3.9583061792597301
 51
81.2117058123737223
  0
LINE
  5
736C
  8
0
 10
2998.8503253690801102
 20
63.4814201248082881
 30
0.0
 11
2991.7025870100801512
 21
63.4814186686083204
 31
0.0
  0
ARC
  5
736D
  8
0
 10
2991.7152030113888941
 20
63.399751535186077
 30
0.0
 40
0.0826358528148742
 50
98.7816787481583845
 51
176.0360300931669997
  0
LINE
  5
736E
  8
0
 10
2991.6327648467599829
 20
63.4054640812911074
 30
0.0
 11
2991.6327553320379593
 21
61.0288987471161803
 31
0.0
  0
ARC
  5
736F
  8
0
 10
2991.7152333120397998
 20
61.034621023589267
 30
0.0
 40
0.0826762458821125
 50
183.9687895936694986
 51
261.201222840355797
  0
LINE
  5
7370
  8
0
 10
2991.7025867611801004
 20
60.9529177410082923
 30
0.0
 11
2998.8503251171810007
 21
60.9531688532082612
 31
0.0
  0
ARC
  5
7371
  8
0
 10
2998.8382549636630756
 20
61.0343520313854526
 30
0.0
 40
0.0820755568051146
 50
278.4566736798083753
 51
356.1706186007623955
  0
LINE
  5
7372
  8
0
 10
2998.9201472746158288
 20
61.0288705688359698
 30
0.0
 11
2998.9201567985228394
 21
63.4054391177735113
 31
0.0
  0
ARC
  5
7373
  8
0
 10
3017.0904466595320628
 20
60.851683239283183
 30
0.0
 40
0.0826573140842531
 50
3.9583061792597301
 51
81.2117058123737223
  0
LINE
  5
7374
  8
0
 10
3017.1030753690802158
 20
60.9333701248082988
 30
0.0
 11
3009.955337010079802
 21
60.9333686686082672
 31
0.0
  0
ARC
  5
7375
  8
0
 10
3009.9679530113889996
 20
60.8517015351861019
 30
0.0
 40
0.0826358528148742
 50
98.7816787481583845
 51
176.0360300931669997
  0
LINE
  5
7376
  8
0
 10
3009.8855148467600884
 20
60.8574140812911324
 30
0.0
 11
3009.8855053320380648
 21
58.4808487471161982
 31
0.0
  0
ARC
  5
7377
  8
0
 10
3009.9679833120408148
 20
58.4865710235892706
 30
0.0
 40
0.0826762458821125
 50
183.9687895936694986
 51
261.201222840355797
  0
LINE
  5
7378
  8
0
 10
3009.9553367611802059
 20
58.404867741008303
 30
0.0
 11
3017.1030751171811062
 21
58.405118853208279
 31
0.0
  0
ARC
  5
7379
  8
0
 10
3017.0910049636631811
 20
58.4863020313853994
 30
0.0
 40
0.0820755568051146
 50
278.4566736798083753
 51
356.1706186007623955
  0
LINE
  5
737A
  8
0
 10
3017.1728972746159343
 20
58.4808205688359806
 30
0.0
 11
3017.1729067985229449
 21
60.857389117773522
 31
0.0
  0
ARC
  5
737B
  8
0
 10
3009.7893466595328391
 20
60.851683239283183
 30
0.0
 40
0.0826573140842531
 50
3.9583061792597301
 51
81.2117058123737223
  0
LINE
  5
737C
  8
0
 10
3009.8019753690809921
 20
60.9333701248082988
 30
0.0
 11
3002.6542370100801236
 21
60.9333686686082672
 31
0.0
  0
ARC
  5
737D
  8
0
 10
3002.6668530113888664
 20
60.8517015351861019
 30
0.0
 40
0.0826358528148742
 50
98.7816787481583845
 51
176.0360300931669997
  0
LINE
  5
737E
  8
0
 10
3002.5844148467599553
 20
60.8574140812911324
 30
0.0
 11
3002.5844053320379317
 21
58.4808487471161982
 31
0.0
  0
ARC
  5
737F
  8
0
 10
3002.6668833120411364
 20
58.4865710235892706
 30
0.0
 40
0.0826762458821125
 50
183.9687895936694986
 51
261.201222840355797
  0
LINE
  5
7380
  8
0
 10
3002.6542367611800728
 20
58.404867741008303
 30
0.0
 11
3009.801975117180973
 21
58.405118853208279
 31
0.0
  0
ARC
  5
7381
  8
0
 10
3009.789904963663048
 20
58.4863020313853994
 30
0.0
 40
0.0820755568051146
 50
278.4566736798083753
 51
356.1706186007623955
  0
LINE
  5
7382
  8
0
 10
3009.8717972746158011
 20
58.4808205688359806
 30
0.0
 11
3009.8718067985228117
 21
60.857389117773522
 31
0.0
  0
ARC
  5
7383
  8
0
 10
3002.4882466595331607
 20
60.851683239283183
 30
0.0
 40
0.0826573140842531
 50
3.9583061792597301
 51
81.2117058123737223
  0
LINE
  5
7384
  8
0
 10
3002.5008753690799495
 20
60.9333701248082988
 30
0.0
 11
2995.3531370100799904
 21
60.9333686686082672
 31
0.0
  0
ARC
  5
7385
  8
0
 10
2995.365753011389188
 20
60.8517015351861019
 30
0.0
 40
0.0826358528148742
 50
98.7816787481583845
 51
176.0360300931669997
  0
LINE
  5
7386
  8
0
 10
2995.2833148467598221
 20
60.8574140812911324
 30
0.0
 11
2995.2833053320377985
 21
58.4808487471161982
 31
0.0
  0
ARC
  5
7387
  8
0
 10
2995.3657833120400937
 20
58.4865710235892706
 30
0.0
 40
0.0826762458821125
 50
183.9687895936694986
 51
261.201222840355797
  0
LINE
  5
7388
  8
0
 10
2995.3531367611799396
 20
58.404867741008303
 30
0.0
 11
3002.5008751171799304
 21
58.405118853208279
 31
0.0
  0
ARC
  5
7389
  8
0
 10
3002.4888049636629148
 20
58.4863020313853994
 30
0.0
 40
0.0820755568051146
 50
278.4566736798083753
 51
356.1706186007623955
  0
LINE
  5
738A
  8
0
 10
3002.5706972746161227
 20
58.4808205688359806
 30
0.0
 11
3002.5707067985231333
 21
60.857389117773522
 31
0.0
  0
ARC
  5
738B
  8
0
 10
3013.4398966595331331
 20
58.3036332392831866
 30
0.0
 40
0.0826573140842531
 50
3.9583061792597301
 51
81.2117058123737223
  0
LINE
  5
738C
  8
0
 10
3013.4525253690799218
 20
58.3853201248083167
 30
0.0
 11
3006.3047870100799628
 21
58.3853186686082779
 31
0.0
  0
ARC
  5
738D
  8
0
 10
3006.3174030113891604
 20
58.3036515351860984
 30
0.0
 40
0.0826358528148742
 50
98.7816787481583845
 51
176.0360300931669997
  0
LINE
  5
738E
  8
0
 10
3006.2349648467597945
 20
58.3093640812911289
 30
0.0
 11
3006.2349553320382256
 21
55.9327987471162089
 31
0.0
  0
ARC
  5
738F
  8
0
 10
3006.3174333120409756
 20
55.9385210235892885
 30
0.0
 40
0.0826762458821125
 50
183.9687895936694986
 51
261.201222840355797
  0
LINE
  5
7390
  8
0
 10
3006.304786761179912
 20
55.8568177410083067
 30
0.0
 11
3013.4525251171808122
 21
55.8570688532082329
 31
0.0
  0
ARC
  5
7391
  8
0
 10
3013.4404549636628872
 20
55.9382520313854172
 30
0.0
 40
0.0820755568051146
 50
278.4566736798083753
 51
356.1706186007623955
  0
LINE
  5
7392
  8
0
 10
3013.5223472746160951
 20
55.9327705688359913
 30
0.0
 11
3013.5223567985231057
 21
58.3093391177735327
 31
0.0
  0
ARC
  5
7393
  8
0
 10
3006.1387966595329999
 20
58.3036332392831866
 30
0.0
 40
0.0826573140842531
 50
3.9583061792597301
 51
81.2117058123737223
  0
LINE
  5
7394
  8
0
 10
3006.1514253690797887
 20
58.3853201248083167
 30
0.0
 11
2999.0036870100798296
 21
58.3853186686082779
 31
0.0
  0
ARC
  5
7395
  8
0
 10
2999.0163030113890272
 20
58.3036515351860984
 30
0.0
 40
0.0826358528148742
 50
98.7816787481583845
 51
176.0360300931669997
  0
LINE
  5
7396
  8
0
 10
2998.9338648467601161
 20
58.3093640812911289
 30
0.0
 11
2998.9338553320380925
 21
55.9327987471162089
 31
0.0
  0
ARC
  5
7397
  8
0
 10
2999.0163333120399329
 20
55.9385210235892885
 30
0.0
 40
0.0826762458821125
 50
183.9687895936694986
 51
261.201222840355797
  0
LINE
  5
7398
  8
0
 10
2999.0036867611797788
 20
55.8568177410083067
 30
0.0
 11
3006.1514251171811338
 21
55.8570688532082329
 31
0.0
  0
ARC
  5
7399
  8
0
 10
3006.1393549636632088
 20
55.9382520313854172
 30
0.0
 40
0.0820755568051146
 50
278.4566736798083753
 51
356.1706186007623955
  0
LINE
  5
739A
  8
0
 10
3006.2212472746159619
 20
55.9327705688359913
 30
0.0
 11
3006.2212567985229725
 21
58.3093391177735327
 31
0.0
  0
ARC
  5
739B
  8
0
 10
2998.8376966595328668
 20
58.3036332392831866
 30
0.0
 40
0.0826573140842531
 50
3.9583061792597301
 51
81.2117058123737223
  0
LINE
  5
739C
  8
0
 10
2998.8503253690801102
 20
58.3853201248083167
 30
0.0
 11
2991.7025870100801512
 21
58.3853186686082779
 31
0.0
  0
ARC
  5
739D
  8
0
 10
2991.7152030113888941
 20
58.3036515351860984
 30
0.0
 40
0.0826358528148742
 50
98.7816787481583845
 51
176.0360300931669997
  0
LINE
  5
739E
  8
0
 10
2991.6327648467599829
 20
58.3093640812911289
 30
0.0
 11
2991.6327553320379593
 21
55.9327987471162089
 31
0.0
  0
ARC
  5
739F
  8
0
 10
2991.7152333120397998
 20
55.9385210235892885
 30
0.0
 40
0.0826762458821125
 50
183.9687895936694986
 51
261.201222840355797
  0
LINE
  5
73A0
  8
0
 10
2991.7025867611801004
 20
55.8568177410083067
 30
0.0
 11
2998.8503251171810007
 21
55.8570688532082329
 31
0.0
  0
ARC
  5
73A1
  8
0
 10
2998.8382549636630756
 20
55.9382520313854172
 30
0.0
 40
0.0820755568051146
 50
278.4566736798083753
 51
356.1706186007623955
  0
LINE
  5
73A2
  8
0
 10
2998.9201472746158288
 20
55.9327705688359913
 30
0.0
 11
2998.9201567985228394
 21
58.3093391177735327
 31
0.0
  0
ARC
  5
73A3
  8
0
 10
3002.4882466595331607
 20
55.7555832392831903
 30
0.0
 40
0.0826573140842531
 50
3.9583061792597301
 51
81.2117058123737223
  0
LINE
  5
73A4
  8
0
 10
3002.5008753690799495
 20
55.8372701248082706
 30
0.0
 11
2995.3531370100799904
 21
55.8372686686082815
 31
0.0
  0
ARC
  5
73A5
  8
0
 10
2995.365753011389188
 20
55.7556015351860594
 30
0.0
 40
0.0826358528148742
 50
98.7816787481583845
 51
176.0360300931669997
  0
LINE
  5
73A6
  8
0
 10
2995.2833148467598221
 20
55.7613140812910899
 30
0.0
 11
2995.2833053320377985
 21
53.3847487471162125
 31
0.0
  0
ARC
  5
73A7
  8
0
 10
2995.3657833120400937
 20
53.3904710235892992
 30
0.0
 40
0.0826762458821125
 50
183.9687895936694986
 51
261.201222840355797
  0
LINE
  5
73A8
  8
0
 10
2995.3531367611799396
 20
53.3087677410082605
 30
0.0
 11
3002.5008751171799304
 21
53.3090188532082365
 31
0.0
  0
ARC
  5
73A9
  8
0
 10
3002.4888049636629148
 20
53.3902020313854209
 30
0.0
 40
0.0820755568051146
 50
278.4566736798083753
 51
356.1706186007623955
  0
LINE
  5
73AA
  8
0
 10
3002.5706972746161227
 20
53.384720568836002
 30
0.0
 11
3002.5707067985231333
 21
55.7612891177734866
 31
0.0
  0
ARC
  5
73AB
  8
0
 10
3009.7893466595328391
 20
55.7555832392831903
 30
0.0
 40
0.0826573140842531
 50
3.9583061792597301
 51
81.2117058123737223
  0
LINE
  5
73AC
  8
0
 10
3009.8019753690809921
 20
55.8372701248082706
 30
0.0
 11
3002.6542370100801236
 21
55.8372686686082815
 31
0.0
  0
ARC
  5
73AD
  8
0
 10
3002.6668530113888664
 20
55.7556015351860594
 30
0.0
 40
0.0826358528148742
 50
98.7816787481583845
 51
176.0360300931669997
  0
LINE
  5
73AE
  8
0
 10
3002.5844148467599553
 20
55.7613140812910899
 30
0.0
 11
3002.5844053320379317
 21
53.3847487471162125
 31
0.0
  0
ARC
  5
73AF
  8
0
 10
3002.6668833120411364
 20
53.3904710235892992
 30
0.0
 40
0.0826762458821125
 50
183.9687895936694986
 51
261.201222840355797
  0
LINE
  5
73B0
  8
0
 10
3002.6542367611800728
 20
53.3087677410082605
 30
0.0
 11
3009.801975117180973
 21
53.3090188532082365
 31
0.0
  0
ARC
  5
73B1
  8
0
 10
3009.789904963663048
 20
53.3902020313854209
 30
0.0
 40
0.0820755568051146
 50
278.4566736798083753
 51
356.1706186007623955
  0
LINE
  5
73B2
  8
0
 10
3009.8717972746158011
 20
53.384720568836002
 30
0.0
 11
3009.8718067985228117
 21
55.7612891177734866
 31
0.0
  0
ARC
  5
73B3
  8
0
 10
3017.0904466595320628
 20
55.7555832392831903
 30
0.0
 40
0.0826573140842531
 50
3.9583061792597301
 51
81.2117058123737223
  0
LINE
  5
73B4
  8
0
 10
3017.1030753690802158
 20
55.8372701248082706
 30
0.0
 11
3009.955337010079802
 21
55.8372686686082815
 31
0.0
  0
ARC
  5
73B5
  8
0
 10
3009.9679530113889996
 20
55.7556015351860594
 30
0.0
 40
0.0826358528148742
 50
98.7816787481583845
 51
176.0360300931669997
  0
LINE
  5
73B6
  8
0
 10
3009.8855148467600884
 20
55.7613140812910899
 30
0.0
 11
3009.8855053320380648
 21
53.3847487471162125
 31
0.0
  0
ARC
  5
73B7
  8
0
 10
3009.9679833120408148
 20
53.3904710235892992
 30
0.0
 40
0.0826762458821125
 50
183.9687895936694986
 51
261.201222840355797
  0
LINE
  5
73B8
  8
0
 10
3009.9553367611802059
 20
53.3087677410082605
 30
0.0
 11
3017.1030751171811062
 21
53.3090188532082365
 31
0.0
  0
ARC
  5
73B9
  8
0
 10
3017.0910049636631811
 20
53.3902020313854209
 30
0.0
 40
0.0820755568051146
 50
278.4566736798083753
 51
356.1706186007623955
  0
LINE
  5
73BA
  8
0
 10
3017.1728972746159343
 20
53.384720568836002
 30
0.0
 11
3017.1729067985229449
 21
55.7612891177734866
 31
0.0
  0
ARC
  5
73BB
  8
0
 10
3013.4398966595331331
 20
53.2075332392832081
 30
0.0
 40
0.0826573140842531
 50
3.9583061792597301
 51
81.2117058123737223
  0
LINE
  5
73BC
  8
0
 10
3013.4525253690799218
 20
53.2892201248082813
 30
0.0
 11
3006.3047870100799628
 21
53.2892186686082994
 31
0.0
  0
ARC
  5
73BD
  8
0
 10
3006.3174030113891604
 20
53.2075515351860702
 30
0.0
 40
0.0826358528148742
 50
98.7816787481583845
 51
176.0360300931669997
  0
LINE
  5
73BE
  8
0
 10
3006.2349648467597945
 20
53.2132640812911006
 30
0.0
 11
3006.2349553320382256
 21
50.8366987471161735
 31
0.0
  0
ARC
  5
73BF
  8
0
 10
3006.3174333120409756
 20
50.8424210235893099
 30
0.0
 40
0.0826762458821125
 50
183.9687895936694986
 51
261.201222840355797
  0
LINE
  5
73C0
  8
0
 10
3006.304786761179912
 20
50.7607177410082784
 30
0.0
 11
3013.4525251171808122
 21
50.7609688532082615
 31
0.0
  0
ARC
  5
73C1
  8
0
 10
3013.4404549636628872
 20
50.8421520313854387
 30
0.0
 40
0.0820755568051146
 50
278.4566736798083753
 51
356.1706186007623955
  0
LINE
  5
73C2
  8
0
 10
3013.5223472746160951
 20
50.8366705688360128
 30
0.0
 11
3013.5223567985231057
 21
53.2132391177734974
 31
0.0
  0
ARC
  5
73C3
  8
0
 10
3006.1387966595329999
 20
53.2075332392832081
 30
0.0
 40
0.0826573140842531
 50
3.9583061792597301
 51
81.2117058123737223
  0
LINE
  5
73C4
  8
0
 10
3006.1514253690797887
 20
53.2892201248082813
 30
0.0
 11
2999.0036870100798296
 21
53.2892186686082994
 31
0.0
  0
ARC
  5
73C5
  8
0
 10
2999.0163030113890272
 20
53.2075515351860702
 30
0.0
 40
0.0826358528148742
 50
98.7816787481583845
 51
176.0360300931669997
  0
LINE
  5
73C6
  8
0
 10
2998.9338648467601161
 20
53.2132640812911006
 30
0.0
 11
2998.9338553320380925
 21
50.8366987471161735
 31
0.0
  0
ARC
  5
73C7
  8
0
 10
2999.0163333120399329
 20
50.8424210235893099
 30
0.0
 40
0.0826762458821125
 50
183.9687895936694986
 51
261.201222840355797
  0
LINE
  5
73C8
  8
0
 10
2999.0036867611797788
 20
50.7607177410082784
 30
0.0
 11
3006.1514251171811338
 21
50.7609688532082615
 31
0.0
  0
ARC
  5
73C9
  8
0
 10
3006.1393549636632088
 20
50.8421520313854387
 30
0.0
 40
0.0820755568051146
 50
278.4566736798083753
 51
356.1706186007623955
  0
LINE
  5
73CA
  8
0
 10
3006.2212472746159619
 20
50.8366705688360128
 30
0.0
 11
3006.2212567985229725
 21
53.2132391177734974
 31
0.0
  0
ARC
  5
73CB
  8
0
 10
2998.8376966595328668
 20
53.2075332392832081
 30
0.0
 40
0.0826573140842531
 50
3.9583061792597301
 51
81.2117058123737223
  0
LINE
  5
73CC
  8
0
 10
2998.8503253690801102
 20
53.2892201248082813
 30
0.0
 11
2991.7025870100801512
 21
53.2892186686082994
 31
0.0
  0
ARC
  5
73CD
  8
0
 10
2991.7152030113888941
 20
53.2075515351860702
 30
0.0
 40
0.0826358528148742
 50
98.7816787481583845
 51
176.0360300931669997
  0
LINE
  5
73CE
  8
0
 10
2991.6327648467599829
 20
53.2132640812911006
 30
0.0
 11
2991.6327553320379593
 21
50.8366987471161735
 31
0.0
  0
ARC
  5
73CF
  8
0
 10
2991.7152333120397998
 20
50.8424210235893099
 30
0.0
 40
0.0826762458821125
 50
183.9687895936694986
 51
261.201222840355797
  0
LINE
  5
73D0
  8
0
 10
2991.7025867611801004
 20
50.7607177410082784
 30
0.0
 11
2998.8503251171810007
 21
50.7609688532082615
 31
0.0
  0
ARC
  5
73D1
  8
0
 10
2998.8382549636630756
 20
50.8421520313854387
 30
0.0
 40
0.0820755568051146
 50
278.4566736798083753
 51
356.1706186007623955
  0
LINE
  5
73D2
  8
0
 10
2998.9201472746158288
 20
50.8366705688360128
 30
0.0
 11
2998.9201567985228394
 21
53.2132391177734974
 31
0.0
  0
ARC
  5
73D3
  8
0
 10
3002.4882466595331607
 20
50.659483239283162
 30
0.0
 40
0.0826573140842531
 50
3.9583061792597301
 51
81.2117058123737223
  0
LINE
  5
73D4
  8
0
 10
3002.5008753690799495
 20
50.741170124808292
 30
0.0
 11
2995.3531370100799904
 21
50.7411686686083101
 31
0.0
  0
ARC
  5
73D5
  8
0
 10
2995.365753011389188
 20
50.6595015351860809
 30
0.0
 40
0.0826358528148742
 50
98.7816787481583845
 51
176.0360300931669997
  0
LINE
  5
73D6
  8
0
 10
2995.2833148467598221
 20
50.6652140812911114
 30
0.0
 11
2995.2833053320377985
 21
48.2886487471161772
 31
0.0
  0
ARC
  5
73D7
  8
0
 10
2995.3657833120400937
 20
48.2943710235892709
 30
0.0
 40
0.0826762458821125
 50
183.9687895936694986
 51
261.201222840355797
  0
LINE
  5
73D8
  8
0
 10
2995.3531367611799396
 20
48.2126677410082891
 30
0.0
 11
3002.5008751171799304
 21
48.212918853208258
 31
0.0
  0
ARC
  5
73D9
  8
0
 10
3002.4888049636629148
 20
48.2941020313854494
 30
0.0
 40
0.0820755568051146
 50
278.4566736798083753
 51
356.1706186007623955
  0
LINE
  5
73DA
  8
0
 10
3002.5706972746161227
 20
48.2886205688359667
 30
0.0
 11
3002.5707067985231333
 21
50.665189117773501
 31
0.0
  0
ARC
  5
73DB
  8
0
 10
3009.7893466595328391
 20
50.659483239283162
 30
0.0
 40
0.0826573140842531
 50
3.9583061792597301
 51
81.2117058123737223
  0
LINE
  5
73DC
  8
0
 10
3009.8019753690809921
 20
50.741170124808292
 30
0.0
 11
3002.6542370100801236
 21
50.7411686686083101
 31
0.0
  0
ARC
  5
73DD
  8
0
 10
3002.6668530113888664
 20
50.6595015351860809
 30
0.0
 40
0.0826358528148742
 50
98.7816787481583845
 51
176.0360300931669997
  0
LINE
  5
73DE
  8
0
 10
3002.5844148467599553
 20
50.6652140812911114
 30
0.0
 11
3002.5844053320379317
 21
48.2886487471161772
 31
0.0
  0
ARC
  5
73DF
  8
0
 10
3002.6668833120411364
 20
48.2943710235892709
 30
0.0
 40
0.0826762458821125
 50
183.9687895936694986
 51
261.201222840355797
  0
LINE
  5
73E0
  8
0
 10
3002.6542367611800728
 20
48.2126677410082891
 30
0.0
 11
3009.801975117180973
 21
48.212918853208258
 31
0.0
  0
ARC
  5
73E1
  8
0
 10
3009.789904963663048
 20
48.2941020313854494
 30
0.0
 40
0.0820755568051146
 50
278.4566736798083753
 51
356.1706186007623955
  0
LINE
  5
73E2
  8
0
 10
3009.8717972746158011
 20
48.2886205688359667
 30
0.0
 11
3009.8718067985228117
 21
50.665189117773501
 31
0.0
  0
ARC
  5
73E3
  8
0
 10
3017.0904466595320628
 20
50.659483239283162
 30
0.0
 40
0.0826573140842531
 50
3.9583061792597301
 51
81.2117058123737223
  0
LINE
  5
73E4
  8
0
 10
3017.1030753690802158
 20
50.741170124808292
 30
0.0
 11
3009.955337010079802
 21
50.7411686686083101
 31
0.0
  0
ARC
  5
73E5
  8
0
 10
3009.9679530113889996
 20
50.6595015351860809
 30
0.0
 40
0.0826358528148742
 50
98.7816787481583845
 51
176.0360300931669997
  0
LINE
  5
73E6
  8
0
 10
3009.8855148467600884
 20
50.6652140812911114
 30
0.0
 11
3009.8855053320380648
 21
48.2886487471161772
 31
0.0
  0
ARC
  5
73E7
  8
0
 10
3009.9679833120408148
 20
48.2943710235892709
 30
0.0
 40
0.0826762458821125
 50
183.9687895936694986
 51
261.201222840355797
  0
LINE
  5
73E8
  8
0
 10
3009.9553367611802059
 20
48.2126677410082891
 30
0.0
 11
3017.1030751171811062
 21
48.212918853208258
 31
0.0
  0
ARC
  5
73E9
  8
0
 10
3017.0910049636631811
 20
48.2941020313854494
 30
0.0
 40
0.0820755568051146
 50
278.4566736798083753
 51
356.1706186007623955
  0
LINE
  5
73EA
  8
0
 10
3017.1728972746159343
 20
48.2886205688359667
 30
0.0
 11
3017.1729067985229449
 21
50.665189117773501
 31
0.0
  0
ARC
  5
73EB
  8
0
 10
3013.4398966595331331
 20
48.1114332392831727
 30
0.0
 40
0.0826573140842531
 50
3.9583061792597301
 51
81.2117058123737223
  0
LINE
  5
73EC
  8
0
 10
3013.4525253690799218
 20
48.1931201248083028
 30
0.0
 11
3006.3047870100799628
 21
48.1931186686082569
 31
0.0
  0
ARC
  5
73ED
  8
0
 10
3006.3174030113891604
 20
48.1114515351860916
 30
0.0
 40
0.0826358528148742
 50
98.7816787481583845
 51
176.0360300931669997
  0
LINE
  5
73EE
  8
0
 10
3006.2349648467597945
 20
48.1171640812911221
 30
0.0
 11
3006.2349553320382256
 21
45.7405987471161879
 31
0.0
  0
ARC
  5
73EF
  8
0
 10
3006.3174333120409756
 20
45.7463210235892674
 30
0.0
 40
0.0826762458821125
 50
183.9687895936694986
 51
261.201222840355797
  0
LINE
  5
73F0
  8
0
 10
3006.304786761179912
 20
45.6646177410082927
 30
0.0
 11
3013.4525251171808122
 21
45.6648688532082687
 31
0.0
  0
ARC
  5
73F1
  8
0
 10
3013.4404549636628872
 20
45.7460520313854033
 30
0.0
 40
0.0820755568051146
 50
278.4566736798083753
 51
356.1706186007623955
  0
LINE
  5
73F2
  8
0
 10
3013.5223472746160951
 20
45.7405705688359774
 30
0.0
 11
3013.5223567985231057
 21
48.1171391177735188
 31
0.0
  0
ARC
  5
73F3
  8
0
 10
3006.1387966595329999
 20
48.1114332392831727
 30
0.0
 40
0.0826573140842531
 50
3.9583061792597301
 51
81.2117058123737223
  0
LINE
  5
73F4
  8
0
 10
3006.1514253690797887
 20
48.1931201248083028
 30
0.0
 11
2999.0036870100798296
 21
48.1931186686082569
 31
0.0
  0
ARC
  5
73F5
  8
0
 10
2999.0163030113890272
 20
48.1114515351860916
 30
0.0
 40
0.0826358528148742
 50
98.7816787481583845
 51
176.0360300931669997
  0
LINE
  5
73F6
  8
0
 10
2998.9338648467601161
 20
48.1171640812911221
 30
0.0
 11
2998.9338553320380925
 21
45.7405987471161879
 31
0.0
  0
ARC
  5
73F7
  8
0
 10
2999.0163333120399329
 20
45.7463210235892674
 30
0.0
 40
0.0826762458821125
 50
183.9687895936694986
 51
261.201222840355797
  0
LINE
  5
73F8
  8
0
 10
2999.0036867611797788
 20
45.6646177410082927
 30
0.0
 11
3006.1514251171811338
 21
45.6648688532082687
 31
0.0
  0
ARC
  5
73F9
  8
0
 10
3006.1393549636632088
 20
45.7460520313854033
 30
0.0
 40
0.0820755568051146
 50
278.4566736798083753
 51
356.1706186007623955
  0
LINE
  5
73FA
  8
0
 10
3006.2212472746159619
 20
45.7405705688359774
 30
0.0
 11
3006.2212567985229725
 21
48.1171391177735188
 31
0.0
  0
ARC
  5
73FB
  8
0
 10
2998.8376966595328668
 20
48.1114332392831727
 30
0.0
 40
0.0826573140842531
 50
3.9583061792597301
 51
81.2117058123737223
  0
LINE
  5
73FC
  8
0
 10
2998.8503253690801102
 20
48.1931201248083028
 30
0.0
 11
2991.7025870100801512
 21
48.1931186686082569
 31
0.0
  0
ARC
  5
73FD
  8
0
 10
2991.7152030113888941
 20
48.1114515351860916
 30
0.0
 40
0.0826358528148742
 50
98.7816787481583845
 51
176.0360300931669997
  0
LINE
  5
73FE
  8
0
 10
2991.6327648467599829
 20
48.1171640812911221
 30
0.0
 11
2991.6327553320379593
 21
45.7405987471161879
 31
0.0
  0
ARC
  5
73FF
  8
0
 10
2991.7152333120397998
 20
45.7463210235892674
 30
0.0
 40
0.0826762458821125
 50
183.9687895936694986
 51
261.201222840355797
  0
LINE
  5
7400
  8
0
 10
2991.7025867611801004
 20
45.6646177410082927
 30
0.0
 11
2998.8503251171810007
 21
45.6648688532082687
 31
0.0
  0
ARC
  5
7401
  8
0
 10
2998.8382549636630756
 20
45.7460520313854033
 30
0.0
 40
0.0820755568051146
 50
278.4566736798083753
 51
356.1706186007623955
  0
LINE
  5
7402
  8
0
 10
2998.9201472746158288
 20
45.7405705688359774
 30
0.0
 11
2998.9201567985228394
 21
48.1171391177735188
 31
0.0
  0
ARC
  5
7403
  8
0
 10
3002.4882466595331607
 20
45.5633832392831835
 30
0.0
 40
0.0826573140842531
 50
3.9583061792597301
 51
81.2117058123737223
  0
LINE
  5
7404
  8
0
 10
3002.5008753690799495
 20
45.6450701248083135
 30
0.0
 11
2995.3531370100799904
 21
45.6450686686082676
 31
0.0
  0
ARC
  5
7405
  8
0
 10
2995.365753011389188
 20
45.5634015351861024
 30
0.0
 40
0.0826358528148742
 50
98.7816787481583845
 51
176.0360300931669997
  0
LINE
  5
7406
  8
0
 10
2995.2833148467598221
 20
45.5691140812911328
 30
0.0
 11
2995.2833053320377985
 21
43.1925487471161986
 31
0.0
  0
ARC
  5
7407
  8
0
 10
2995.3657833120400937
 20
43.1982710235892782
 30
0.0
 40
0.0826762458821125
 50
183.9687895936694986
 51
261.201222840355797
  0
LINE
  5
7408
  8
0
 10
2995.3531367611799396
 20
43.1165677410083106
 30
0.0
 11
3002.5008751171799304
 21
43.1168188532082226
 31
0.0
  0
ARC
  5
7409
  8
0
 10
3002.4888049636629148
 20
43.198002031385407
 30
0.0
 40
0.0820755568051146
 50
278.4566736798083753
 51
356.1706186007623955
  0
LINE
  5
740A
  8
0
 10
3002.5706972746161227
 20
43.192520568835981
 30
0.0
 11
3002.5707067985231333
 21
45.5690891177735296
 31
0.0
  0
ARC
  5
740B
  8
0
 10
3009.7893466595328391
 20
45.5633832392831835
 30
0.0
 40
0.0826573140842531
 50
3.9583061792597301
 51
81.2117058123737223
  0
LINE
  5
740C
  8
0
 10
3009.8019753690809921
 20
45.6450701248083135
 30
0.0
 11
3002.6542370100801236
 21
45.6450686686082676
 31
0.0
  0
ARC
  5
740D
  8
0
 10
3002.6668530113888664
 20
45.5634015351861024
 30
0.0
 40
0.0826358528148742
 50
98.7816787481583845
 51
176.0360300931669997
  0
LINE
  5
740E
  8
0
 10
3002.5844148467599553
 20
45.5691140812911328
 30
0.0
 11
3002.5844053320379317
 21
43.1925487471161986
 31
0.0
  0
ARC
  5
740F
  8
0
 10
3002.6668833120411364
 20
43.1982710235892782
 30
0.0
 40
0.0826762458821125
 50
183.9687895936694986
 51
261.201222840355797
  0
LINE
  5
7410
  8
0
 10
3002.6542367611800728
 20
43.1165677410083106
 30
0.0
 11
3009.801975117180973
 21
43.1168188532082226
 31
0.0
  0
ARC
  5
7411
  8
0
 10
3009.789904963663048
 20
43.198002031385407
 30
0.0
 40
0.0820755568051146
 50
278.4566736798083753
 51
356.1706186007623955
  0
LINE
  5
7412
  8
0
 10
3009.8717972746158011
 20
43.192520568835981
 30
0.0
 11
3009.8718067985228117
 21
45.5690891177735296
 31
0.0
  0
ARC
  5
7413
  8
0
 10
3017.0904466595320628
 20
45.5633832392831835
 30
0.0
 40
0.0826573140842531
 50
3.9583061792597301
 51
81.2117058123737223
  0
LINE
  5
7414
  8
0
 10
3017.1030753690802158
 20
45.6450701248083135
 30
0.0
 11
3009.955337010079802
 21
45.6450686686082676
 31
0.0
  0
ARC
  5
7415
  8
0
 10
3009.9679530113889996
 20
45.5634015351861024
 30
0.0
 40
0.0826358528148742
 50
98.7816787481583845
 51
176.0360300931669997
  0
LINE
  5
7416
  8
0
 10
3009.8855148467600884
 20
45.5691140812911328
 30
0.0
 11
3009.8855053320380648
 21
43.1925487471161986
 31
0.0
  0
ARC
  5
7417
  8
0
 10
3009.9679833120408148
 20
43.1982710235892782
 30
0.0
 40
0.0826762458821125
 50
183.9687895936694986
 51
261.201222840355797
  0
LINE
  5
7418
  8
0
 10
3009.9553367611802059
 20
43.1165677410083106
 30
0.0
 11
3017.1030751171811062
 21
43.1168188532082226
 31
0.0
  0
ARC
  5
7419
  8
0
 10
3017.0910049636631811
 20
43.198002031385407
 30
0.0
 40
0.0820755568051146
 50
278.4566736798083753
 51
356.1706186007623955
  0
LINE
  5
741A
  8
0
 10
3017.1728972746159343
 20
43.192520568835981
 30
0.0
 11
3017.1729067985229449
 21
45.5690891177735296
 31
0.0
  0
ARC
  5
741B
  8
0
 10
2995.1873385281951414
 20
65.9479595824977025
 30
0.0
 40
0.0824538872278029
 50
3.845279495474609
 51
81.3247449837254237
  0
LINE
  5
741C
  8
0
 10
2995.1997753690798163
 20
66.0294701248082845
 30
0.0
 11
2988.5017210970590895
 21
66.0292184480625934
 31
0.0
  0
LINE
  5
741D
  8
0
 10
2988.5017210767950928
 20
63.501218862030413
 30
0.0
 11
2995.1997751171797972
 21
63.5012188532083073
 31
0.0
  0
ARC
  5
741E
  8
0
 10
2995.1881310267908702
 20
63.5820090592160625
 30
0.0
 40
0.0816250098177938
 50
278.2014199949452973
 51
356.4258718554834218
  0
LINE
  5
741F
  8
0
 10
2995.2695972743072161
 20
63.5769205679306069
 30
0.0
 11
2995.2696067937490625
 21
65.953489139586253
 31
0.0
  0
ARC
  5
7420
  8
0
 10
2987.0518051195140288
 20
63.8689032301623669
 30
0.0
 40
1.48214524480013
 50
348.9203875079991235
 51
359.3163938465949059
  0
LINE
  5
7421
  8
0
 10
2988.5338448716452149
 20
63.8512199107346134
 30
0.0
 11
2988.5338343543471638
 21
65.6792106027083094
 31
0.0
  0
ARC
  5
7422
  8
0
 10
2987.023487988953093
 20
65.6586751861597406
 30
0.0
 40
1.5104859637853101
 50
0.7789737707173456
 51
10.9736382729822193
  0
LINE
  5
7423
  8
0
 10
2988.5016904437798075
 20
65.9710122567082919
 30
0.0
 11
2988.5063545213711222
 21
65.9462072605887499
 31
0.0
  0
LINE
  5
7424
  8
0
 10
2988.5016904437798075
 20
63.5595449130082883
 30
0.0
 11
2988.5063248173801185
 21
63.5840752554081234
 31
0.0
  0
ARC
  5
7425
  8
0
 10
2995.1873385281951414
 20
71.044059582497681
 30
0.0
 40
0.0824538872278029
 50
3.845279495474609
 51
81.3247449837254237
  0
LINE
  5
7426
  8
0
 10
2995.1997753690798163
 20
71.1255701248083199
 30
0.0
 11
2989.2226822321690634
 21
71.114150795456311
 31
0.0
  0
LINE
  5
7427
  8
0
 10
2988.5017210767978213
 20
68.5973188620304484
 30
0.0
 11
2995.1997751171797972
 21
68.5973188532082929
 31
0.0
  0
ARC
  5
7428
  8
0
 10
2995.1881310267908702
 20
68.678109059216041
 30
0.0
 40
0.0816250098177938
 50
278.2014199949452973
 51
356.4258718554834218
  0
LINE
  5
7429
  8
0
 10
2995.2695972743072161
 20
68.6730205679305925
 30
0.0
 11
2995.2696067937490625
 21
71.0495891395862316
 31
0.0
  0
ARC
  5
742A
  8
0
 10
2987.0518051195140288
 20
68.9650032301623526
 30
0.0
 40
1.48214524480013
 50
348.9203875079991235
 51
359.3163938465949059
  0
LINE
  5
742B
  8
0
 10
2988.5338448716452149
 20
68.9473199107346488
 30
0.0
 11
2988.5338343543471638
 21
70.7753106027082737
 31
0.0
  0
ARC
  5
742C
  8
0
 10
2987.0234879889508193
 20
70.7547751861596623
 30
0.0
 40
1.510485963787308
 50
0.7789737707206023
 51
10.90673736992089
  0
LINE
  5
742D
  8
0
 10
2988.5016904437798075
 20
71.0671122567082705
 30
0.0
 11
2988.5066892446830025
 21
71.0405756091672345
 31
0.0
  0
LINE
  5
742E
  8
0
 10
2988.5016904437798075
 20
68.655644913008274
 30
0.0
 11
2988.5063248173801185
 21
68.680175255408102
 31
0.0
  0
ARC
  5
742F
  8
0
 10
2995.1873385281951414
 20
60.85185958249766
 30
0.0
 40
0.0824538872278029
 50
3.845279495474609
 51
81.3247449837254237
  0
LINE
  5
7430
  8
0
 10
2995.1997753690798163
 20
60.9333701248082988
 30
0.0
 11
2988.5017210970559063
 21
60.9331184480626291
 31
0.0
  0
LINE
  5
7431
  8
0
 10
2988.5017210768010045
 20
58.4051188620304274
 30
0.0
 11
2995.1997751171797972
 21
58.405118853208279
 31
0.0
  0
ARC
  5
7432
  8
0
 10
2995.1881310267908702
 20
58.4859090592160271
 30
0.0
 40
0.0816250098177938
 50
278.2014199949452973
 51
356.4258718554834218
  0
LINE
  5
7433
  8
0
 10
2995.2695972743072161
 20
58.4808205679306425
 30
0.0
 11
2995.2696067937490625
 21
60.8573891395862674
 31
0.0
  0
ARC
  5
7434
  8
0
 10
2987.0518051195140288
 20
58.7728032301623387
 30
0.0
 40
1.48214524480013
 50
348.9203875079991235
 51
359.3163938465949059
  0
LINE
  5
7435
  8
0
 10
2988.5338448716452149
 20
58.7551199107346278
 30
0.0
 11
2988.5338343543471638
 21
60.5831106027082811
 31
0.0
  0
ARC
  5
7436
  8
0
 10
2987.023487988953093
 20
60.5625751861597621
 30
0.0
 40
1.5104859637853101
 50
0.7789737707173456
 51
10.9736382729822193
  0
LINE
  5
7437
  8
0
 10
2988.5016904437798075
 20
60.8749122567083134
 30
0.0
 11
2988.5063545213711222
 21
60.8501072605887714
 31
0.0
  0
LINE
  5
7438
  8
0
 10
2988.5016904437798075
 20
58.4634449130083169
 30
0.0
 11
2988.5063248173801185
 21
58.4879752554080881
 31
0.0
  0
ARC
  5
7439
  8
0
 10
2995.1873385281951414
 20
55.7557595824976886
 30
0.0
 40
0.0824538872278029
 50
3.845279495474609
 51
81.3247449837254237
  0
LINE
  5
743A
  8
0
 10
2995.1997753690798163
 20
55.8372701248082706
 30
0.0
 11
2988.5017210970559063
 21
55.8370184480626008
 31
0.0
  0
LINE
  5
743B
  8
0
 10
2988.5017210767919096
 20
53.3090188620304488
 30
0.0
 11
2995.1997751171797972
 21
53.3090188532083005
 31
0.0
  0
ARC
  5
743C
  8
0
 10
2995.1881310267908702
 20
53.3898090592160486
 30
0.0
 40
0.0816250098177938
 50
278.2014199949452973
 51
356.4258718554834218
  0
LINE
  5
743D
  8
0
 10
2995.2695972743072161
 20
53.3847205679306001
 30
0.0
 11
2995.2696067937490625
 21
55.7612891395862391
 31
0.0
  0
ARC
  5
743E
  8
0
 10
2987.0518051195140288
 20
53.6767032301623601
 30
0.0
 40
1.48214524480013
 50
348.9203875079991235
 51
359.3163938465949059
  0
LINE
  5
743F
  8
0
 10
2988.5338448716452149
 20
53.6590199107345995
 30
0.0
 11
2988.5338343543471638
 21
55.4870106027082883
 31
0.0
  0
ARC
  5
7440
  8
0
 10
2987.023487988953093
 20
55.4664751861597765
 30
0.0
 40
1.5104859637853101
 50
0.7789737707173456
 51
10.9736382729822193
  0
LINE
  5
7441
  8
0
 10
2988.5016904437798075
 20
55.778812256708278
 30
0.0
 11
2988.5063545213711222
 21
55.7540072605887929
 31
0.0
  0
LINE
  5
7442
  8
0
 10
2988.5016904437798075
 20
53.3673449130082815
 30
0.0
 11
2988.5063248173801185
 21
53.3918752554081095
 31
0.0
  0
ARC
  5
7443
  8
0
 10
2995.1873385281951414
 20
50.6596595824977101
 30
0.0
 40
0.0824538872278029
 50
3.845279495474609
 51
81.3247449837254237
  0
LINE
  5
7444
  8
0
 10
2995.1997753690798163
 20
50.741170124808292
 30
0.0
 11
2988.5017210970390806
 21
50.7409184480626081
 31
0.0
  0
LINE
  5
7445
  8
0
 10
2988.5017210768669429
 20
48.2129188620304205
 30
0.0
 11
2995.1997751171797972
 21
48.2129188532083219
 31
0.0
  0
ARC
  5
7446
  8
0
 10
2995.1881310267908702
 20
48.29370905921607
 30
0.0
 40
0.0816250098177938
 50
278.2014199949452973
 51
356.4258718554834218
  0
LINE
  5
7447
  8
0
 10
2995.2695972743072161
 20
48.2886205679306215
 30
0.0
 11
2995.2696067937490625
 21
50.6651891395862606
 31
0.0
  0
ARC
  5
7448
  8
0
 10
2987.0518051195140288
 20
48.5806032301623816
 30
0.0
 40
1.48214524480013
 50
348.9203875079991235
 51
359.3163938465949059
  0
LINE
  5
7449
  8
0
 10
2988.5338448716452149
 20
48.562919910734621
 30
0.0
 11
2988.5338343543471638
 21
50.3909106027083098
 31
0.0
  0
ARC
  5
744A
  8
0
 10
2987.023487988953093
 20
50.3703751861597411
 30
0.0
 40
1.5104859637853101
 50
0.7789737707173456
 51
10.9736382729822193
  0
LINE
  5
744B
  8
0
 10
2988.5016904437798075
 20
50.6827122567082995
 30
0.0
 11
2988.5063545213711222
 21
50.6579072605887504
 31
0.0
  0
LINE
  5
744C
  8
0
 10
2988.5016904437798075
 20
48.271244913008303
 30
0.0
 11
2988.5063248173801185
 21
48.295775255408131
 31
0.0
  0
ARC
  5
744D
  8
0
 10
2995.1873385281951414
 20
45.5635595824976676
 30
0.0
 40
0.0824538872278029
 50
3.845279495474609
 51
81.3247449837254237
  0
LINE
  5
744E
  8
0
 10
2995.1997753690798163
 20
45.6450701248083135
 30
0.0
 11
2988.5017210971300301
 21
45.6448184480626296
 31
0.0
  0
LINE
  5
744F
  8
0
 10
2988.4916794591799771
 20
43.1168188620436794
 30
0.0
 11
2995.1997751171797972
 21
43.1168188532082866
 31
0.0
  0
ARC
  5
7450
  8
0
 10
2995.1881310267908702
 20
43.1976090592160276
 30
0.0
 40
0.0816250098177938
 50
278.2014199949452973
 51
356.4258718554834218
  0
LINE
  5
7451
  8
0
 10
2995.2695972743072161
 20
43.192520567930643
 30
0.0
 11
2995.2696067937490625
 21
45.569089139586282
 31
0.0
  0
ARC
  5
7452
  8
0
 10
2987.0518051195140288
 20
43.4845032301623391
 30
0.0
 40
1.48214524480013
 50
348.9203875079991235
 51
359.3163938465949059
  0
LINE
  5
7453
  8
0
 10
2988.5338448716452149
 20
43.4668199107346425
 30
0.0
 11
2988.5338343543471638
 21
45.2948106027082673
 31
0.0
  0
ARC
  5
7454
  8
0
 10
2987.023487988953093
 20
45.2742751861597696
 30
0.0
 40
1.5104859637853101
 50
0.7789737707173456
 51
10.9736382729822193
  0
LINE
  5
7455
  8
0
 10
2988.5016904437798075
 20
45.586612256708321
 30
0.0
 11
2988.5063545213711222
 21
45.5618072605887789
 31
0.0
  0
LINE
  5
7456
  8
0
 10
2988.4916794591799771
 20
43.1195077315083211
 30
0.0
 11
2988.5063248173801185
 21
43.1996752554081027
 31
0.0
  0
ARC
  5
7457
  8
0
 10
2986.9970986712551166
 20
68.1956850678202784
 30
0.0
 40
1.552264963746703
 50
1.1658750917405081
 51
14.2305303175386992
  0
LINE
  5
7458
  8
0
 10
2988.5490422840011888
 20
68.227268932908288
 30
0.0
 11
2988.5490422840762221
 21
66.3992689329228654
 31
0.0
  0
ARC
  5
7459
  8
0
 10
2986.9970958041931226
 20
66.430852974380656
 30
0.0
 40
1.5522678338785421
 50
345.7694898359933973
 51
358.8341205529117133
  0
ARC
  5
745A
  8
0
 10
2991.5430409995060472
 20
68.5025249852502895
 30
0.0
 40
0.0755817696212508
 50
355.7014757931306121
 51
89.1652228172416841
  0
LINE
  5
745B
  8
0
 10
2991.5441421574801097
 20
68.5780987330083178
 30
0.0
 11
2988.5017316070779998
 21
68.577268932927808
 31
0.0
  0
LINE
  5
745C
  8
0
 10
2988.5017316562980341
 20
66.0492689329752523
 30
0.0
 11
2991.5374665918338906
 21
66.0457732827574944
 31
0.0
  0
ARC
  5
745D
  8
0
 10
2991.5388595219042145
 20
66.1254936550809731
 30
0.0
 40
0.0797325405187388
 50
268.99898994976121
 51
3.0706347438357979
  0
LINE
  5
745E
  8
0
 10
2991.6184775868800898
 20
66.1297646909082744
 30
0.0
 11
2991.6184101624799041
 21
68.4968599017083477
 31
0.0
  0
ARC
  5
745F
  8
0
 10
2986.9970986712501144
 20
63.0995850678202999
 30
0.0
 40
1.552264963746703
 50
1.1658750917405081
 51
14.2305303175386992
  0
LINE
  5
7460
  8
0
 10
2988.5490422839961866
 20
63.1311689329083094
 30
0.0
 11
2988.5490422840721294
 21
61.30316893292283
 31
0.0
  0
ARC
  5
7461
  8
0
 10
2986.9970958041899394
 20
61.3347529743806206
 30
0.0
 40
1.5522678338785421
 50
345.7694898359933973
 51
358.8341205529117133
  0
ARC
  5
7462
  8
0
 10
2991.543040999501045
 20
63.4064249852502471
 30
0.0
 40
0.0755817696212508
 50
355.7014757931306121
 51
89.1652228172416841
  0
LINE
  5
7463
  8
0
 10
2991.544142157476017
 20
63.4819987330082824
 30
0.0
 11
2988.5017316070739071
 21
63.4811689329277726
 31
0.0
  0
LINE
  5
7464
  8
0
 10
2988.5017316562939413
 20
60.9531689329752666
 30
0.0
 11
2991.5374665918288883
 21
60.9496732827575087
 31
0.0
  0
ARC
  5
7465
  8
0
 10
2991.5388595218992123
 20
61.0293936550810088
 30
0.0
 40
0.0797325405187388
 50
268.99898994976121
 51
3.0706347438357979
  0
LINE
  5
7466
  8
0
 10
2991.6184775868759971
 20
61.0336646909082887
 30
0.0
 11
2991.6184101624749019
 21
63.4007599017083692
 31
0.0
  0
ARC
  5
7467
  8
0
 10
2986.9970986712501144
 20
58.0034850678202574
 30
0.0
 40
1.552264963746703
 50
1.1658750917405081
 51
14.2305303175386992
  0
LINE
  5
7468
  8
0
 10
2988.5490422839961866
 20
58.035068932908267
 30
0.0
 11
2988.5490422840721294
 21
56.2070689329228514
 31
0.0
  0
ARC
  5
7469
  8
0
 10
2986.9970958041899394
 20
56.238652974380642
 30
0.0
 40
1.5522678338785421
 50
345.7694898359933973
 51
358.8341205529117133
  0
ARC
  5
746A
  8
0
 10
2991.543040999501045
 20
58.3103249852502685
 30
0.0
 40
0.0755817696212508
 50
355.7014757931306121
 51
89.1652228172416841
  0
LINE
  5
746B
  8
0
 10
2991.544142157476017
 20
58.3858987330082968
 30
0.0
 11
2988.5017316070739071
 21
58.385068932927787
 31
0.0
  0
LINE
  5
746C
  8
0
 10
2988.5017316562939413
 20
55.8570689329752383
 30
0.0
 11
2991.5374665918288883
 21
55.8535732827574805
 31
0.0
  0
ARC
  5
746D
  8
0
 10
2991.5388595218992123
 20
55.9332936550810302
 30
0.0
 40
0.0797325405187388
 50
268.99898994976121
 51
3.0706347438357979
  0
LINE
  5
746E
  8
0
 10
2991.6184775868759971
 20
55.9375646909082604
 30
0.0
 11
2991.6184101624749019
 21
58.3046599017083267
 31
0.0
  0
ARC
  5
746F
  8
0
 10
2986.9970986712501144
 20
52.9073850678202788
 30
0.0
 40
1.552264963746703
 50
1.1658750917405081
 51
14.2305303175386992
  0
LINE
  5
7470
  8
0
 10
2988.5490422839961866
 20
52.9389689329082884
 30
0.0
 11
2988.5490422840721294
 21
51.11096893292288
 31
0.0
  0
ARC
  5
7471
  8
0
 10
2986.9970958041899394
 20
51.1425529743805996
 30
0.0
 40
1.5522678338785421
 50
345.7694898359933973
 51
358.8341205529117133
  0
ARC
  5
7472
  8
0
 10
2991.543040999501045
 20
53.2142249852502403
 30
0.0
 40
0.0755817696212508
 50
355.7014757931306121
 51
89.1652228172416841
  0
LINE
  5
7473
  8
0
 10
2991.544142157476017
 20
53.2897987330082685
 30
0.0
 11
2988.5017316070739071
 21
53.2889689329277587
 31
0.0
  0
LINE
  5
7474
  8
0
 10
2988.5017316562939413
 20
50.7609689329752598
 30
0.0
 11
2991.5374665918288883
 21
50.7574732827575019
 31
0.0
  0
ARC
  5
7475
  8
0
 10
2991.5388595218992123
 20
50.8371936550809878
 30
0.0
 40
0.0797325405187388
 50
268.99898994976121
 51
3.0706347438357979
  0
LINE
  5
7476
  8
0
 10
2991.6184775868759971
 20
50.8414646909082819
 30
0.0
 11
2991.6184101624749019
 21
53.2085599017083481
 31
0.0
  0
ARC
  5
7477
  8
0
 10
2986.9970986713501588
 20
47.8112850678202506
 30
0.0
 40
1.552264963746703
 50
1.1658750917405081
 51
14.2305303175386992
  0
LINE
  5
7478
  8
0
 10
2988.5490422840957763
 20
47.842868932908317
 30
0.0
 11
2988.5490422841708096
 21
46.0148689329228375
 31
0.0
  0
ARC
  5
7479
  8
0
 10
2986.9970958042890743
 20
46.0464529743806281
 30
0.0
 40
1.5522678338785421
 50
345.7694898359933973
 51
358.8341205529117133
  0
ARC
  5
747A
  8
0
 10
2991.5430409996010894
 20
48.1181249852502617
 30
0.0
 40
0.0755817696212508
 50
355.7014757931306121
 51
89.1652228172416841
  0
LINE
  5
747B
  8
0
 10
2991.5441421575760614
 20
48.1936987330082829
 30
0.0
 11
2988.5017316071739515
 21
48.1928689329277802
 31
0.0
  0
LINE
  5
747C
  8
0
 10
2988.5017316563930763
 20
45.6648689329752173
 30
0.0
 11
2991.5374665919298423
 21
45.6613732827575234
 31
0.0
  0
ARC
  5
747D
  8
0
 10
2991.5388595220001662
 20
45.7410936550810092
 30
0.0
 40
0.0797325405187388
 50
268.99898994976121
 51
3.0706347438357979
  0
LINE
  5
747E
  8
0
 10
2991.6184775869760415
 20
45.7453646909083034
 30
0.0
 11
2991.6184101625758558
 21
48.1124599017083767
 31
0.0
  0
LINE
  5
747F
  8
0
 10
2988.5016904437798075
 20
45.586612256708321
 30
0.0
 11
2988.5017316563930763
 21
45.6648689329752173
 31
0.0
  0
LINE
  5
7480
  8
0
 10
2988.5016904437798075
 20
48.271244913008303
 30
0.0
 11
2988.5017316071739515
 21
48.1928689329277802
 31
0.0
  0
LINE
  5
7481
  8
0
 10
2988.5017316562721135
 20
50.7609689329752598
 30
0.0
 11
2988.5016904437798075
 21
50.6827122567082995
 31
0.0
  0
LINE
  5
7482
  8
0
 10
2988.5016904437798075
 20
53.3673449130082815
 30
0.0
 11
2988.5017316070739071
 21
53.2889689329277587
 31
0.0
  0
LINE
  5
7483
  8
0
 10
2988.5017316562939413
 20
55.8570689329752383
 30
0.0
 11
2988.5016904437798075
 21
55.778812256708278
 31
0.0
  0
LINE
  5
7484
  8
0
 10
2988.5016904437798075
 20
58.4634449130083169
 30
0.0
 11
2988.501731607084821
 21
58.385068932927787
 31
0.0
  0
LINE
  5
7485
  8
0
 10
2988.5017316562939413
 20
60.9531689329751103
 30
0.0
 11
2988.5016904437798075
 21
60.8749122567083134
 31
0.0
  0
LINE
  5
7486
  8
0
 10
2988.5017316070770903
 20
63.4811689329325475
 30
0.0
 11
2988.5016904437798075
 21
63.5595449130082883
 31
0.0
  0
LINE
  5
7487
  8
0
 10
2988.5017316562980341
 20
66.0492689329750817
 30
0.0
 11
2988.5016904437798075
 21
65.9710122567082919
 31
0.0
  0
LINE
  5
7488
  8
0
 10
2988.5016904437798075
 20
68.655644913008274
 30
0.0
 11
2988.501731607081183
 21
68.5772689329157004
 31
0.0
  0
ARC
  5
7489
  8
0
 10
2988.7972569743451459
 20
71.1419445588291239
 30
0.0
 40
0.3048925178335519
 50
178.7362503745123945
 51
194.2077375342655898
  0
ARC
  5
748A
  8
0
 10
2986.93116202216288
 20
88.5747835445011731
 30
0.0
 40
1.618225219196606
 50
1.306097632395111
 51
13.9566228784775799
  0
LINE
  5
748B
  8
0
 10
2988.5489668089539919
 20
88.6116689329249567
 30
0.0
 11
2988.5489668367208651
 21
86.7836689329082844
 31
0.0
  0
ARC
  5
748C
  8
0
 10
2986.9311708293321317
 20
86.8205532703496772
 30
0.0
 40
1.6182164181199781
 50
346.0433379949030268
 51
358.693932484368986
  0
ARC
  5
748D
  8
0
 10
2988.7554813965698486
 20
42.4810763799499327
 30
0.0
 40
0.0622799297156135
 50
272.8118206547010232
 51
6.8022238238282027
  0
ARC
  5
748E
  8
0
 10
2988.6705677635000029
 20
42.5438750758639515
 30
0.0
 40
0.1250036442470351
 50
270.0082357213328805
 51
9.2064206335293228
  0
ARC
  5
748F
  8
0
 10
2987.2323275985918372
 20
42.3065067988057066
 30
0.0
 40
1.595404217641563
 50
6.5484836707074932
 51
20.1033847732421691
  0
ARC
  5
7490
  8
0
 10
2987.2080763687531544
 20
42.3068318512326016
 30
0.0
 40
1.6065806992969269
 50
9.2065302959301398
 51
19.9452304359184112
  0
ARC
  5
7491
  8
0
 10
2988.5044080039829169
 20
42.7724072509238624
 30
0.0
 40
0.2406897594336453
 50
20.0363402094482588
 51
65.7954441448579672
  0
ARC
  5
7492
  8
0
 10
2988.4927271490469138
 20
42.77303348361513
 30
0.0
 40
0.2399528833841081
 50
19.9413713469135487
 51
65.822168242274472
  0
ARC
  5
7493
  8
0
 10
2988.6847468763980942
 20
43.1777456934208033
 30
0.0
 40
0.2029596491775437
 50
207.7914695539396917
 51
246.2759624702383121
  0
ARC
  5
7494
  8
0
 10
2988.67136451810984
 20
43.1727145734802988
 30
0.0
 40
0.197833514560077
 50
206.9302288959237899
 51
246.0336940051741124
  0
LINE
  5
7495
  8
0
 10
2988.4916794591799771
 20
43.1195077315083211
 30
0.0
 11
2988.4916794591799771
 21
43.0968068049082973
 31
0.0
  0
ARC
  5
7496
  8
0
 10
2988.5218020918809998
 20
43.0968326674636373
 30
0.0
 40
0.030122643800803
 50
180.0491928132078101
 51
207.090801162176291
  0
ARC
  5
7497
  8
0
 10
2989.2781332458280303
 20
56.6524192272426887
 30
0.0
 40
14.4618378764934992
 50
90.2196897008881962
 51
93.0990204830598458
  0
ARC
  5
7498
  8
0
 10
3013.6184605387597912
 20
99.0724892997910445
 30
0.0
 40
0.082590736034968
 50
98.7086293287311918
 51
176.0578882937620051
  0
LINE
  5
7499
  8
0
 10
3013.6059555005408583
 20
99.1541278550082836
 30
0.0
 11
3020.7470654324420138
 21
99.1566104066082232
 31
0.0
  0
ARC
  5
749A
  8
0
 10
3020.7377974813921355
 20
99.071164037826037
 30
0.0
 40
0.0859475238429649
 50
4.6549835224725138
 51
83.8096064397835363
  0
LINE
  5
749B
  8
0
 10
3020.8234615036421928
 20
99.0781391469082848
 30
0.0
 11
3020.8234523585419993
 21
96.7015705516973583
 31
0.0
  0
ARC
  5
749C
  8
0
 10
3020.7412180474198067
 20
96.7071004171516222
 30
0.0
 40
0.0824200299533133
 50
278.6135839955026086
 51
356.1529236846291724
  0
LINE
  5
749D
  8
0
 10
3020.7535620754420052
 20
96.6256100109082041
 30
0.0
 11
3013.6124521506421843
 21
96.6231274592082912
 31
0.0
  0
ARC
  5
749E
  8
0
 10
3013.6217142241680449
 20
96.7085681129149464
 30
0.0
 40
0.0859412084614658
 50
184.6514972331663103
 51
263.813091192919785
  0
LINE
  5
749F
  8
0
 10
3013.5360560722419905
 20
96.7015987284082996
 30
0.0
 11
3013.5360652108420254
 21
99.0781672938082636
 31
0.0
  0
ARC
  5
74A0
  8
0
 10
3013.6184605387597912
 20
93.9763892997910659
 30
0.0
 40
0.082590736034968
 50
98.7086293287311918
 51
176.0578882937620051
  0
LINE
  5
74A1
  8
0
 10
3013.6059555005408583
 20
94.0580278550083051
 30
0.0
 11
3020.7470654324420138
 21
94.0605104066082447
 31
0.0
  0
ARC
  5
74A2
  8
0
 10
3020.7377974813921355
 20
93.9750640378260016
 30
0.0
 40
0.0859475238429649
 50
4.6549835224725138
 51
83.8096064397835363
  0
LINE
  5
74A3
  8
0
 10
3020.8234615036421928
 20
93.9820391469083063
 30
0.0
 11
3020.8234523585419993
 21
91.6054705516973797
 31
0.0
  0
ARC
  5
74A4
  8
0
 10
3020.7412180474198067
 20
91.6110004171515868
 30
0.0
 40
0.0824200299533133
 50
278.6135839955026086
 51
356.1529236846291724
  0
LINE
  5
74A5
  8
0
 10
3020.7535620754420052
 20
91.5295100109081687
 30
0.0
 11
3013.6124521506421843
 21
91.5270274592083268
 31
0.0
  0
ARC
  5
74A6
  8
0
 10
3013.6217142241680449
 20
91.612468112914911
 30
0.0
 40
0.0859412084614658
 50
184.6514972331663103
 51
263.813091192919785
  0
LINE
  5
74A7
  8
0
 10
3013.5360560722419905
 20
91.6054987284082642
 30
0.0
 11
3013.5360652108420254
 21
93.9820672938082851
 31
0.0
  0
ARC
  5
74A8
  8
0
 10
3013.6184605387597912
 20
88.8802892997910305
 30
0.0
 40
0.082590736034968
 50
98.7086293287311918
 51
176.0578882937620051
  0
LINE
  5
74A9
  8
0
 10
3013.6059555005408583
 20
88.9619278550082839
 30
0.0
 11
3020.7470654324420138
 21
88.9644104066082093
 31
0.0
  0
ARC
  5
74AA
  8
0
 10
3020.7377974813921355
 20
88.8789640378260231
 30
0.0
 40
0.0859475238429649
 50
4.6549835224725138
 51
83.8096064397835363
  0
LINE
  5
74AB
  8
0
 10
3020.8234615036421928
 20
88.8859391469082851
 30
0.0
 11
3020.8234523585419993
 21
86.5093705516973444
 31
0.0
  0
ARC
  5
74AC
  8
0
 10
3020.7412180474198067
 20
86.5149004171516083
 30
0.0
 40
0.0824200299533133
 50
278.6135839955026086
 51
356.1529236846291724
  0
LINE
  5
74AD
  8
0
 10
3020.7535620754420052
 20
86.4334100109082044
 30
0.0
 11
3013.6124521506421843
 21
86.4309274592082772
 31
0.0
  0
ARC
  5
74AE
  8
0
 10
3013.6217142241680449
 20
86.5163681129149467
 30
0.0
 40
0.0859412084614658
 50
184.6514972331663103
 51
263.813091192919785
  0
LINE
  5
74AF
  8
0
 10
3013.5360560722419905
 20
86.5093987284082857
 30
0.0
 11
3013.5360652108420254
 21
88.8859672938083065
 31
0.0
  0
ARC
  5
74B0
  8
0
 10
3013.6184605387597912
 20
83.784189299791052
 30
0.0
 40
0.082590736034968
 50
98.7086293287311918
 51
176.0578882937620051
  0
LINE
  5
74B1
  8
0
 10
3013.6059555005408583
 20
83.8658278550082912
 30
0.0
 11
3020.7470654324420138
 21
83.8683104066082308
 31
0.0
  0
ARC
  5
74B2
  8
0
 10
3020.7377974813921355
 20
83.7828640378259877
 30
0.0
 40
0.0859475238429649
 50
4.6549835224725138
 51
83.8096064397835363
  0
LINE
  5
74B3
  8
0
 10
3020.8234615036421928
 20
83.7898391469082924
 30
0.0
 11
3020.8234523585419993
 21
81.4132705516973658
 31
0.0
  0
ARC
  5
74B4
  8
0
 10
3020.7412180474198067
 20
81.4188004171516297
 30
0.0
 40
0.0824200299533133
 50
278.6135839955026086
 51
356.1529236846291724
  0
LINE
  5
74B5
  8
0
 10
3020.7535620754420052
 20
81.3373100109082259
 30
0.0
 11
3013.6124521506421843
 21
81.3348274592082845
 31
0.0
  0
ARC
  5
74B6
  8
0
 10
3013.6217142241680449
 20
81.4202681129149539
 30
0.0
 40
0.0859412084614658
 50
184.6514972331663103
 51
263.813091192919785
  0
LINE
  5
74B7
  8
0
 10
3013.5360560722419905
 20
81.4132987284083072
 30
0.0
 11
3013.5360652108420254
 21
83.7898672938082711
 31
0.0
  0
ARC
  5
74B8
  8
0
 10
3013.6184605387597912
 20
78.6880892997910735
 30
0.0
 40
0.082590736034968
 50
98.7086293287311918
 51
176.0578882937620051
  0
LINE
  5
74B9
  8
0
 10
3013.6059555005408583
 20
78.7697278550083126
 30
0.0
 11
3020.7470654324420138
 21
78.7722104066082522
 31
0.0
  0
ARC
  5
74BA
  8
0
 10
3020.7377974813921355
 20
78.6867640378259949
 30
0.0
 40
0.0859475238429649
 50
4.6549835224725138
 51
83.8096064397835363
  0
LINE
  5
74BB
  8
0
 10
3020.8234615036421928
 20
78.6937391469083138
 30
0.0
 11
3020.8234523585419993
 21
76.3171705516973873
 31
0.0
  0
ARC
  5
74BC
  8
0
 10
3020.7412180474198067
 20
76.3227004171515944
 30
0.0
 40
0.0824200299533133
 50
278.6135839955026086
 51
356.1529236846291724
  0
LINE
  5
74BD
  8
0
 10
3020.7535620754420052
 20
76.2412100109081905
 30
0.0
 11
3013.6124521506421843
 21
76.2387274592083202
 31
0.0
  0
ARC
  5
74BE
  8
0
 10
3013.6217142241680449
 20
76.3241681129149043
 30
0.0
 40
0.0859412084614658
 50
184.6514972331663103
 51
263.813091192919785
  0
LINE
  5
74BF
  8
0
 10
3013.5360560722419905
 20
76.3171987284082718
 30
0.0
 11
3013.5360652108420254
 21
78.6937672938082926
 31
0.0
  0
ARC
  5
74C0
  8
0
 10
3013.6185273495889305
 20
68.4958614402831643
 30
0.0
 40
0.0826573140842531
 50
98.7882941876262635
 51
176.0416938207403064
  0
LINE
  5
74C1
  8
0
 10
3013.6058986400421418
 20
68.5775483258082943
 30
0.0
 11
3020.7536369990411913
 21
68.5775468696083124
 31
0.0
  0
ARC
  5
74C2
  8
0
 10
3020.7410209977329032
 20
68.4958797361860832
 30
0.0
 40
0.0826358528148742
 50
3.9639699068329799
 51
81.2183212518416155
  0
LINE
  5
74C3
  8
0
 10
3020.8234591623609049
 20
68.5015922822911136
 30
0.0
 11
3020.8234686770829285
 21
66.1250269481161865
 31
0.0
  0
ARC
  5
74C4
  8
0
 10
3020.740990697081088
 20
66.1307492245893229
 30
0.0
 40
0.0826762458821125
 50
278.798777159644203
 51
356.0312104063303877
  0
LINE
  5
74C5
  8
0
 10
3020.7536372479421516
 20
66.0490459420082914
 30
0.0
 11
3013.6058988919407966
 21
66.0492970542082531
 31
0.0
  0
ARC
  5
74C6
  8
0
 10
3013.6179690454591764
 20
66.1304802323854517
 30
0.0
 40
0.0820755568051146
 50
183.8293813992376045
 51
261.5433263201916247
  0
LINE
  5
74C7
  8
0
 10
3013.5360767345059685
 20
66.1249987698359689
 30
0.0
 11
3013.5360672105989579
 21
68.5015673187735104
 31
0.0
  0
ARC
  5
74C8
  8
0
 10
3013.6185273427890934
 20
63.3997614192831804
 30
0.0
 40
0.0826573140842531
 50
98.7882941876262635
 51
176.0416938207403064
  0
LINE
  5
74C9
  8
0
 10
3013.6058986332418499
 20
63.4814483048083105
 30
0.0
 11
3020.7536369922418089
 21
63.4814468486082717
 31
0.0
  0
ARC
  5
74CA
  8
0
 10
3020.7410209909330661
 20
63.3997797151860993
 30
0.0
 40
0.0826358528148742
 50
3.9639699068329799
 51
81.2183212518416155
  0
LINE
  5
74CB
  8
0
 10
3020.8234591555619772
 20
63.4054922612911227
 30
0.0
 11
3020.8234686702840008
 21
61.0289269271162027
 31
0.0
  0
ARC
  5
74CC
  8
0
 10
3020.7409906902807961
 20
61.0346492035892823
 30
0.0
 40
0.0826762458821125
 50
278.798777159644203
 51
356.0312104063303877
  0
LINE
  5
74CD
  8
0
 10
3020.7536372411418597
 20
60.9529459210083076
 30
0.0
 11
3013.6058988851409595
 21
60.9531970332082906
 31
0.0
  0
ARC
  5
74CE
  8
0
 10
3013.6179690386588845
 20
61.034380211385411
 30
0.0
 40
0.0820755568051146
 50
183.8293813992376045
 51
261.5433263201916247
  0
LINE
  5
74CF
  8
0
 10
3013.5360767277061314
 20
61.028898748835978
 30
0.0
 11
3013.5360672037991208
 21
63.4054672977735265
 31
0.0
  0
ARC
  5
74D0
  8
0
 10
3013.6185273495998445
 20
58.3036614403345368
 30
0.0
 40
0.0826573140842531
 50
98.7882941876262635
 51
176.0416938207403064
  0
LINE
  5
74D1
  8
0
 10
3013.6058986400530557
 20
58.38534832585961
 30
0.0
 11
3020.7536369990530147
 21
58.3853468696596281
 31
0.0
  0
ARC
  5
74D2
  8
0
 10
3020.7410209977438171
 20
58.3036797362373989
 30
0.0
 40
0.0826358528148742
 50
3.9639699068329799
 51
81.2183212518416155
  0
LINE
  5
74D3
  8
0
 10
3020.8234591623718188
 20
58.3093922823424222
 30
0.0
 11
3020.8234686770952067
 21
55.9328269481675591
 31
0.0
  0
ARC
  5
74D4
  8
0
 10
3020.7409906970920019
 20
55.9385492246406386
 30
0.0
 40
0.0826762458821125
 50
278.798777159644203
 51
356.0312104063303877
  0
LINE
  5
74D5
  8
0
 10
3020.7536372479530655
 20
55.8568459420596071
 30
0.0
 11
3013.6058988919521653
 21
55.8570970542595902
 31
0.0
  0
ARC
  5
74D6
  8
0
 10
3013.6179690454700904
 20
55.9382802324367674
 30
0.0
 40
0.0820755568051146
 50
183.8293813992376045
 51
261.5433263201916247
  0
LINE
  5
74D7
  8
0
 10
3013.5360767345168824
 20
55.9327987698873415
 30
0.0
 11
3013.5360672106098718
 21
58.3093673188248189
 31
0.0
  0
ARC
  5
74D8
  8
0
 10
3013.6185273495998445
 20
53.2075614404345387
 30
0.0
 40
0.0826573140842531
 50
98.7882941876262635
 51
176.0416938207403064
  0
LINE
  5
74D9
  8
0
 10
3013.6058986400530557
 20
53.289248325959619
 30
0.0
 11
3020.7536369990530147
 21
53.28924686975963
 31
0.0
  0
ARC
  5
74DA
  8
0
 10
3020.7410209977438171
 20
53.2075797363374079
 30
0.0
 40
0.0826358528148742
 50
3.9639699068329799
 51
81.2183212518416155
  0
LINE
  5
74DB
  8
0
 10
3020.8234591623718188
 20
53.2132922824424384
 30
0.0
 11
3020.8234686770952067
 21
50.8367269482675113
 31
0.0
  0
ARC
  5
74DC
  8
0
 10
3020.7409906970920019
 20
50.8424492247406477
 30
0.0
 40
0.0826762458821125
 50
278.798777159644203
 51
356.0312104063303877
  0
LINE
  5
74DD
  8
0
 10
3020.7536372479530655
 20
50.760745942159609
 30
0.0
 11
3013.6058988919521653
 21
50.7609970543595921
 31
0.0
  0
ARC
  5
74DE
  8
0
 10
3013.6179690454700904
 20
50.8421802325367693
 30
0.0
 40
0.0820755568051146
 50
183.8293813992376045
 51
261.5433263201916247
  0
LINE
  5
74DF
  8
0
 10
3013.5360767345168824
 20
50.8366987699873505
 30
0.0
 11
3013.5360672106098718
 21
53.213267318924828
 31
0.0
  0
ARC
  5
74E0
  8
0
 10
3013.6185273495889305
 20
48.1114614402831933
 30
0.0
 40
0.0826573140842531
 50
98.7882941876262635
 51
176.0416938207403064
  0
LINE
  5
74E1
  8
0
 10
3013.6058986400421418
 20
48.1931483258083304
 30
0.0
 11
3020.7536369990411913
 21
48.1931468696082774
 31
0.0
  0
ARC
  5
74E2
  8
0
 10
3020.7410209977329032
 20
48.1114797361861122
 30
0.0
 40
0.0826358528148742
 50
3.9639699068329799
 51
81.2183212518416155
  0
LINE
  5
74E3
  8
0
 10
3020.8234591623609049
 20
48.1171922822911426
 30
0.0
 11
3020.8234686770829285
 21
45.7406269481162226
 31
0.0
  0
ARC
  5
74E4
  8
0
 10
3020.740990697081088
 20
45.746349224589288
 30
0.0
 40
0.0826762458821125
 50
278.798777159644203
 51
356.0312104063303877
  0
LINE
  5
74E5
  8
0
 10
3020.7536372479421516
 20
45.6646459420083204
 30
0.0
 11
3013.6058988919407966
 21
45.6648970542082324
 31
0.0
  0
ARC
  5
74E6
  8
0
 10
3013.6179690454591764
 20
45.7460802323854168
 30
0.0
 40
0.0820755568051146
 50
183.8293813992376045
 51
261.5433263201916247
  0
LINE
  5
74E7
  8
0
 10
3013.5360767345059685
 20
45.7405987698359908
 30
0.0
 11
3013.5360672105989579
 21
48.1171673187735323
 31
0.0
  0
LINE
  5
74E8
  8
0
 10
2987.3610343434270362
 20
42.9495410542674776
 30
0.0
 11
2987.3621053502201903
 21
42.9188714329082828
 31
0.0
  0
LINE
  5
74E9
  8
0
 10
2987.4200949959481477
 20
42.9474786101647226
 30
0.0
 11
2987.4211318735019631
 21
42.9177863224220673
 31
0.0
  0
LINE
  5
74EA
  8
0
 10
2987.516765509824836
 20
42.938713812209329
 30
0.0
 11
2987.5184504061799089
 21
42.8904646922790391
 31
0.0
  0
LINE
  5
74EB
  8
0
 10
2987.5706010357312152
 20
42.8569267476082985
 30
0.0
 11
2987.6512646745468373
 21
42.8569267476082985
 31
0.0
  0
LINE
  5
74EC
  8
0
 10
2987.6251974330020857
 20
42.7969267476083033
 30
0.0
 11
2987.6904588184970635
 21
42.7969267476083033
 31
0.0
  0
LINE
  5
74ED
  8
0
 10
2987.673185028431817
 20
42.6069267476082985
 30
0.0
 11
2987.7181898986609667
 21
42.6069267476082985
 31
0.0
  0
LINE
  5
74EE
  8
0
 10
2987.6752815549521074
 20
42.5469267476082891
 30
0.0
 11
2987.7202857360348389
 21
42.5469267476082891
 31
0.0
  0
LINE
  5
74EF
  8
0
 10
2987.6773780814710335
 20
42.4869267476082868
 30
0.0
 11
2987.7223815734091659
 21
42.4869267476082868
 31
0.0
  0
LINE
  5
74F0
  8
0
 10
3047.0372242375419773
 20
42.9188714329082828
 30
0.0
 11
3047.0383602956958384
 21
42.9509336875342171
 31
0.0
  0
LINE
  5
74F1
  8
0
 10
3046.9984805096951277
 20
42.9495410542674776
 30
0.0
 11
3046.9974095029010641
 21
42.9188714329082828
 31
0.0
  0
LINE
  5
74F2
  8
0
 10
3046.9394198571731067
 20
42.9474786101647226
 30
0.0
 11
3046.9383829796202008
 21
42.9177863224220673
 31
0.0
  0
LINE
  5
74F3
  8
0
 10
3046.8427493432968731
 20
42.938713812209329
 30
0.0
 11
3046.8410644469418003
 21
42.8904646922790391
 31
0.0
  0
LINE
  5
74F4
  8
0
 10
3046.8196377951958311
 20
42.8786752935448803
 30
0.0
 11
3046.7260356185802266
 21
42.8754066334340891
 31
0.0
  0
LINE
  5
74F5
  8
0
 10
3046.7484425406241826
 20
42.8161525277597832
 30
0.0
 11
3046.6777081670388725
 21
42.8136824290413927
 31
0.0
  0
LINE
  5
74F6
  8
0
 10
3046.6863298246898921
 20
42.6069267476082985
 30
0.0
 11
3046.6413258242791926
 21
42.6069267476082985
 31
0.0
  0
LINE
  5
74F7
  8
0
 10
3046.6842332981700565
 20
42.5469267476082891
 30
0.0
 11
3046.6392305780959759
 21
42.5469267476082891
 31
0.0
  0
LINE
  5
74F8
  8
0
 10
3046.6821367716511304
 20
42.4869267476082868
 30
0.0
 11
3046.6371353319141235
 21
42.4869267476082868
 31
0.0
  0
ENDSEC
  0
EOF
