  0
SECTION
  2
HEADER
  9
$ACADVER
  1
AC1009
  9
$INSBASE
 10
4606.455576695907439
 20
263.458518372502283
 30
0.0
  9
$EXTMIN
 10
4573.122176690672859
 20
263.4583310168505932
 30
0.0
  9
$EXTMAX
 10
4606.4624408100189612
 20
341.780209518208892
 30
0.0
  9
$LIMMIN
 10
0.0
 20
0.0
  9
$LIMMAX
 10
11.6929133858000007
 20
8.2677165353999982
  9
$ORTHOMODE
 70
     1
  9
$REGENMODE
 70
     1
  9
$FILLMODE
 70
     1
  9
$QTEXTMODE
 70
     0
  9
$MIRRTEXT
 70
     0
  9
$DRAGMODE
 70
     2
  9
$LTSCALE
 40
0.6431102362
  9
$OSMODE
 70
  4095
  9
$ATTMODE
 70
     1
  9
$TEXTSIZE
 40
0.2
  9
$TRACEWID
 40
0.05
  9
$TEXTSTYLE
  7
STANDARD
  9
$CLAYER
  8
0
  9
$CELTYPE
  6
BYLAYER
  9
$CECOLOR
 62
   256
  9
$DIMSCALE
 40
1.0
  9
$DIMASZ
 40
0.1875
  9
$DIMEXO
 40
0.0625
  9
$DIMDLI
 40
0.4443307087
  9
$DIMRND
 40
0.0
  9
$DIMDLE
 40
0.0
  9
$DIMEXE
 40
0.125
  9
$DIMTP
 40
0.01
  9
$DIMTM
 40
0.01
  9
$DIMTXT
 40
2.0
  9
$DIMCEN
 40
0.1052362205
  9
$DIMTSZ
 40
0.0
  9
$DIMTOL
 70
     1
  9
$DIMLIM
 70
     0
  9
$DIMTIH
 70
     1
  9
$DIMTOH
 70
     1
  9
$DIMSE1
 70
     0
  9
$DIMSE2
 70
     0
  9
$DIMTAD
 70
     0
  9
$DIMZIN
 70
     0
  9
$DIMBLK
  1

  9
$DIMASO
 70
     1
  9
$DIMSHO
 70
     1
  9
$DIMPOST
  1
\X
  9
$DIMAPOST
  1

  9
$DIMALT
 70
     1
  9
$DIMALTD
 70
     2
  9
$DIMALTF
 40
25.3999999999999986
  9
$DIMLFAC
 40
1.0
  9
$DIMTOFL
 70
     0
  9
$DIMTVP
 40
0.0
  9
$DIMTIX
 70
     0
  9
$DIMSOXD
 70
     0
  9
$DIMSAH
 70
     0
  9
$DIMBLK1
  1

  9
$DIMBLK2
  1

  9
$DIMSTYLE
  2
STANDARD
  9
$DIMCLRD
 70
     0
  9
$DIMCLRE
 70
     0
  9
$DIMCLRT
 70
     0
  9
$DIMTFAC
 40
1.0
  9
$DIMGAP
 40
0.09
  9
$LUNITS
 70
     2
  9
$LUPREC
 70
     4
  9
$SKETCHINC
 40
0.1
  9
$FILLETRAD
 40
0.0
  9
$AUNITS
 70
     0
  9
$AUPREC
 70
     0
  9
$MENU
  1
.
  9
$ELEVATION
 40
0.0
  9
$PELEVATION
 40
0.0
  9
$THICKNESS
 40
0.0
  9
$LIMCHECK
 70
     0
  9
$BLIPMODE
 70
     0
  9
$CHAMFERA
 40
0.0
  9
$CHAMFERB
 40
0.0
  9
$SKPOLY
 70
     0
  9
$TDCREATE
 40
2458060.468368056230247
  9
$TDUPDATE
 40
2459115.9845833331346512
  9
$TDINDWG
 40
0.3252732639
  9
$TDUSRTIMER
 40
0.3252732639
  9
$USRTIMER
 70
     1
  9
$ANGBASE
 50
0.0
  9
$ANGDIR
 70
     0
  9
$PDMODE
 70
     0
  9
$PDSIZE
 40
0.3125
  9
$PLINEWID
 40
0.0
  9
$COORDS
 70
     1
  9
$SPLFRAME
 70
     0
  9
$SPLINETYPE
 70
     6
  9
$SPLINESEGS
 70
     8
  9
$ATTDIA
 70
     1
  9
$ATTREQ
 70
     1
  9
$HANDLING
 70
     1
  9
$HANDSEED
  5
B1F2
  9
$SURFTAB1
 70
     6
  9
$SURFTAB2
 70
     6
  9
$SURFTYPE
 70
     6
  9
$SURFU
 70
     6
  9
$SURFV
 70
     6
  9
$UCSNAME
  2

  9
$UCSORG
 10
0.0
 20
0.0
 30
0.0
  9
$UCSXDIR
 10
1.0
 20
0.0
 30
0.0
  9
$UCSYDIR
 10
0.0
 20
1.0
 30
0.0
  9
$PUCSNAME
  2

  9
$PUCSORG
 10
0.0
 20
0.0
 30
0.0
  9
$PUCSXDIR
 10
1.0
 20
0.0
 30
0.0
  9
$PUCSYDIR
 10
0.0
 20
1.0
 30
0.0
  9
$USERI1
 70
     0
  9
$USERI2
 70
     0
  9
$USERI3
 70
     0
  9
$USERI4
 70
     0
  9
$USERI5
 70
     0
  9
$USERR1
 40
0.0
  9
$USERR2
 40
0.0
  9
$USERR3
 40
0.0
  9
$USERR4
 40
0.0
  9
$USERR5
 40
0.0
  9
$WORLDVIEW
 70
     1
  9
$SHADEDGE
 70
     3
  9
$SHADEDIF
 70
    70
  9
$TILEMODE
 70
     1
  9
$MAXACTVP
 70
    64
  9
$PLIMCHECK
 70
     0
  9
$PEXTMIN
 10
1.0000000000000000E+20
 20
1.0000000000000000E+20
 30
1.0000000000000000E+20
  9
$PEXTMAX
 10
-1.0000000000000000E+20
 20
-1.0000000000000000E+20
 30
-1.0000000000000000E+20
  9
$PLIMMIN
 10
0.0
 20
0.0
  9
$PLIMMAX
 10
12.0
 20
9.0
  9
$UNITMODE
 70
     0
  9
$VISRETAIN
 70
     1
  9
$PLINEGEN
 70
     0
  9
$PSLTSCALE
 70
     1
  0
ENDSEC
  0
SECTION
  2
TABLES
  0
TABLE
  2
VPORT
 70
     1
  0
VPORT
  2
*ACTIVE
 70
     0
 10
0.0
 20
0.0
 11
1.0
 21
1.0
 12
0.0
 22
0.0
 13
0.0
 23
0.0
 14
1.0
 24
1.0
 15
0.0
 25
0.0
 16
0.0
 26
0.0
 36
241.1930618641372064
 17
4589.7922555614159137
 27
302.6193695068358807
 37
0.0
 40
85.134834399689538
 41
2.1186252771618621
 42
50.0
 43
0.0
 44
0.0
 50
0.0
 51
0.0
 71
     0
 72
   100
 73
     1
 74
     1
 75
     0
 76
     0
 77
     0
 78
     0
  0
ENDTAB
  0
TABLE
  2
LTYPE
 70
     2
  0
LTYPE
  2
CONTINUOUS
 70
     0
  3
Solid line
 72
    65
 73
     0
 40
0.0
  0
LTYPE
  2
PHANTOM2
 70
     0
  3
___ _ _ ___ _ _ ___ _ _ ___ _ _
 72
    65
 73
     6
 40
1.25
 49
0.625
 49
-0.125
 49
0.125
 49
-0.125
 49
0.125
 49
-0.125
  0
ENDTAB
  0
TABLE
  2
LAYER
 70
     2
  0
LAYER
  2
0
 70
     0
 62
   255
  6
CONTINUOUS
  0
LAYER
  2
DEFPOINTS
 70
     0
 62
     7
  6
CONTINUOUS
  0
ENDTAB
  0
TABLE
  2
STYLE
 70
     1
  0
STYLE
  2
STANDARD
 70
     0
 40
0.0
 41
0.8
 50
0.0
 71
     0
 42
0.2
  3
txt
  4

  0
ENDTAB
  0
TABLE
  2
VIEW
 70
     0
  0
ENDTAB
  0
TABLE
  2
UCS
 70
     0
  0
ENDTAB
  0
TABLE
  2
APPID
 70
     9
  0
APPID
  2
ACAD
 70
     0
  0
APPID
  2
ACAD_MLEADERVER
 70
     0
  0
APPID
  2
ACAD_EXEMPT_FROM_CAD_STANDARDS
 70
     0
  0
APPID
  2
ACAD_NAV_VCDISPLAY
 70
     0
  0
APPID
  2
ACAECLAYERSTANDARD
 70
     0
  0
APPID
  2
ACCMTRANSPARENCY
 70
     0
  0
APPID
  2
ACAD_DSTYLE_DIMJAG
 70
     0
  0
APPID
  2
ACAD_DSTYLE_DIMTALN
 70
     0
  0
APPID
  2
ACDBATTR
 70
     0
  0
ENDTAB
  0
TABLE
  2
DIMSTYLE
 70
     1
  0
DIMSTYLE
  2
STANDARD
 70
     0
  3

  4

  5

  6

  7

 40
1.0
 41
0.1875
 42
0.0625
 43
0.38
 44
0.125
 45
0.0
 46
0.0
 47
0.01
 48
0.01
140
0.15625
141
0.09
142
0.0
143
25.3999999999999986
144
1.0
145
0.0
146
1.0
147
0.09
 71
     1
 72
     0
 73
     1
 74
     1
 75
     0
 76
     0
 77
     0
 78
     4
170
     0
171
     2
172
     0
173
     0
174
     0
175
     0
176
     0
177
     0
178
     0
  0
ENDTAB
  0
ENDSEC
  0
SECTION
  2
BLOCKS
  0
BLOCK
  8
0
  2
$MODEL_SPACE
 70
     0
 10
0.0
 20
0.0
 30
0.0
  3
$MODEL_SPACE
  1

  0
ENDBLK
  5
21
  8
0
  0
BLOCK
 67
     1
  8
0
  2
$PAPER_SPACE
 70
     0
 10
0.0
 20
0.0
 30
0.0
  3
$PAPER_SPACE
  1

  0
ENDBLK
  5
1D
 67
     1
  8
0
  0
ENDSEC
  0
SECTION
  2
ENTITIES
  0
ATTDEF
  5
3930
  8
DEFPOINTS
 10
4606.4517741433510309
 20
263.469168498046713
 30
0.0
 40
0.001
  1
71520115
  3

  2
MODELNUMBER
 70
     0
1001
ACDBATTR
1070
     0
1070
     1
  0
ATTDEF
  5
3931
  8
DEFPOINTS
 10
4606.4517741433510309
 20
263.467501831379991
 30
0.0
 40
0.001
  1
TRAVERSE
  3

  2
TRADENAME
 70
     0
1001
ACDBATTR
1070
     0
1070
     1
  0
ATTDEF
  5
3932
  8
DEFPOINTS
 10
4606.4517741433510309
 20
263.4658351647133259
 30
0.0
 40
0.001
  1
BATH AND WALL SURROUND
  3

  2
PRODUCT
 70
     0
1001
ACDBATTR
1070
     0
1070
     1
  0
LINE
  5
AB16
  8
0
 10
4573.1587299262682791
 20
340.5561061180623028
 30
0.0
 11
4574.3363835410973479
 21
341.7346572831179969
 31
0.0
  0
LINE
  5
AB17
  8
0
 10
4574.4246780407083861
 20
341.7712383725441896
 30
0.0
 11
4600.4628968844326664
 21
341.7712383725420864
 31
0.0
  0
ARC
  5
AB18
  8
0
 10
4600.462917272663617
 20
341.64644037616182
 30
0.0
 40
0.1247979980458078
 50
44.9814232773106824
 51
90.0093604029617893
  0
LINE
  5
AB19
  8
0
 10
4600.5511913901200387
 20
341.7346572708220833
 30
0.0
 11
4601.7188386837560756
 21
340.5661198363866902
 31
0.0
  0
ARC
  5
AB1A
  8
0
 10
4601.6304021930473027
 20
340.4777941879900141
 30
0.0
 40
0.1249897317923691
 50
359.9834206826359946
 51
44.9640715153050365
  0
LINE
  5
AB1B
  8
0
 10
4601.7553919196061543
 20
340.4777580205022787
 30
0.0
 11
4601.7535878976068489
 21
340.2658057065023058
 31
0.0
  0
LINE
  5
AB1C
  8
0
 10
4573.122176695907001
 20
340.467744324602279
 30
0.0
 11
4573.122176695907001
 21
285.2449095708022924
 31
0.0
  0
LINE
  5
AB1D
  8
0
 10
4573.1541940946435716
 20
285.1612996203284069
 30
0.0
 11
4574.3210250042066036
 21
283.9942088355023202
 31
0.0
  0
LINE
  5
AB1E
  8
0
 10
4606.4055766959072571
 20
341.780209518208892
 30
0.0
 11
4602.8212842049069877
 21
341.5728109248022974
 31
0.0
  0
ARC
  5
AB1F
  8
0
 10
4602.8299327605236613
 20
341.448167555753912
 30
0.0
 40
0.1249430548769929
 50
93.9691866240704172
 51
136.6912678067753859
  0
LINE
  5
AB20
  8
0
 10
4602.7390156693427343
 20
341.5338696531214282
 30
0.0
 11
4601.8022414672068408
 21
340.5400852689023168
 31
0.0
  0
ARC
  5
AB21
  8
0
 10
4601.8473749801942176
 20
340.4975467803665197
 30
0.0
 40
0.0620206175520695
 50
136.6954164118749873
 51
180.0026106773966035
  0
LINE
  5
AB22
  8
0
 10
4601.7853543627061299
 20
340.4975439544023175
 30
0.0
 11
4601.7847901316072239
 21
340.2602950527024177
 31
0.0
  0
ARC
  5
AB23
  8
0
 10
4601.6594428891767166
 20
340.2604610307138273
 30
0.0
 40
0.1253473523204327
 50
315.0514666536221853
 51
359.924132084495227
  0
LINE
  5
AB24
  8
0
 10
4601.7481564328072636
 20
340.171906720202287
 30
0.0
 11
4601.2766673280066243
 21
339.7001300249021938
 31
0.0
  0
ARC
  5
AB25
  8
0
 10
4601.3651328898786232
 20
339.611742238019815
 30
0.0
 40
0.1250542142728963
 50
135.0251970258534868
 51
179.9998839083756081
  0
LINE
  5
AB26
  8
0
 10
4601.2400786756070374
 20
339.6117424914023104
 30
0.0
 11
4601.2400779937070183
 21
314.0912016125022888
 31
0.0
  0
LINE
  5
AB27
  8
0
 10
4606.4055766959072571
 20
341.780209518208892
 30
0.0
 11
4606.4053073289396707
 21
340.5640480029342143
 31
0.0
  0
ARC
  5
AB28
  8
0
 10
4606.2425766849128195
 20
340.5734150343571969
 30
0.0
 40
0.1630000116057339
 50
273.5000036222501762
 51
356.7056002271373814
  0
ARC
  5
AB29
  8
0
 10
4606.2488355061213952
 20
340.0840990979817207
 30
0.0
 40
0.3266408203123929
 50
89.3523578855410676
 51
179.9857521271991061
  0
LINE
  5
AB2A
  8
0
 10
4605.9221946959069101
 20
340.0841803244900916
 30
0.0
 11
4605.9226753964885575
 21
314.9018912203549121
 31
0.0
  0
ARC
  5
AB2B
  8
0
 10
4602.3800129324627051
 20
333.9288854216594018
 30
0.0
 40
6.486184761162658
 50
90.1440507548398244
 51
94.1599351705063015
  0
ARC
  5
AB2C
  8
0
 10
4601.9112604482352253
 20
340.3681018795928139
 30
0.0
 40
0.029931919145401
 50
93.3719167967932577
 51
127.5315383708961008
  0
LINE
  5
AB2D
  8
0
 10
4601.8930259818516788
 20
340.3918384340914827
 30
0.0
 11
4601.8924980074070845
 21
314.1312876105022838
 31
0.0
  0
LINE
  5
AB2E
  8
0
 10
4601.8924771937072364
 20
312.1598337076022744
 30
0.0
 11
4601.8924771952069932
 21
289.3538346988023022
 31
0.0
  0
LINE
  5
AB2F
  8
0
 10
4601.8924771952069932
 20
287.4825244051021969
 30
0.0
 11
4601.8860373400775643
 21
284.458518372502283
 31
0.0
  0
LINE
  5
AB30
  8
0
 10
4602.3355658745158507
 20
339.3077601584566878
 30
0.0
 11
4602.3355658463078726
 21
314.0885113822379822
 31
0.0
  0
LINE
  5
AB31
  8
0
 10
4602.3355833436071407
 20
311.2482576127022753
 30
0.0
 11
4602.3390758628102049
 21
284.458518372502283
 31
0.0
  0
ARC
  5
AB32
  8
0
 10
4602.7243296751503294
 20
339.2521769819579731
 30
0.0
 40
0.3927171783783896
 50
143.0453960309440902
 51
171.8633274497312016
  0
LINE
  5
AB33
  8
0
 10
4602.4105046325075818
 20
339.4882715071021835
 30
0.0
 11
4603.0506499940256617
 21
340.3225251845140065
 31
0.0
  0
ARC
  5
AB34
  8
0
 10
4603.3521381896962339
 20
340.088110636628187
 30
0.0
 40
0.3818969918569545
 50
99.8452781954451183
 51
142.1340488182289903
  0
LINE
  5
AB35
  8
0
 10
4603.2868383226677906
 20
340.4643834628533909
 30
0.0
 11
4606.252513969507163
 21
340.6433924567410827
 31
0.0
  0
ARC
  5
AB36
  8
0
 10
4606.2426749844325968
 20
340.8059982928293152
 30
0.0
 40
0.1629032337224235
 50
273.4626422623263124
 51
357.0268655789486161
  0
LINE
  5
AB37
  8
0
 10
4601.2400779937070183
 20
314.0912016125022888
 30
0.0
 11
4601.8924980074070845
 21
314.1312876105022838
 31
0.0
  0
ARC
  5
AB38
  8
0
 10
4606.9226740737622094
 20
314.9031163687130856
 30
0.0
 40
0.9999994277670353
 50
180.0701958879317033
 51
189.5388152829335127
  0
ARC
  5
AB39
  8
0
 10
4604.776806995514562
 20
314.5425267666253148
 30
0.0
 40
1.1759533241639799
 50
0.6916129163445277
 51
9.538815282943176
  0
LINE
  5
AB3A
  8
0
 10
4605.9526746483034003
 20
314.5567212633989129
 30
0.0
 11
4605.9526746483034003
 21
314.2780760219570197
 31
0.0
  0
LINE
  5
AB3B
  8
0
 10
4606.4055766959072571
 20
314.3018116125023198
 30
0.0
 11
4601.358467565321007
 21
314.0373038311952882
 31
0.0
  0
ARC
  5
AB3C
  8
0
 10
4601.3650447097707001
 20
313.9125101027568121
 30
0.0
 40
0.124966929572255
 50
93.0169326740334554
 51
180.0162218643590961
  0
LINE
  5
AB3D
  8
0
 10
4601.2400777852071769
 20
313.9124747215021785
 30
0.0
 11
4601.2397268832037298
 21
284.458518372502283
 31
0.0
  0
LINE
  5
AB3E
  8
0
 10
4606.4055766959072571
 20
314.3018116125023198
 30
0.0
 11
4606.4055767851878045
 21
314.0185615984167953
 31
0.0
  0
LINE
  5
AB3F
  8
0
 10
4606.4055766959072571
 20
313.893561618433921
 30
0.0
 11
4606.4055766959072571
 21
313.7060630489926893
 31
0.0
  0
LINE
  5
AB40
  8
0
 10
4606.4055766959072571
 20
313.5810612733066023
 30
0.0
 11
4606.4055766959072571
 21
313.3538306567024279
 31
0.0
  0
ARC
  5
AB41
  8
0
 10
4606.405587255080718
 20
313.9679473746667782
 30
0.0
 40
0.0499894416393103
 50
359.9896634180934143
 51
81.0103364369895189
  0
LINE
  5
AB42
  8
0
 10
4606.455576695907439
 20
313.96793835620241
 30
0.0
 11
4606.455576695907439
 21
313.9444985444022791
 31
0.0
  0
ARC
  5
AB43
  8
0
 10
4606.4055904857923451
 20
313.9444860800311972
 30
0.0
 40
0.0499862116692548
 50
280.9869701850410024
 51
0.0142870571999107
  0
LINE
  5
AB44
  8
0
 10
4606.3956166256066354
 20
314.0201391327022975
 30
0.0
 11
4606.4133984192058051
 21
314.0173227733022827
 31
0.0
  0
ARC
  5
AB45
  8
0
 10
4606.234097204878708
 20
313.3535986073700883
 30
0.0
 40
0.1714796480340971
 50
324.0478561893173151
 51
0.0775336990884307
  0
LINE
  5
AB46
  8
0
 10
4606.4151171457069722
 20
313.8954160881023085
 30
0.0
 11
4606.3947266002060132
 21
313.8914525802023263
 31
0.0
  0
ARC
  5
AB47
  8
0
 10
4606.2336541122422204
 20
313.3537327276308133
 30
0.0
 40
0.1719171449906369
 50
273.1483424402719038
 51
324.098371582195
  0
ARC
  5
AB48
  8
0
 10
4606.2431803038589351
 20
312.8610891804848961
 30
0.0
 40
0.3209858900472875
 50
90.0150438559659563
 51
179.9240386569155135
  0
LINE
  5
AB49
  8
0
 10
4605.9221946959069101
 20
312.8615147356023272
 30
0.0
 11
4605.9221946959069101
 21
284.458518372502283
 31
0.0
  0
ARC
  5
AB4A
  8
0
 10
4606.8632274011451955
 20
312.9113535300045896
 30
0.0
 40
0.597560400955746
 50
145.1378625713944928
 51
157.5532382469972958
  0
LINE
  5
AB4B
  8
0
 10
4606.310941333403207
 20
313.1395169191989112
 30
0.0
 11
4605.9221946959069101
 21
312.0704875437027113
 31
0.0
  0
ARC
  5
AB4C
  8
0
 10
4604.3390423789487613
 20
311.2039766442811128
 30
0.0
 40
2.0039483302873569
 50
162.9500114451001025
 51
178.7338400512344947
  0
ARC
  5
AB4D
  8
0
 10
4602.4430908614258442
 20
312.9777962380084091
 30
0.0
 40
0.1398524052215226
 50
359.9366292383448922
 51
59.8994839984166774
  0
ARC
  5
AB4E
  8
0
 10
4602.5284842831688366
 20
313.125410986883594
 30
0.0
 40
0.0306828058296222
 50
180.1889623605337079
 51
240.1864555657683979
  0
LINE
  5
AB4F
  8
0
 10
4602.4978016442073567
 20
313.1253097947022184
 30
0.0
 11
4602.4978016526074498
 21
313.2450631759023167
 31
0.0
  0
ARC
  5
AB50
  8
0
 10
4602.5276378558146462
 20
313.2445798117282152
 30
0.0
 40
0.029840118344294
 50
94.0413487603351541
 51
179.0718556104974937
  0
ARC
  5
AB51
  8
0
 10
4603.4462979754725893
 20
303.3483437957103774
 30
0.0
 40
9.9592253022588384
 50
87.2871874591018155
 51
93.6724483537222454
  0
ARC
  5
AB52
  8
0
 10
4603.862395429391654
 20
311.6702826437111185
 30
0.0
 40
1.6270643492166741
 50
69.5712814699192705
 51
88.0533042614068933
  0
LINE
  5
AB53
  8
0
 10
4602.5135070916066979
 20
312.1127175569067163
 30
0.0
 11
4604.8466202341060125
 21
312.1342094781023206
 31
0.0
  0
ARC
  5
AB54
  8
0
 10
4601.5899132344657119
 20
340.3705469828227024
 30
0.0
 40
0.0318861928410366
 50
0.0330357571054797
 51
91.0852642666550736
  0
LINE
  5
AB55
  8
0
 10
4602.3355658726750335
 20
337.6621063180040778
 30
0.0
 11
4605.3421883790997526
 21
337.6619720820726229
 31
0.0
  0
LINE
  5
AB56
  8
0
 10
4602.3355658726595721
 20
337.6488749352527066
 30
0.0
 11
4605.342188383156099
 21
337.6488732363058034
 31
0.0
  0
LINE
  5
AB57
  8
0
 10
4602.3355658698246771
 20
335.1140554811840957
 30
0.0
 11
4605.3421891681564375
 21
335.114040331530191
 31
0.0
  0
LINE
  5
AB58
  8
0
 10
4602.3355658698101252
 20
335.1008254317007982
 30
0.0
 11
4605.3421946959060733
 21
335.1008084575531143
 31
0.0
  0
LINE
  5
AB59
  8
0
 10
4602.3355658669752302
 20
332.5660063284300918
 30
0.0
 11
4605.3421946959060733
 21
332.5658720817860967
 31
0.0
  0
LINE
  5
AB5A
  8
0
 10
4602.3355658669606782
 20
332.552774935252728
 30
0.0
 11
4605.3421899613431378
 21
332.5527732363049154
 31
0.0
  0
LINE
  5
AB5B
  8
0
 10
4602.3355658641248738
 20
330.0179554811841172
 30
0.0
 11
4605.3421907463443858
 21
330.0179403315221975
 31
0.0
  0
LINE
  5
AB5C
  8
0
 10
4602.3355658641103219
 20
330.0047254320111279
 30
0.0
 11
4605.342190750442569
 21
330.004707385716074
 31
0.0
  0
LINE
  5
AB5D
  8
0
 10
4602.3355658612736079
 20
327.4699063471321097
 30
0.0
 11
4605.3421915354738303
 21
327.4697720819784763
 31
0.0
  0
LINE
  5
AB5E
  8
0
 10
4602.3355658612599655
 20
327.4561081456769216
 30
0.0
 11
4605.3421915397066186
 21
327.4561068251036886
 31
0.0
  0
LINE
  5
AB5F
  8
0
 10
4602.3355658584250705
 20
324.9224248375368802
 30
0.0
 11
4605.3421923243558922
 21
324.9224067615165268
 31
0.0
  0
LINE
  5
AB60
  8
0
 10
4602.3355658584086996
 20
324.9086254310707886
 30
0.0
 11
4605.3421923286286983
 21
324.9086104998584119
 31
0.0
  0
LINE
  5
AB61
  8
0
 10
4602.3355658555738046
 20
322.3738063617008152
 30
0.0
 11
4605.3421946959060733
 21
322.3736720817718151
 31
0.0
  0
LINE
  5
AB62
  8
0
 10
4602.3355658555592527
 20
322.3600081456767725
 30
0.0
 11
4605.3421931178936575
 21
322.3600068251030279
 31
0.0
  0
LINE
  5
AB63
  8
0
 10
4602.3355658527252672
 20
319.8263248375369017
 30
0.0
 11
4605.3421939025438405
 21
319.8263067615071122
 31
0.0
  0
LINE
  5
AB64
  8
0
 10
4602.3355658527098058
 20
319.8125254304009104
 30
0.0
 11
4605.3421939068166466
 21
319.8125118159206863
 31
0.0
  0
LINE
  5
AB65
  8
0
 10
4602.3355658498749108
 20
317.2777063767575214
 30
0.0
 11
4605.3421946959060733
 21
317.2775710484232832
 31
0.0
  0
LINE
  5
AB66
  8
0
 10
4602.3355658498594494
 20
317.2644749352526787
 30
0.0
 11
4605.3421946959060733
 21
317.2644732363023081
 31
0.0
  0
LINE
  5
AB67
  8
0
 10
4602.3355658470336493
 20
314.7296554783641795
 30
0.0
 11
4605.11108074823278
 21
314.7296583428671966
 31
0.0
  0
LINE
  5
AB68
  8
0
 10
4605.2477439794938618
 20
314.7296584839120897
 30
0.0
 11
4605.3421946949983976
 21
314.7296585813911065
 31
0.0
  0
LINE
  5
AB69
  8
0
 10
4602.335565847007274
 20
314.7145155789305022
 30
0.0
 11
4605.1094075579867422
 21
314.7218699477857058
 31
0.0
  0
LINE
  5
AB6A
  8
0
 10
4605.2356470709437417
 20
314.7221424461587276
 30
0.0
 11
4605.3421946948692494
 21
314.7222381888944938
 31
0.0
  0
LINE
  5
AB6B
  8
0
 10
4605.3421876491083822
 20
340.0191774248021943
 30
0.0
 11
4605.3421915397066186
 21
327.4561068251036886
 31
0.0
  0
LINE
  5
AB6C
  8
0
 10
4605.3421920195924031
 20
325.9065159054923129
 30
0.0
 11
4605.3421946959060733
 21
317.2644732363023081
 31
0.0
  0
LINE
  5
AB6D
  8
0
 10
4605.3409494301231462
 20
311.1893607627434903
 30
0.0
 11
4605.3415561694491771
 21
302.9758527505176744
 31
0.0
  0
LINE
  5
AB6E
  8
0
 10
4605.3415690165711567
 20
302.8019396196189064
 30
0.0
 11
4605.3421946970083809
 21
294.3320233850022873
 31
0.0
  0
LINE
  5
AB6F
  8
0
 10
4605.3421946970083809
 20
294.3320233850022873
 30
0.0
 11
4605.3421946955859312
 21
284.458518372502283
 31
0.0
  0
LINE
  5
AB70
  8
0
 10
4602.954282722107564
 20
340.1969369107022771
 30
0.0
 11
4605.3387022830447677
 21
340.1968892955458159
 31
0.0
  0
LINE
  5
AB71
  8
0
 10
4602.3357938487615684
 20
309.6335554799367742
 30
0.0
 11
4605.3410643599963805
 21
309.6335403377975126
 31
0.0
  0
LINE
  5
AB72
  8
0
 10
4602.3357955735345968
 20
309.6203254305017936
 30
0.0
 11
4605.3410653371984154
 21
309.6203118213289827
 31
0.0
  0
LINE
  5
AB73
  8
0
 10
4602.3361260323108581
 20
307.0855063133022895
 30
0.0
 11
4605.3412525955072852
 21
307.0853721239092238
 31
0.0
  0
LINE
  5
AB74
  8
0
 10
4602.3361279051096062
 20
307.07114080384099
 30
0.0
 11
4605.3412536468576945
 21
307.0711398219954731
 31
0.0
  0
LINE
  5
AB75
  8
0
 10
4602.3364580679299252
 20
304.5385918517790174
 30
0.0
 11
4605.3414407298214428
 21
304.538573788434519
 31
0.0
  0
LINE
  5
AB76
  8
0
 10
4602.336459940849636
 20
304.5242254267442945
 30
0.0
 11
4605.3414417907533789
 21
304.5242118196238721
 31
0.0
  0
LINE
  5
AB77
  8
0
 10
4602.3367903996249879
 20
301.989406313302311
 30
0.0
 11
4605.3416290490613392
 21
301.9892721070327752
 31
0.0
  0
LINE
  5
AB78
  8
0
 10
4602.3367921245699108
 20
301.9761749345598218
 30
0.0
 11
4605.3416300166863948
 21
301.9761732366213778
 31
0.0
  0
LINE
  5
AB79
  8
0
 10
4602.3371225833907374
 20
299.4413554731420959
 30
0.0
 11
4605.3418172671035791
 21
299.4413403340038826
 31
0.0
  0
LINE
  5
AB7A
  8
0
 10
4602.3371243081637658
 20
299.4281254229869091
 30
0.0
 11
4605.3418182443074329
 21
299.4281118179189889
 31
0.0
  0
LINE
  5
AB7B
  8
0
 10
4602.3377869507003197
 20
294.3452555175113048
 30
0.0
 11
4605.3421937193188569
 21
294.3452584804243202
 31
0.0
  0
LINE
  5
AB7C
  8
0
 10
4602.3377886754788051
 20
294.3320254192292964
 30
0.0
 11
4605.3421946970083809
 21
294.3320233850022873
 31
0.0
  0
LINE
  5
AB7D
  8
0
 10
4602.338119134254157
 20
291.7972063133022971
 30
0.0
 11
4605.3421946959060733
 21
291.7970720818029235
 31
0.0
  0
LINE
  5
AB7E
  8
0
 10
4602.338121007052905
 20
291.7828408031900267
 30
0.0
 11
4605.3421946959060733
 21
291.7828408031900267
 31
0.0
  0
LINE
  5
AB7F
  8
0
 10
4602.3384530427929349
 20
289.235925415471911
 30
0.0
 11
4605.3421946959060733
 21
289.2359124637570176
 31
0.0
  0
LINE
  5
AB80
  8
0
 10
4602.338451169875043
 20
289.2502918397981944
 30
0.0
 11
4605.3421946959060733
 21
289.2502737839022871
 31
0.0
  0
LINE
  5
AB81
  8
0
 10
4602.3387835015682867
 20
286.7011063133023185
 30
0.0
 11
4605.3421946959060733
 21
286.7009711658769788
 31
0.0
  0
LINE
  5
AB82
  8
0
 10
4602.3387852265177571
 20
286.6878749049370754
 30
0.0
 11
4605.3421946959060733
 21
286.6878732363023232
 31
0.0
  0
ARC
  5
AB83
  8
0
 10
4605.5194089188016733
 20
328.3309671798480736
 30
0.0
 40
0.2708809545637405
 50
229.1389503750827998
 51
253.4273208553672987
  0
ARC
  5
AB84
  8
0
 10
4605.3794315462237137
 20
327.7843550580939791
 30
0.0
 40
0.293756305671194
 50
4.8112325871240911
 51
77.6731272161688224
  0
LINE
  5
AB85
  8
0
 10
4605.672152782582998
 20
327.8089933394098239
 30
0.0
 11
4605.6721946780071448
 21
326.2208414290022915
 31
0.0
  0
ARC
  5
AB86
  8
0
 10
4605.3751759440237947
 20
326.2524327023609203
 30
0.0
 40
0.2986940523166927
 50
283.0359709084366955
 51
353.9287766231910268
  0
ARC
  5
AB87
  8
0
 10
4605.4733369616960772
 20
325.7860243671366902
 30
0.0
 40
0.1780932526925861
 50
99.9546608362214357
 51
171.4038404749400968
  0
ARC
  5
AB88
  8
0
 10
4604.9989666054962072
 20
315.2068201060870933
 30
0.0
 40
0.356307273561579
 50
95.5050089794695367
 51
121.2225577281104023
  0
LINE
  5
AB89
  8
0
 10
4604.964785060754366
 20
315.5614840247367283
 30
0.0
 11
4605.8721946959067282
 21
315.56261336520231
 31
0.0
  0
ARC
  5
AB8A
  8
0
 10
4605.871367010799986
 20
315.5117849940452857
 30
0.0
 40
0.0508351096892452
 50
270.9388555065812056
 51
89.0670825890512532
  0
ARC
  5
AB8B
  8
0
 10
4605.0440735089259761
 20
315.9022783007899875
 30
0.0
 40
0.4533231065456237
 50
239.5403595580357887
 51
258.4840858314573779
  0
ARC
  5
AB8C
  8
0
 10
4608.2689709526966908
 20
309.7780097176126901
 30
0.0
 40
5.7971294121605217
 50
117.3588333972427051
 51
120.3224886815186068
  0
ARC
  5
AB8D
  8
0
 10
4605.3335517176446956
 20
315.4540958053214013
 30
0.0
 40
0.5930708509724213
 50
297.220496749005008
 51
353.3781920223510156
  0
ARC
  5
AB8E
  8
0
 10
4605.5215985673476098
 20
314.4804678246583194
 30
0.0
 40
0.2455025143308777
 50
123.2871966988093959
 51
140.4367758691026893
  0
ARC
  5
AB8F
  8
0
 10
-10524.3461467472898221
 20
23078.7640067064203322
 30
0.0
 40
27333.3511002265295247
 50
303.6092806934943837
 51
303.6099257676651746
  0
ARC
  5
AB90
  8
0
 10
4605.2884487757200986
 20
315.3848566715334982
 30
0.0
 40
0.6367634897037642
 50
303.851197916687795
 51
354.8756661506986916
  0
ARC
  5
AB91
  8
0
 10
4605.5456032549036536
 20
303.6386317128300902
 30
0.0
 40
0.2468952354800694
 50
214.248057578889501
 51
246.5122248246323977
  0
ARC
  5
AB92
  8
0
 10
4605.2970410416291998
 20
303.0684025076967032
 30
0.0
 40
0.3751536721685303
 50
0.0176947470575942
 51
66.4051882304972168
  0
LINE
  5
AB93
  8
0
 10
4605.6721946959069101
 20
303.068518367002298
 30
0.0
 11
4605.6721946959069101
 21
302.9785289560023216
 31
0.0
  0
LINE
  5
AB94
  8
0
 10
4605.6721946959069101
 20
302.8108128676022943
 30
0.0
 11
4605.6721946959069101
 21
301.7185183725022739
 31
0.0
  0
ARC
  5
AB95
  8
0
 10
4605.2970649045355458
 20
301.7186033446629949
 30
0.0
 40
0.3751298009947541
 50
293.5874504767451754
 51
359.987021702332413
  0
ARC
  5
AB96
  8
0
 10
4605.5472025324970673
 20
301.1456906883889246
 30
0.0
 40
0.2500083795961958
 50
113.5848599171563933
 51
145.2914598632949037
  0
ARC
  5
AB97
  8
0
 10
4605.5182896910682757
 20
300.1913965269786218
 30
0.0
 40
0.2656501374875244
 50
228.3592976858413977
 51
253.3981774255346977
  0
ARC
  5
AB98
  8
0
 10
4605.3761591439006224
 20
299.6459803310406755
 30
0.0
 40
0.2982855602699285
 50
6.2968317537620102
 51
77.1715197496560137
  0
LINE
  5
AB99
  8
0
 10
4605.672645153900703
 20
299.6786960969674851
 30
0.0
 11
4605.6726745742580533
 21
298.0933136831342836
 31
0.0
  0
ARC
  5
AB9A
  8
0
 10
4605.3814629285952833
 20
298.1120712907376173
 30
0.0
 40
0.2918151305420178
 50
282.1336273624701221
 51
356.3145391981905163
  0
ARC
  5
AB9B
  8
0
 10
4605.5015594828619214
 20
297.6003408368209762
 30
0.0
 40
0.2339342059220689
 50
104.5472581465654969
 51
133.0254930120393908
  0
LINE
  5
AB9C
  8
0
 10
4602.3355658745158507
 20
339.3077601584566878
 30
0.0
 11
4602.3355564694084023
 21
340.385146207602304
 31
0.0
  0
ARC
  5
AB9D
  8
0
 10
4602.3655960947862695
 20
340.3850695036131242
 30
0.0
 40
0.0300397233077207
 50
93.6081056874517259
 51
179.853699730158894
  0
ARC
  5
AB9E
  8
0
 10
4604.3790619917353979
 20
311.365229584415772
 30
0.0
 40
29.1196447262713498
 50
92.149562260033278
 51
93.9685853709746084
  0
LINE
  5
AB9F
  8
0
 10
4605.4711038836067019
 20
340.3637466044023085
 30
0.0
 11
4606.106696869712323
 21
340.4026709268553077
 31
0.0
  0
ARC
  5
ABA0
  8
0
 10
4605.4790577241283245
 20
340.2224695160549004
 30
0.0
 40
0.1415008101423805
 50
93.2223265664516845
 51
183.6268726227519039
  0
ARC
  5
ABA1
  8
0
 10
4608.9307978140432169
 20
294.1814094247241087
 30
0.0
 40
46.3074568616347833
 50
93.3563820411839771
 51
93.4964030931797367
  0
LINE
  5
ABA2
  8
0
 10
4605.3378403162068935
 20
340.2135183725022785
 30
0.0
 11
4605.3387022830447677
 21
340.1968892955458159
 31
0.0
  0
ARC
  5
ABA3
  8
0
 10
4606.0766247732572083
 20
340.1224716534878212
 30
0.0
 40
0.741665414462972
 50
174.2413332220957898
 51
188.0058004793199018
  0
LINE
  5
ABA4
  8
0
 10
4601.5893093003569447
 20
340.4024274558021261
 30
0.0
 11
4574.6274460189069941
 21
340.4024274556022078
 31
0.0
  0
LINE
  5
ABA5
  8
0
 10
4601.7535878976068489
 20
340.2658057065023058
 30
0.0
 11
4601.7338986752120036
 21
340.2366543929426825
 31
0.0
  0
ARC
  5
ABA6
  8
0
 10
4601.6856194868178136
 20
340.3006449327800738
 30
0.0
 40
0.0639834495963385
 50
184.0954541726403022
 51
271.2002304771796162
  0
LINE
  5
ABA7
  8
0
 10
4601.7687095502060401
 20
340.2366387238022867
 30
0.0
 11
4601.6869597124068605
 21
340.2366755212023008
 31
0.0
  0
LINE
  5
ABA8
  8
0
 10
4601.6217994220069158
 20
340.3705653678499061
 30
0.0
 11
4601.6217994220069158
 21
340.0454726364105227
 31
0.0
  0
LINE
  5
ABA9
  8
0
 10
4601.7687095502196826
 20
340.4374751220518078
 30
0.0
 11
4601.7687095502060401
 21
340.1990247130434
 31
0.0
  0
ARC
  5
ABAA
  8
0
 10
4601.8305490144539363
 20
340.4375638894645135
 30
0.0
 40
0.0618395279455783
 50
137.0142074590434049
 51
180.0822451273531897
  0
ARC
  5
ABAB
  8
0
 10
4574.4246576461928271
 20
341.6464403763450832
 30
0.0
 40
0.1247979978655223
 50
89.9906367045047233
 51
135.0185687901434903
  0
ARC
  5
ABAC
  8
0
 10
4573.2471663752075983
 20
340.4677804947206141
 30
0.0
 40
0.1249896845339332
 50
135.0359230809474127
 51
180.0165805184342958
  0
ARC
  5
ABAD
  8
0
 10
4573.2473987639823463
 20
285.2449265073520905
 30
0.0
 40
0.1252220692203022
 50
180.0077493604260894
 51
221.8997003394883052
  0
ARC
  5
ABAE
  8
0
 10
4601.8147316080066958
 20
340.4129076193024162
 30
0.0
 40
0.0610248623998456
 50
135.0784719334000954
 51
168.4428160146999005
  0
ARC
  5
ABAF
  8
0
 10
4574.627194284052166
 20
340.2629328603526915
 30
0.0
 40
0.1394948218918591
 50
89.8966030766038386
 51
180.2338448853473096
  0
LINE
  5
ABB0
  8
0
 10
4574.487700623976707
 20
340.2623635329023273
 30
0.0
 11
4574.4877017936059929
 21
284.020781827502276
 31
0.0
  0
LINE
  5
ABB1
  8
0
 10
4576.674056936805755
 20
337.7387216819445257
 30
0.0
 11
4576.6740305227058343
 21
340.1202784950023101
 31
0.0
  0
ARC
  5
ABB2
  8
0
 10
4576.7490084258970455
 20
340.1213238064399889
 30
0.0
 40
0.0749851894896967
 50
89.8423838846955221
 51
180.7987427121773862
  0
LINE
  5
ABB3
  8
0
 10
4576.7492147039083648
 20
340.1963087122023239
 30
0.0
 11
4581.2403475743985837
 21
340.1962435950696886
 31
0.0
  0
LINE
  5
ABB4
  8
0
 10
4581.3435731803319868
 20
340.1962420983970787
 30
0.0
 11
4583.7256697375578369
 21
340.1962075602746154
 31
0.0
  0
ARC
  5
ABB5
  8
0
 10
4583.726045025280655
 20
340.1263873906016784
 30
0.0
 40
0.0698211782628243
 50
359.1012283022021165
 51
90.3079653869218362
  0
LINE
  5
ABB6
  8
0
 10
4583.7958576133733004
 20
340.1252921838359953
 30
0.0
 11
4583.7958261884487001
 21
337.7336997471415998
 31
0.0
  0
ARC
  5
ABB7
  8
0
 10
4583.7259016619400427
 20
337.7326911177178772
 30
0.0
 40
0.0699318006415093
 50
269.8212492376953264
 51
0.8264081913694882
  0
LINE
  5
ABB8
  8
0
 10
4583.7256834898071247
 20
337.6627596574023187
 30
0.0
 11
4576.7492042717076401
 21
337.6627365513023165
 31
0.0
  0
ARC
  5
ABB9
  8
0
 10
4576.7489981358548903
 20
337.7376846418376886
 30
0.0
 40
0.0749483740110528
 50
179.2071887051664021
 51
270.1575848626621905
  0
LINE
  5
ABBA
  8
0
 10
4574.6718588534076844
 20
335.1856954085022835
 30
0.0
 11
4574.6718340436100334
 21
337.5771947862210141
 31
0.0
  0
ARC
  5
ABBB
  8
0
 10
4574.7418205017538639
 20
337.5782550072328263
 30
0.0
 40
0.0699944882993229
 50
89.8322680948765253
 51
180.8679042300475999
  0
LINE
  5
ABBC
  8
0
 10
4574.7420254085063789
 20
337.6482491956023182
 30
0.0
 11
4580.1583108436580005
 21
337.648157560274683
 31
0.0
  0
ARC
  5
ABBD
  8
0
 10
4580.1586861313799091
 20
337.5783373906019165
 30
0.0
 40
0.0698211782628243
 50
359.1012283022021165
 51
90.3079653869218362
  0
LINE
  5
ABBE
  8
0
 10
4580.2284987194725545
 20
337.5772421838361197
 30
0.0
 11
4580.2284672945488637
 21
335.1856497471417242
 31
0.0
  0
ARC
  5
ABBF
  8
0
 10
4580.1585427680392968
 20
335.1846411177180016
 30
0.0
 40
0.0699318006415093
 50
269.8212492376953264
 51
0.8264081913694882
  0
LINE
  5
ABC0
  8
0
 10
4580.1583245959072883
 20
335.1147096574023863
 30
0.0
 11
4574.7420187045072453
 21
335.1146958346021734
 31
0.0
  0
ARC
  5
ABC1
  8
0
 10
4574.7418050688229414
 20
335.1846495424845216
 30
0.0
 40
0.0699540340986673
 50
179.1433526005675958
 51
270.1749783590756806
  0
LINE
  5
ABC2
  8
0
 10
4580.2422380565067215
 20
335.1856832326022868
 30
0.0
 11
4580.2422072703056983
 21
337.5772110830022257
 31
0.0
  0
ARC
  5
ABC3
  8
0
 10
4580.3121768397668347
 20
337.5782697996203865
 30
0.0
 40
0.0699775787764331
 50
89.8713110401763799
 51
180.8668820694875023
  0
LINE
  5
ABC4
  8
0
 10
4580.3123340125011964
 20
337.6482472018880117
 30
0.0
 11
4587.293022544707128
 21
337.6482465069022965
 31
0.0
  0
ARC
  5
ABC5
  8
0
 10
4587.2932539368666767
 20
337.5782763013243084
 30
0.0
 40
0.0699705881849908
 50
359.1341344365857253
 51
90.1894770176523508
  0
LINE
  5
ABC6
  8
0
 10
4587.3632165353074015
 20
337.5772189317023049
 30
0.0
 11
4587.3631851120071588
 21
335.1856851416022778
 31
0.0
  0
ARC
  5
ABC7
  8
0
 10
4587.2932637313688247
 20
335.1846406465303971
 30
0.0
 40
0.0699291816069565
 50
269.8186353982289916
 51
0.8558284741055247
  0
LINE
  5
ABC8
  8
0
 10
4587.2930423772459108
 20
335.1147118152620124
 30
0.0
 11
4580.3123942047077435
 21
335.1146995181023271
 31
0.0
  0
ARC
  5
ABC9
  8
0
 10
4580.3121691553278652
 20
335.1846380647759247
 30
0.0
 40
0.0699389087564662
 50
179.1437393644094129
 51
270.1843666436164995
  0
LINE
  5
ABCA
  8
0
 10
4587.3769558442072594
 20
335.1856832326022868
 30
0.0
 11
4587.3769250580071457
 21
337.5772110830022257
 31
0.0
  0
ARC
  5
ABCB
  8
0
 10
4587.4468946274682821
 20
337.5782697996203865
 30
0.0
 40
0.0699775787764331
 50
89.8713110401763799
 51
180.8668820694875023
  0
LINE
  5
ABCC
  8
0
 10
4587.4470518001999153
 20
337.6482472018880117
 30
0.0
 11
4594.4277403324058469
 21
337.6482465069022965
 31
0.0
  0
ARC
  5
ABCD
  8
0
 10
4594.4279717245672146
 20
337.5782763013243084
 30
0.0
 40
0.0699705881849908
 50
359.1341344365857253
 51
90.1894770176523508
  0
LINE
  5
ABCE
  8
0
 10
4594.4979343230070299
 20
337.5772189317023049
 30
0.0
 11
4594.4979028997067871
 21
335.1856851416022778
 31
0.0
  0
ARC
  5
ABCF
  8
0
 10
4594.427981519070272
 20
335.1846406465303971
 30
0.0
 40
0.0699291816069565
 50
269.8186353982289916
 51
0.8558284741055247
  0
LINE
  5
ABD0
  8
0
 10
4594.4277601649473581
 20
335.1147118152620124
 30
0.0
 11
4587.6576801673027148
 21
335.1146998890407076
 31
0.0
  0
LINE
  5
ABD1
  8
0
 10
4587.5551855208677807
 20
335.1146997084853183
 30
0.0
 11
4587.4471119924073719
 21
335.1146995181023271
 31
0.0
  0
ARC
  5
ABD2
  8
0
 10
4587.446886943026584
 20
335.1846380647759247
 30
0.0
 40
0.0699389087564662
 50
179.1437393644094129
 51
270.1843666436164995
  0
LINE
  5
ABD3
  8
0
 10
4594.5116736320060227
 20
335.1856832325021855
 30
0.0
 11
4594.5116428458068185
 21
337.5772110829021813
 31
0.0
  0
ARC
  5
ABD4
  8
0
 10
4594.5816124152670454
 20
337.5782697995202852
 30
0.0
 40
0.0699775787764331
 50
89.8713110401763799
 51
180.8668820694875023
  0
LINE
  5
ABD5
  8
0
 10
4594.5817695880023166
 20
337.6482472017880241
 30
0.0
 11
4601.2400786231428356
 21
337.6482465388979222
 31
0.0
  0
LINE
  5
ABD6
  8
0
 10
4601.2400785554482354
 20
335.114711247220896
 30
0.0
 11
4594.5818297802070447
 21
335.1146995180022259
 31
0.0
  0
ARC
  5
ABD7
  8
0
 10
4594.5816047308280758
 20
335.1846380646758803
 30
0.0
 40
0.0699389087564662
 50
179.1437393644094129
 51
270.1843666436164995
  0
LINE
  5
ABD8
  8
0
 10
4583.8095969504065579
 20
337.7337332326022761
 30
0.0
 11
4583.8095661642073537
 21
340.1252610830022149
 31
0.0
  0
ARC
  5
ABD9
  8
0
 10
4583.8795357336666711
 20
340.1263197996203189
 30
0.0
 40
0.0699775787764331
 50
89.8713110401763799
 51
180.8668820694875023
  0
LINE
  5
ABDA
  8
0
 10
4583.8796929064010328
 20
340.1962972018880009
 30
0.0
 11
4588.013046990602561
 21
340.196296790378085
 31
0.0
  0
LINE
  5
ABDB
  8
0
 10
4588.1162656137312297
 20
340.1962967801018749
 30
0.0
 11
4590.8603814386069644
 21
340.1962965069022857
 31
0.0
  0
ARC
  5
ABDC
  8
0
 10
4590.8606128307674226
 20
340.1263263013242977
 30
0.0
 40
0.0699705881849908
 50
359.1341344365857253
 51
90.1894770176523508
  0
LINE
  5
ABDD
  8
0
 10
4590.9305754292072379
 20
340.1252689317022941
 30
0.0
 11
4590.9305440059069952
 21
337.7337351416023239
 31
0.0
  0
ARC
  5
ABDE
  8
0
 10
4590.8606226252686611
 20
337.7326906465303864
 30
0.0
 40
0.0699291816069565
 50
269.8186353982289916
 51
0.8558284741055247
  0
LINE
  5
ABDF
  8
0
 10
4590.8604012711475661
 20
337.6627618152620016
 30
0.0
 11
4583.8797530986066704
 21
337.6627495181022027
 31
0.0
  0
ARC
  5
ABE0
  8
0
 10
4583.8795280492267921
 20
337.7326880647760277
 30
0.0
 40
0.0699389087564662
 50
179.1437393644094129
 51
270.1843666436164995
  0
LINE
  5
ABE1
  8
0
 10
4590.9443147381070958
 20
337.7337332326022761
 30
0.0
 11
4590.9442839519069821
 21
340.1252610830022149
 31
0.0
  0
ARC
  5
ABE2
  8
0
 10
4591.014253521367209
 20
340.1263197996203189
 30
0.0
 40
0.0699775787764331
 50
89.8713110401763799
 51
180.8668820694875023
  0
LINE
  5
ABE3
  8
0
 10
4591.0144106940997517
 20
340.1962972018880009
 30
0.0
 11
4594.7857462766241952
 21
340.1962968264201095
 31
0.0
  0
LINE
  5
ABE4
  8
0
 10
4594.8889669495620183
 20
340.196296816143672
 30
0.0
 11
4597.9950992263084117
 21
340.1962965069022857
 31
0.0
  0
ARC
  5
ABE5
  8
0
 10
4597.9953306184661415
 20
340.1263263013242977
 30
0.0
 40
0.0699705881849908
 50
359.1341344365857253
 51
90.1894770176523508
  0
LINE
  5
ABE6
  8
0
 10
4598.0652932169068663
 20
340.1252689317022941
 30
0.0
 11
4598.0652617936066235
 21
337.7337351416023239
 31
0.0
  0
ARC
  5
ABE7
  8
0
 10
4597.9953404129701084
 20
337.7326906465303864
 30
0.0
 40
0.0699291816069565
 50
269.8186353982289916
 51
0.8558284741055247
  0
LINE
  5
ABE8
  8
0
 10
4597.9951190588471945
 20
337.6627618152620016
 30
0.0
 11
4591.0144708863072083
 21
337.6627495181022027
 31
0.0
  0
ARC
  5
ABE9
  8
0
 10
4591.0142458369282394
 20
337.7326880647760277
 30
0.0
 40
0.0699389087564662
 50
179.1437393644094129
 51
270.1843666436164995
  0
LINE
  5
ABEA
  8
0
 10
4598.0790325259076781
 20
337.7337332326022761
 30
0.0
 11
4598.0790017397066549
 21
340.1252610830022149
 31
0.0
  0
ARC
  5
ABEB
  8
0
 10
4598.1489713091668818
 20
340.1263197996203189
 30
0.0
 40
0.0699775787764331
 50
89.8713110401763799
 51
180.8668820694875023
  0
LINE
  5
ABEC
  8
0
 10
4598.1491284819012435
 20
340.1962972018880009
 30
0.0
 11
4601.6217994220069158
 21
340.1962968561546745
 31
0.0
  0
LINE
  5
ABED
  8
0
 10
4601.2400786235311898
 20
337.6627549630360932
 30
0.0
 11
4598.1491886741068811
 21
337.6627495181022027
 31
0.0
  0
ARC
  5
ABEE
  8
0
 10
4598.1489636247279122
 20
337.7326880647760277
 30
0.0
 40
0.0699389087564662
 50
179.1437393644094129
 51
270.1843666436164995
  0
LINE
  5
ABEF
  8
0
 10
4598.0790325259076781
 20
332.6376332326022975
 30
0.0
 11
4598.0790017397066549
 21
335.0291610830021796
 31
0.0
  0
ARC
  5
ABF0
  8
0
 10
4598.1489713091668818
 20
335.0302197996202835
 30
0.0
 40
0.0699775787764331
 50
89.8713110401763799
 51
180.8668820694875023
  0
LINE
  5
ABF1
  8
0
 10
4598.1491284819012435
 20
335.1001972018880224
 30
0.0
 11
4601.2400779937070183
 21
335.1001968941582163
 31
0.0
  0
LINE
  5
ABF2
  8
0
 10
4601.2400779937070183
 20
332.5666549630349778
 30
0.0
 11
4598.1491886741068811
 21
332.566649518102281
 31
0.0
  0
ARC
  5
ABF3
  8
0
 10
4598.1489636247279122
 20
332.6365880647759923
 30
0.0
 40
0.0699389087564662
 50
179.1437393644094129
 51
270.1843666436164995
  0
LINE
  5
ABF4
  8
0
 10
4590.9443147381070958
 20
332.6376332326022975
 30
0.0
 11
4590.9442839519069821
 21
335.0291610830021796
 31
0.0
  0
ARC
  5
ABF5
  8
0
 10
4591.014253521367209
 20
335.0302197996202835
 30
0.0
 40
0.0699775787764331
 50
89.8713110401763799
 51
180.8668820694875023
  0
LINE
  5
ABF6
  8
0
 10
4591.0144106940997517
 20
335.1001972018880224
 30
0.0
 11
4597.9950992263084117
 21
335.1001965069023072
 31
0.0
  0
ARC
  5
ABF7
  8
0
 10
4597.9953306184661415
 20
335.0302263013243191
 30
0.0
 40
0.0699705881849908
 50
359.1341344365857253
 51
90.1894770176523508
  0
LINE
  5
ABF8
  8
0
 10
4598.0652932169068663
 20
335.0291689317023156
 30
0.0
 11
4598.0652617936066235
 21
332.6376351416021748
 31
0.0
  0
ARC
  5
ABF9
  8
0
 10
4597.9953404129701084
 20
332.6365906465304079
 30
0.0
 40
0.0699291816069565
 50
269.8186353982289916
 51
0.8558284741055247
  0
LINE
  5
ABFA
  8
0
 10
4597.9951190588471945
 20
332.5666618152620231
 30
0.0
 11
4591.0144708863072083
 21
332.566649518102281
 31
0.0
  0
ARC
  5
ABFB
  8
0
 10
4591.0142458369282394
 20
332.6365880647759923
 30
0.0
 40
0.0699389087564662
 50
179.1437393644094129
 51
270.1843666436164995
  0
LINE
  5
ABFC
  8
0
 10
4583.8095969504065579
 20
332.6376332326022975
 30
0.0
 11
4583.8095661642073537
 21
335.0291610830021796
 31
0.0
  0
ARC
  5
ABFD
  8
0
 10
4583.8795357336666711
 20
335.0302197996202835
 30
0.0
 40
0.0699775787764331
 50
89.8713110401763799
 51
180.8668820694875023
  0
LINE
  5
ABFE
  8
0
 10
4583.8796929064010328
 20
335.1001972018880224
 30
0.0
 11
4587.5551853690512871
 21
335.1001968359620946
 31
0.0
  0
LINE
  5
ABFF
  8
0
 10
4587.6576808083973447
 20
335.1001968257579051
 30
0.0
 11
4590.8603814386069644
 21
335.1001965069023072
 31
0.0
  0
ARC
  5
AC00
  8
0
 10
4590.8606128307674226
 20
335.0302263013243191
 30
0.0
 40
0.0699705881849908
 50
359.1341344365857253
 51
90.1894770176523508
  0
LINE
  5
AC01
  8
0
 10
4590.9305754292072379
 20
335.0291689317023156
 30
0.0
 11
4590.9305440059069952
 21
332.6376351416021748
 31
0.0
  0
ARC
  5
AC02
  8
0
 10
4590.8606226252686611
 20
332.6365906465304079
 30
0.0
 40
0.0699291816069565
 50
269.8186353982289916
 51
0.8558284741055247
  0
LINE
  5
AC03
  8
0
 10
4590.8604012711475661
 20
332.5666618152620231
 30
0.0
 11
4583.8797530986066704
 21
332.566649518102281
 31
0.0
  0
ARC
  5
AC04
  8
0
 10
4583.8795280492267921
 20
332.6365880647759923
 30
0.0
 40
0.0699389087564662
 50
179.1437393644094129
 51
270.1843666436164995
  0
LINE
  5
AC05
  8
0
 10
4580.2422132359070019
 20
330.0895831752022787
 30
0.0
 11
4580.2421824497068883
 21
332.4811110256022175
 31
0.0
  0
ARC
  5
AC06
  8
0
 10
4580.3121520191680247
 20
332.4821697422203215
 30
0.0
 40
0.0699775787764331
 50
89.8713110401763799
 51
180.8668820694875023
  0
LINE
  5
AC07
  8
0
 10
4580.3123091918996579
 20
332.5521471444880035
 30
0.0
 11
4587.2929977241083179
 21
332.5521464495022883
 31
0.0
  0
ARC
  5
AC08
  8
0
 10
4587.2932291162678666
 20
332.4821762439243003
 30
0.0
 40
0.0699705881849908
 50
359.1341344365857253
 51
90.1894770176523508
  0
LINE
  5
AC09
  8
0
 10
4587.3631917147067725
 20
332.4811188743022967
 30
0.0
 11
4587.3631602914074392
 21
330.0895850842023265
 31
0.0
  0
ARC
  5
AC0A
  8
0
 10
4587.2932389107700146
 20
330.088540589130389
 30
0.0
 40
0.0699291816069565
 50
269.8186353982289916
 51
0.8558284741055247
  0
LINE
  5
AC0B
  8
0
 10
4587.2930175566471007
 20
330.0186117578620042
 30
0.0
 11
4580.3123693841071145
 21
330.018599460702319
 31
0.0
  0
ARC
  5
AC0C
  8
0
 10
4580.3121443347281456
 20
330.0885380073759165
 30
0.0
 40
0.0699389087564662
 50
179.1437393644094129
 51
270.1843666436164995
  0
LINE
  5
AC0D
  8
0
 10
4587.3769558442072594
 20
330.0895832326023083
 30
0.0
 11
4587.3769250580071457
 21
332.4811110830021903
 31
0.0
  0
ARC
  5
AC0E
  8
0
 10
4587.4468946274682821
 20
332.4821697996202943
 30
0.0
 40
0.0699775787764331
 50
89.8713110401763799
 51
180.8668820694875023
  0
LINE
  5
AC0F
  8
0
 10
4587.4470518001999153
 20
332.55214720188809
 30
0.0
 11
4594.4277403324058469
 21
332.5521465069023179
 31
0.0
  0
ARC
  5
AC10
  8
0
 10
4594.4279717245672146
 20
332.482176301324273
 30
0.0
 40
0.0699705881849908
 50
359.1341344365857253
 51
90.1894770176523508
  0
LINE
  5
AC11
  8
0
 10
4594.4979343230070299
 20
332.4811189317023263
 30
0.0
 11
4594.4979028997067871
 21
330.0895851416022992
 31
0.0
  0
ARC
  5
AC12
  8
0
 10
4594.427981519070272
 20
330.0885406465304186
 30
0.0
 40
0.0699291816069565
 50
269.8186353982289916
 51
0.8558284741055247
  0
LINE
  5
AC13
  8
0
 10
4594.4277601649473581
 20
330.018611815261977
 30
0.0
 11
4587.4471119924073719
 21
330.0185995181022918
 31
0.0
  0
ARC
  5
AC14
  8
0
 10
4587.446886943026584
 20
330.0885380647758893
 30
0.0
 40
0.0699389087564662
 50
179.1437393644094129
 51
270.1843666436164995
  0
LINE
  5
AC15
  8
0
 10
4594.5116488078028851
 20
330.0895845351262778
 30
0.0
 11
4594.511618021603681
 21
332.4811123855262736
 31
0.0
  0
ARC
  5
AC16
  8
0
 10
4594.5815875910639079
 20
332.4821711021443207
 30
0.0
 40
0.0699775787764331
 50
89.8713110401763799
 51
180.8668820694875023
  0
LINE
  5
AC17
  8
0
 10
4594.5817447637973601
 20
332.5521485044121164
 30
0.0
 11
4601.2400779937070183
 21
332.5521478415195133
 31
0.0
  0
LINE
  5
AC18
  8
0
 10
4601.2400779937070183
 20
330.0186125498877914
 30
0.0
 11
4600.5094870130888012
 21
330.0186112628733781
 31
0.0
  0
LINE
  5
AC19
  8
0
 10
4600.4076552565429665
 20
330.0186110834858937
 30
0.0
 11
4597.5094866685758461
 21
330.0186059780514256
 31
0.0
  0
LINE
  5
AC1A
  8
0
 10
4597.4076552010656087
 20
330.0186057986642822
 30
0.0
 11
4594.5818049560029976
 21
330.0186008206263182
 31
0.0
  0
ARC
  5
AC1B
  8
0
 10
4594.5815799066231193
 20
330.0885393672999726
 30
0.0
 40
0.0699389087564662
 50
179.1437393644094129
 51
270.1843666436164995
  0
LINE
  5
AC1C
  8
0
 10
4598.0790325259076781
 20
327.541533232602319
 30
0.0
 11
4598.0790017397066549
 21
329.933061083002201
 31
0.0
  0
ARC
  5
AC1D
  8
0
 10
4598.1489713091668818
 20
329.934119799620305
 30
0.0
 40
0.0699775787764331
 50
89.8713110401763799
 51
180.8668820694875023
  0
LINE
  5
AC1E
  8
0
 10
4598.1491284819012435
 20
330.0040972018881007
 30
0.0
 11
4600.4076553327176953
 21
330.0040969770328161
 31
0.0
  0
LINE
  5
AC1F
  8
0
 10
4600.5094869423701311
 20
330.0040969668946218
 30
0.0
 11
4601.2400779937070183
 21
330.0040968941582946
 31
0.0
  0
ARC
  5
AC20
  8
0
 10
4598.1489636247279122
 20
327.5404880647759001
 30
0.0
 40
0.0699389087564733
 50
179.1437393644110045
 51
270.0
  0
LINE
  5
AC21
  8
0
 10
4590.9443147381070958
 20
327.541533232602319
 30
0.0
 11
4590.9442839519069821
 21
329.933061083002201
 31
0.0
  0
ARC
  5
AC22
  8
0
 10
4591.014253521367209
 20
329.934119799620305
 30
0.0
 40
0.0699775787764331
 50
89.8713110401763799
 51
180.8668820694875023
  0
LINE
  5
AC23
  8
0
 10
4591.0144106940997517
 20
330.0040972018881007
 30
0.0
 11
4597.4076552772867217
 21
330.0040965653872149
 31
0.0
  0
LINE
  5
AC24
  8
0
 10
4597.5094865953369663
 20
330.0040965552490775
 30
0.0
 11
4597.9950992263084117
 21
330.0040965069022718
 31
0.0
  0
ARC
  5
AC25
  8
0
 10
4597.9953306184661415
 20
329.9341263013242269
 30
0.0
 40
0.0699705881849908
 50
359.1341344365857253
 51
90.1894770176523508
  0
LINE
  5
AC26
  8
0
 10
4598.0652932169068663
 20
329.9330689317022802
 30
0.0
 11
4598.0652617936066235
 21
327.54153514160231
 31
0.0
  0
ARC
  5
AC27
  8
0
 10
4597.9953404129701084
 20
327.5404906465303725
 30
0.0
 40
0.0699291816069565
 50
269.8186353982289916
 51
0.8558284741055247
  0
LINE
  5
AC28
  8
0
 10
4597.9951190588471945
 20
327.4705618152621014
 30
0.0
 11
4597.5094738068191873
 21
327.4705609597459102
 31
0.0
  0
LINE
  5
AC29
  8
0
 10
4597.407668586730324
 20
327.4705607804050942
 30
0.0
 11
4591.0144708863072083
 21
327.4705495181021888
 31
0.0
  0
ARC
  5
AC2A
  8
0
 10
4591.0142458369282394
 20
327.5404880647759001
 30
0.0
 40
0.0699389087564662
 50
179.1437393644094129
 51
270.1843666436164995
  0
LINE
  5
AC2B
  8
0
 10
4583.8095721260579012
 20
327.5415345351293013
 30
0.0
 11
4583.809541339856878
 21
329.933062385529297
 31
0.0
  0
ARC
  5
AC2C
  8
0
 10
4583.8795109093180145
 20
329.934121102147401
 30
0.0
 40
0.0699775787764331
 50
89.8713110401763799
 51
180.8668820694875023
  0
LINE
  5
AC2D
  8
0
 10
4583.8796680820505571
 20
330.004098504415083
 30
0.0
 11
4590.8603566142573982
 21
330.0040978094294246
 31
0.0
  0
ARC
  5
AC2E
  8
0
 10
4590.8605880064169469
 20
329.9341276038513229
 30
0.0
 40
0.0699705881849908
 50
359.1341344365857253
 51
90.1894770176523508
  0
LINE
  5
AC2F
  8
0
 10
4590.9305506048567622
 20
329.9330702342293762
 30
0.0
 11
4590.930519181557429
 21
327.5415364441294059
 31
0.0
  0
ARC
  5
AC30
  8
0
 10
4590.8605978009200044
 20
327.5404919490575253
 30
0.0
 40
0.0699291816069565
 50
269.8186353982289916
 51
0.8558284741055247
  0
LINE
  5
AC31
  8
0
 10
4590.860376446798
 20
327.4705631177890837
 30
0.0
 11
4583.8797282742580137
 21
327.4705508206292848
 31
0.0
  0
ARC
  5
AC32
  8
0
 10
4583.8795032248781354
 20
327.540489367302996
 30
0.0
 40
0.0699389087564662
 50
179.1437393644094129
 51
270.1843666436164995
  0
LINE
  5
AC33
  8
0
 10
4580.2422380565067215
 20
324.9934832326022729
 30
0.0
 11
4580.2422072703056983
 21
327.3850110830023254
 31
0.0
  0
ARC
  5
AC34
  8
0
 10
4580.3121768397668347
 20
327.3860697996203157
 30
0.0
 40
0.0699775787764331
 50
89.8713110401763799
 51
180.8668820694875023
  0
LINE
  5
AC35
  8
0
 10
4580.3123340125011964
 20
327.4560472018879977
 30
0.0
 11
4587.293022544707128
 21
327.4560465069022825
 31
0.0
  0
ARC
  5
AC36
  8
0
 10
4587.2932539368666767
 20
327.3860763013241808
 30
0.0
 40
0.0699705881849908
 50
359.1341344365857253
 51
90.1894770176523508
  0
LINE
  5
AC37
  8
0
 10
4587.3632165353074015
 20
327.385018931702291
 30
0.0
 11
4587.3631851120071588
 21
324.9934851416023207
 31
0.0
  0
ARC
  5
AC38
  8
0
 10
4587.2932637313688247
 20
324.9924406465303264
 30
0.0
 40
0.0699291816069565
 50
269.8186353982289916
 51
0.8558284741055247
  0
LINE
  5
AC39
  8
0
 10
4587.2930423772459108
 20
324.9225118152621121
 30
0.0
 11
4586.616751279860182
 21
324.9225106239027809
 31
0.0
  0
LINE
  5
AC3A
  8
0
 10
4586.5134943302582542
 20
324.9225104420045795
 30
0.0
 11
4580.3123942047077435
 21
324.9224995181023132
 31
0.0
  0
ARC
  5
AC3B
  8
0
 10
4580.3121691553278652
 20
324.9924380647759108
 30
0.0
 40
0.0699389087564662
 50
179.1437393644094129
 51
270.1843666436164995
  0
LINE
  5
AC3C
  8
0
 10
4587.3769558442072594
 20
324.9934832326022729
 30
0.0
 11
4587.3769250580071457
 21
327.3850110830023254
 31
0.0
  0
ARC
  5
AC3D
  8
0
 10
4587.4468946274682821
 20
327.3860697996203157
 30
0.0
 40
0.0699775787764331
 50
89.8713110401763799
 51
180.8668820694875023
  0
LINE
  5
AC3E
  8
0
 10
4587.4470518001999153
 20
327.4560472018879977
 30
0.0
 11
4594.4277403324058469
 21
327.4560465069022825
 31
0.0
  0
ARC
  5
AC3F
  8
0
 10
4594.4279717245672146
 20
327.3860763013241808
 30
0.0
 40
0.0699705881849908
 50
359.1341344365857253
 51
90.1894770176523508
  0
LINE
  5
AC40
  8
0
 10
4594.4979343230070299
 20
327.385018931702291
 30
0.0
 11
4594.4979028997067871
 21
324.9934851416023207
 31
0.0
  0
ARC
  5
AC41
  8
0
 10
4594.427981519070272
 20
324.9924406465303264
 30
0.0
 40
0.0699291816069565
 50
269.8186353982289916
 51
0.8558284741055247
  0
LINE
  5
AC42
  8
0
 10
4594.4277601649473581
 20
324.9225118152621121
 30
0.0
 11
4587.4471119924073719
 21
324.9224995181023132
 31
0.0
  0
ARC
  5
AC43
  8
0
 10
4587.446886943026584
 20
324.9924380647759108
 30
0.0
 40
0.0699389087564662
 50
179.1437393644094129
 51
270.1843666436164995
  0
LINE
  5
AC44
  8
0
 10
4594.5116736320060227
 20
324.9934832326022729
 30
0.0
 11
4594.5116428458068185
 21
327.3850110830023254
 31
0.0
  0
ARC
  5
AC45
  8
0
 10
4594.5816124152670454
 20
327.3860697996203157
 30
0.0
 40
0.0699775787764331
 50
89.8713110401763799
 51
180.8668820694875023
  0
LINE
  5
AC46
  8
0
 10
4594.5817695880023166
 20
327.4560472018879977
 30
0.0
 11
4597.4076686629759934
 21
327.4560469205462141
 31
0.0
  0
LINE
  5
AC47
  8
0
 10
4597.5094737335557511
 20
327.4560469104106915
 30
0.0
 11
4600.4076687056840456
 21
327.4560466218712236
 31
0.0
  0
LINE
  5
AC48
  8
0
 10
4600.509474527414568
 20
327.4560466117355872
 30
0.0
 11
4601.2400779937070183
 21
327.4560465389978958
 31
0.0
  0
LINE
  5
AC49
  8
0
 10
4601.2400779937070183
 20
324.9225112473199033
 30
0.0
 11
4600.5094621831731274
 21
324.9225099602618911
 31
0.0
  0
LINE
  5
AC4A
  8
0
 10
4600.4076820024783956
 20
324.9225097809651857
 30
0.0
 11
4597.5094609450034113
 21
324.9225046754382902
 31
0.0
  0
LINE
  5
AC4B
  8
0
 10
4597.4076819724541565
 20
324.9225044961436879
 30
0.0
 11
4594.5818297802070447
 21
324.9224995181023132
 31
0.0
  0
ARC
  5
AC4C
  8
0
 10
4594.5816047308280758
 20
324.9924380647759108
 30
0.0
 40
0.0699389087564662
 50
179.1437393644094129
 51
270.1843666436164995
  0
LINE
  5
AC4D
  8
0
 10
4598.0790077015053612
 20
322.4454345351928737
 30
0.0
 11
4598.078976915306157
 21
324.8369623855929262
 31
0.0
  0
ARC
  5
AC4E
  8
0
 10
4598.148946484764565
 20
324.8380211022109734
 30
0.0
 40
0.0699775787764331
 50
89.8713110401763799
 51
180.8668820694875023
  0
LINE
  5
AC4F
  8
0
 10
4598.1491036574980171
 20
324.9079985044787122
 30
0.0
 11
4600.4076820786376629
 21
324.9079982796184254
 31
0.0
  0
LINE
  5
AC50
  8
0
 10
4600.5094621124671903
 20
324.9079982694852902
 30
0.0
 11
4601.2400779937070183
 21
324.907998196746405
 31
0.0
  0
LINE
  5
AC51
  8
0
 10
4601.2400779937070183
 20
322.3744562656693802
 30
0.0
 11
4600.5094497681948269
 21
322.3744549785894833
 31
0.0
  0
LINE
  5
AC52
  8
0
 10
4600.4076953754683927
 20
322.3744547993381957
 30
0.0
 11
4598.1491638497036547
 21
322.374450820692914
 31
0.0
  0
ARC
  5
AC53
  8
0
 10
4598.1489388003246859
 20
322.4443893673666253
 30
0.0
 40
0.0699389087564662
 50
179.1437393644094129
 51
270.1843666436164995
  0
LINE
  5
AC54
  8
0
 10
4590.9442899176074206
 20
322.4454331752023108
 30
0.0
 11
4590.944259131407307
 21
324.8369610256021929
 31
0.0
  0
ARC
  5
AC55
  8
0
 10
4591.0142287008666244
 20
324.8380197422202968
 30
0.0
 40
0.0699775787764331
 50
89.8713110401763799
 51
180.8668820694875023
  0
LINE
  5
AC56
  8
0
 10
4591.0143858736009861
 20
324.9079971444880925
 30
0.0
 11
4597.4076820486679935
 21
324.9079965079820909
 31
0.0
  0
LINE
  5
AC57
  8
0
 10
4597.5094608717708979
 20
324.9079964978491262
 30
0.0
 11
4597.9950744058069176
 21
324.9079964495023205
 31
0.0
  0
ARC
  5
AC58
  8
0
 10
4597.9953057979682853
 20
324.8380262439242756
 30
0.0
 40
0.0699705881849908
 50
359.1341344365857253
 51
90.1894770176523508
  0
LINE
  5
AC59
  8
0
 10
4598.0652683964071912
 20
324.8369688743022721
 30
0.0
 11
4598.0652369731060389
 21
322.4454350842023018
 31
0.0
  0
ARC
  5
AC5A
  8
0
 10
4597.9953155924686143
 20
322.4443905891304212
 30
0.0
 40
0.0699291816069565
 50
269.8186353982289916
 51
0.8558284741055247
  0
LINE
  5
AC5B
  8
0
 10
4597.9950942383466099
 20
322.3744617578620932
 30
0.0
 11
4597.5094480832522095
 21
322.3744609023443104
 31
0.0
  0
LINE
  5
AC5C
  8
0
 10
4597.4076953581115959
 20
322.3744607230959218
 30
0.0
 11
4591.0144460658066237
 21
322.3744494607022943
 31
0.0
  0
ARC
  5
AC5D
  8
0
 10
4591.0142210164267453
 20
322.4443880073758919
 30
0.0
 40
0.0699389087564662
 50
179.1437393644094129
 51
270.1843666436164995
  0
LINE
  5
AC5E
  8
0
 10
4583.80957010144175
 20
324.5311095182088934
 30
0.0
 11
4583.8095682042967383
 21
324.6784832606102782
 31
0.0
  0
LINE
  5
AC5F
  8
0
 10
4583.8095675219219629
 20
324.7314913056051751
 30
0.0
 11
4583.8095661642073537
 21
324.8369610830022225
 31
0.0
  0
ARC
  5
AC60
  8
0
 10
4583.8795357336666711
 20
324.8380197996203265
 30
0.0
 40
0.0699775787764331
 50
89.8713110401763799
 51
180.8668820694875023
  0
LINE
  5
AC61
  8
0
 10
4583.8796929064010328
 20
324.9079972018880085
 30
0.0
 11
4586.5134905284221531
 21
324.9079969396714773
 31
0.0
  0
LINE
  5
AC62
  8
0
 10
4586.6167554146140901
 20
324.9079969293906061
 30
0.0
 11
4590.8603814386069644
 21
324.9079965069021796
 31
0.0
  0
ARC
  5
AC63
  8
0
 10
4590.8606128307674226
 20
324.8380263013241915
 30
0.0
 40
0.0699705881849908
 50
359.1341344365857253
 51
90.1894770176523508
  0
LINE
  5
AC64
  8
0
 10
4590.9305754292072379
 20
324.836968931702188
 30
0.0
 11
4590.9305440059069952
 21
322.4454351416022746
 31
0.0
  0
ARC
  5
AC65
  8
0
 10
4590.8606226252686611
 20
322.444390646530394
 30
0.0
 40
0.0699291816069565
 50
269.8186353982289916
 51
0.8558284741055247
  0
LINE
  5
AC66
  8
0
 10
4590.8604012711475661
 20
322.3744618152620092
 30
0.0
 11
4586.591111037497285
 21
322.3744542944497766
 31
0.0
  0
LINE
  5
AC67
  8
0
 10
4586.5380408066748714
 20
322.3744542009608836
 30
0.0
 11
4586.3558239537069312
 21
322.3744538799663815
 31
0.0
  0
LINE
  5
AC68
  8
0
 10
4586.3558239537069312
 20
322.3599465428056874
 30
0.0
 11
4586.5380408069931946
 21
322.3599465246646218
 31
0.0
  0
LINE
  5
AC69
  8
0
 10
4586.5911110331962846
 20
322.3599465193810261
 30
0.0
 11
4587.2929977241083179
 21
322.3599464495022744
 31
0.0
  0
ARC
  5
AC6A
  8
0
 10
4587.2932291162678666
 20
322.2899762439242863
 30
0.0
 40
0.0699705881849908
 50
359.1341344365857253
 51
90.1894770176523508
  0
LINE
  5
AC6B
  8
0
 10
4587.3631917147067725
 20
322.2889188743022828
 30
0.0
 11
4587.3631602914074392
 21
319.8973850842023126
 31
0.0
  0
ARC
  5
AC6C
  8
0
 10
4587.2932389107700146
 20
319.8963405891303751
 30
0.0
 40
0.0699291816069565
 50
269.8186353982289916
 51
0.8558284741055247
  0
LINE
  5
AC6D
  8
0
 10
4587.2930175566471007
 20
319.826411757862104
 30
0.0
 11
4586.5911102821128225
 21
319.8264105213772268
 31
0.0
  0
LINE
  5
AC6E
  8
0
 10
4586.5380408624541815
 20
319.826410427889698
 30
0.0
 11
4586.3558239537069312
 21
319.8264101068950822
 31
0.0
  0
LINE
  5
AC6F
  8
0
 10
4587.3769310237066748
 20
319.8973831752023216
 30
0.0
 11
4587.3769002375065611
 21
322.2889110256023173
 31
0.0
  0
ARC
  5
AC70
  8
0
 10
4587.446869806966788
 20
322.2899697422203076
 30
0.0
 40
0.0699775787764331
 50
89.8713110401763799
 51
180.8668820694875023
  0
LINE
  5
AC71
  8
0
 10
4587.4470269797020592
 20
322.3599471444881033
 30
0.0
 11
4594.4277155119070812
 21
322.3599464495022744
 31
0.0
  0
ARC
  5
AC72
  8
0
 10
4594.4279469040666299
 20
322.2899762439242863
 30
0.0
 40
0.0699705881849908
 50
359.1341344365857253
 51
90.1894770176523508
  0
LINE
  5
AC73
  8
0
 10
4594.4979095025073548
 20
322.2889188743022828
 30
0.0
 11
4594.497878079207112
 21
319.8973850842023126
 31
0.0
  0
ARC
  5
AC74
  8
0
 10
4594.4279566985687779
 20
319.8963405891303751
 30
0.0
 40
0.0699291816069565
 50
269.8186353982289916
 51
0.8558284741055247
  0
LINE
  5
AC75
  8
0
 10
4594.4277353444467735
 20
319.826411757862104
 30
0.0
 11
4587.4470871719067873
 21
319.8263994607021914
 31
0.0
  0
ARC
  5
AC76
  8
0
 10
4587.4468621225269089
 20
319.8963380073759026
 30
0.0
 40
0.0699389087564662
 50
179.1437393644094129
 51
270.1843666436164995
  0
LINE
  5
AC77
  8
0
 10
4594.5116736320060227
 20
319.8973832326021807
 30
0.0
 11
4594.5116428458068185
 21
322.2889110830021764
 31
0.0
  0
ARC
  5
AC78
  8
0
 10
4594.5816124152670454
 20
322.2899697996202804
 30
0.0
 40
0.0699775787764331
 50
89.8713110401763799
 51
180.8668820694875023
  0
LINE
  5
AC79
  8
0
 10
4594.5817695880023166
 20
322.3599472018880192
 30
0.0
 11
4597.4076954343572652
 21
322.3599469205435071
 31
0.0
  0
LINE
  5
AC7A
  8
0
 10
4597.5094480099896828
 20
322.359946910413214
 30
0.0
 11
4600.4076954516112892
 21
322.3599466218685166
 31
0.0
  0
LINE
  5
AC7B
  8
0
 10
4600.5094496975043512
 20
322.3599466117381098
 30
0.0
 11
4601.2400779937070183
 21
322.3599465389979173
 31
0.0
  0
LINE
  5
AC7C
  8
0
 10
4601.2400779937070183
 20
319.8264112473199248
 30
0.0
 11
4600.5094373532629106
 21
319.8264099602182
 31
0.0
  0
LINE
  5
AC7D
  8
0
 10
4600.4077087484047297
 20
319.8264097810122735
 30
0.0
 11
4597.5094352214382525
 21
319.8264046753930074
 31
0.0
  0
LINE
  5
AC7E
  8
0
 10
4597.4077087438354283
 20
319.8264044961908894
 30
0.0
 11
4594.5818297802070447
 21
319.826399518102221
 31
0.0
  0
ARC
  5
AC7F
  8
0
 10
4594.5816047308280758
 20
319.8963380647758754
 30
0.0
 40
0.0699389087564662
 50
179.1437393644094129
 51
270.1843666436164995
  0
LINE
  5
AC80
  8
0
 10
4598.0789876657581772
 20
318.9060183725022739
 30
0.0
 11
4598.0789769188068021
 21
319.740861025602328
 31
0.0
  0
ARC
  5
AC81
  8
0
 10
4598.1489464882679385
 20
319.7419197422203183
 30
0.0
 40
0.0699775787764331
 50
89.8713110401763799
 51
180.8668820694875023
  0
LINE
  5
AC82
  8
0
 10
4598.1491036609995717
 20
319.8118971444880003
 30
0.0
 11
4600.4077088245721825
 21
319.811896919624985
 31
0.0
  0
LINE
  5
AC83
  8
0
 10
4600.509437282552426
 20
319.8118969094970794
 30
0.0
 11
4601.2400779937070183
 21
319.8118968367558068
 31
0.0
  0
LINE
  5
AC84
  8
0
 10
4601.2400779937070183
 20
317.2783549056787251
 30
0.0
 11
4600.5094290608731171
 21
317.2783536185622779
 31
0.0
  0
LINE
  5
AC85
  8
0
 10
4590.9443147381070958
 20
317.3493332326021914
 30
0.0
 11
4590.9442960119658892
 21
318.8040138196226962
 31
0.0
  0
LINE
  5
AC86
  8
0
 10
4590.9442946988592666
 20
318.9060183725022739
 30
0.0
 11
4590.9442839519069821
 21
319.7408610830021871
 31
0.0
  0
ARC
  5
AC87
  8
0
 10
4591.014253521367209
 20
319.7419197996202911
 30
0.0
 40
0.0699775787764331
 50
89.8713110401763799
 51
180.8668820694875023
  0
LINE
  5
AC88
  8
0
 10
4591.0144106940997517
 20
319.8118972018879731
 30
0.0
 11
4597.4077088200501748
 21
319.8118965653819146
 31
0.0
  0
LINE
  5
AC89
  8
0
 10
4597.5094351482048296
 20
319.8118965552541795
 30
0.0
 11
4597.9950992263084117
 21
319.8118965069022011
 31
0.0
  0
ARC
  5
AC8A
  8
0
 10
4597.9953306184661415
 20
319.7419263013243267
 30
0.0
 40
0.0699705881849908
 50
359.1341344365857253
 51
90.1894770176523508
  0
LINE
  5
AC8B
  8
0
 10
4598.0652932169068663
 20
319.7408689317023232
 30
0.0
 11
4598.0652822474776258
 21
318.9060183725022739
 31
0.0
  0
LINE
  5
AC8C
  8
0
 10
4597.4077135789066233
 20
317.27836078048432
 30
0.0
 11
4591.0144708863072083
 21
317.2783495181021749
 31
0.0
  0
ARC
  5
AC8D
  8
0
 10
4591.0142458369282394
 20
317.3482880647758861
 30
0.0
 40
0.0699389087564662
 50
179.1437393644094129
 51
270.1843666436164995
  0
LINE
  5
AC8E
  8
0
 10
4583.8095721300060177
 20
317.3493331752022755
 30
0.0
 11
4583.8095534073527233
 21
318.8037428916737213
 31
0.0
  0
LINE
  5
AC8F
  8
0
 10
4583.8095520907581886
 20
318.9060183725022739
 30
0.0
 11
4583.8095504804568918
 21
319.0311095182088934
 31
0.0
  0
LINE
  5
AC90
  8
0
 10
4586.3558239537069312
 20
319.811896897965994
 30
0.0
 11
4586.5380408627715951
 21
319.8118968798249284
 31
0.0
  0
LINE
  5
AC91
  8
0
 10
4586.5911102778109125
 20
319.8118968745412758
 30
0.0
 11
4590.8603566182073337
 21
319.8118964495022851
 31
0.0
  0
ARC
  5
AC92
  8
0
 10
4590.8605880103668824
 20
319.7419262439241834
 30
0.0
 40
0.0699705881849908
 50
359.1341344365857253
 51
90.1894770176523508
  0
LINE
  5
AC93
  8
0
 10
4590.9305506088066977
 20
319.7408688743022935
 30
0.0
 11
4590.9305396393792762
 21
318.9060183725022739
 31
0.0
  0
LINE
  5
AC94
  8
0
 10
4590.9305382990942235
 20
318.804013297200413
 30
0.0
 11
4590.9305191855082739
 21
317.3493350842023233
 31
0.0
  0
ARC
  5
AC95
  8
0
 10
4590.8605978048690304
 20
317.3482905891302721
 30
0.0
 40
0.0699291816069565
 50
269.8186353982289916
 51
0.8558284741055247
  0
LINE
  5
AC96
  8
0
 10
4590.860376450747026
 20
317.2783617578621147
 30
0.0
 11
4583.8797282782070397
 21
317.2783494607023158
 31
0.0
  0
ARC
  5
AC97
  8
0
 10
4583.8795032288271614
 20
317.3482880073759134
 30
0.0
 40
0.0699389087564662
 50
179.1437393644094129
 51
270.1843666436164995
  0
LINE
  5
AC98
  8
0
 10
4580.2422132324863924
 20
314.8012845351793203
 30
0.0
 11
4580.2421824462862787
 21
317.192812385579316
 31
0.0
  0
ARC
  5
AC99
  8
0
 10
4580.3121520157474151
 20
317.1938711021973063
 30
0.0
 40
0.0699775787764331
 50
89.8713110401763799
 51
180.8668820694875023
  0
LINE
  5
AC9A
  8
0
 10
4580.3123091884799578
 20
317.263848504465102
 30
0.0
 11
4587.2929977206867989
 21
317.2638478094792731
 31
0.0
  0
ARC
  5
AC9B
  8
0
 10
4587.2932291128472571
 20
317.1938776039012851
 30
0.0
 40
0.0699705881849908
 50
359.1341344365857253
 51
90.1894770176523508
  0
LINE
  5
AC9C
  8
0
 10
4587.3631917112852534
 20
317.1928202342792815
 30
0.0
 11
4587.3631602879868296
 21
314.8012864441793113
 31
0.0
  0
ARC
  5
AC9D
  8
0
 10
4587.2932389073475861
 20
314.8002419491073738
 30
0.0
 40
0.0699291816069565
 50
269.8186353982289916
 51
0.8558284741055247
  0
LINE
  5
AC9E
  8
0
 10
4587.2930175532274006
 20
314.730313117838989
 30
0.0
 11
4580.3123693806874144
 21
314.7303008206793038
 31
0.0
  0
ARC
  5
AC9F
  8
0
 10
4580.3121443313066266
 20
314.800239367353015
 30
0.0
 40
0.0699389087564662
 50
179.1437393644094129
 51
270.1843666436164995
  0
LINE
  5
ACA0
  8
0
 10
4587.3769310236084493
 20
314.8012831752022862
 30
0.0
 11
4587.3769002374083357
 21
317.1928110256022251
 31
0.0
  0
ARC
  5
ACA1
  8
0
 10
4587.4468698068667436
 20
317.1938697422202722
 30
0.0
 40
0.0699775787764331
 50
89.8713110401763799
 51
180.8668820694875023
  0
LINE
  5
ACA2
  8
0
 10
4587.4470269796011053
 20
317.2638471444880111
 30
0.0
 11
4594.4277155118070368
 21
317.2638464495021822
 31
0.0
  0
ARC
  5
ACA3
  8
0
 10
4594.4279469039684045
 20
317.1938762439243078
 30
0.0
 40
0.0699705881849908
 50
359.1341344365857253
 51
90.1894770176523508
  0
LINE
  5
ACA4
  8
0
 10
4594.4979095024073104
 20
317.1928188743021906
 30
0.0
 11
4594.4978780791061581
 21
314.8012850842022772
 31
0.0
  0
ARC
  5
ACA5
  8
0
 10
4594.427956698469643
 20
314.8002405891303965
 30
0.0
 40
0.0699291816069565
 50
269.8186353982289916
 51
0.8558284741055247
  0
LINE
  5
ACA6
  8
0
 10
4594.4277353443458196
 20
314.7303117578620117
 30
0.0
 11
4587.4470871718067428
 21
314.7302994607022129
 31
0.0
  0
ARC
  5
ACA7
  8
0
 10
4587.446862122427774
 20
314.8002380073759241
 30
0.0
 40
0.0699389087564662
 50
179.1437393644094129
 51
270.1843666436164995
  0
LINE
  5
ACA8
  8
0
 10
4594.5116736320060227
 20
314.8012832326023158
 30
0.0
 11
4594.5116428458068185
 21
317.1928110830021978
 31
0.0
  0
ARC
  5
ACA9
  8
0
 10
4594.5816124152670454
 20
317.1938697996203018
 30
0.0
 40
0.0699775787764331
 50
89.8713110401763799
 51
180.8668820694875023
  0
LINE
  5
ACAA
  8
0
 10
4594.5817695880023166
 20
317.2638472018879838
 30
0.0
 11
4597.4077135789066233
 21
317.2638469205417096
 31
0.0
  0
LINE
  5
ACAB
  8
0
 10
4600.5094290622837434
 20
317.2638466117401208
 30
0.0
 11
4601.2400779937070183
 21
317.2638465389978819
 31
0.0
  0
LINE
  5
ACAC
  8
0
 10
4601.2400779937070183
 20
314.7303112473200031
 30
0.0
 11
4600.5094293083657249
 21
314.7303099602038969
 31
0.0
  0
LINE
  5
ACAD
  8
0
 10
4597.4077135789066233
 20
314.7303044961993805
 30
0.0
 11
4594.5818297802070447
 21
314.7302995181021856
 31
0.0
  0
ARC
  5
ACAE
  8
0
 10
4594.5816047308280758
 20
314.8002380647758969
 30
0.0
 40
0.0699389087564662
 50
179.1437393644094129
 51
270.1843666436164995
  0
LINE
  5
ACAF
  8
0
 10
4600.5094293097763511
 20
314.7157969669004274
 30
0.0
 11
4601.2400779937070183
 21
314.7157968941581885
 31
0.0
  0
LINE
  5
ACB0
  8
0
 10
4601.2400571720991138
 20
312.1822549629982859
 30
0.0
 11
4600.5094295558610611
 21
312.1822536759195259
 31
0.0
  0
LINE
  5
ACB1
  8
0
 10
4590.9442899138948633
 20
312.2532345352763059
 30
0.0
 11
4590.9442591276947496
 21
314.6447623856761879
 31
0.0
  0
ARC
  5
ACB2
  8
0
 10
4591.0142286971567955
 20
314.6458211022942919
 30
0.0
 40
0.0699775787764331
 50
89.8713110401763799
 51
180.8668820694875023
  0
LINE
  5
ACB3
  8
0
 10
4591.0143858698893382
 20
314.7157985045619739
 30
0.0
 11
4597.4077135789066233
 21
314.7157978680529027
 31
0.0
  0
LINE
  5
ACB4
  8
0
 10
4597.4077135789066233
 20
312.1822620832020903
 30
0.0
 11
4591.0144460620958853
 21
312.1822508207762894
 31
0.0
  0
ARC
  5
ACB5
  8
0
 10
4591.014221012716007
 20
312.2521893674500006
 30
0.0
 40
0.0699389087564662
 50
179.1437393644094129
 51
270.1843666436164995
  0
LINE
  5
ACB6
  8
0
 10
4583.8095969504065579
 20
312.2532332326023266
 30
0.0
 11
4583.8095661642073537
 21
314.6447610830022086
 31
0.0
  0
ARC
  5
ACB7
  8
0
 10
4583.8795357336666711
 20
314.6458197996203126
 30
0.0
 40
0.0699775787764331
 50
89.8713110401763799
 51
180.8668820694875023
  0
LINE
  5
ACB8
  8
0
 10
4583.8796929064010328
 20
314.7157972018879946
 30
0.0
 11
4590.8603814386069644
 21
314.7157965069022794
 31
0.0
  0
ARC
  5
ACB9
  8
0
 10
4590.8606128307674226
 20
314.6458263013242913
 30
0.0
 40
0.0699705881849908
 50
359.1341344365857253
 51
90.1894770176523508
  0
LINE
  5
ACBA
  8
0
 10
4590.9305754292072379
 20
314.6447689317022878
 30
0.0
 11
4590.9305440059069952
 21
312.2532351416023175
 31
0.0
  0
ARC
  5
ACBB
  8
0
 10
4590.8606226252686611
 20
312.25219064653038
 30
0.0
 40
0.0699291816069565
 50
269.8186353982289916
 51
0.8558284741055247
  0
LINE
  5
ACBC
  8
0
 10
4590.8604012711475661
 20
312.1822618152619953
 30
0.0
 11
4583.8797530986066704
 21
312.18224951810231
 31
0.0
  0
ARC
  5
ACBD
  8
0
 10
4583.8795280492267921
 20
312.2521880647760213
 30
0.0
 40
0.0699389087564662
 50
179.1437393644094129
 51
270.1843666436164995
  0
LINE
  5
ACBE
  8
0
 10
4580.2422380565067215
 20
309.7051832326022804
 30
0.0
 11
4580.2422072703056983
 21
312.0967110830022193
 31
0.0
  0
ARC
  5
ACBF
  8
0
 10
4580.3121768397668347
 20
312.0977697996203233
 30
0.0
 40
0.0699775787764331
 50
89.8713110401763799
 51
180.8668820694875023
  0
LINE
  5
ACC0
  8
0
 10
4580.3123340125011964
 20
312.1677472018880053
 30
0.0
 11
4587.293022544707128
 21
312.1677465069022901
 31
0.0
  0
ARC
  5
ACC1
  8
0
 10
4587.2932539368666767
 20
312.097776301324302
 30
0.0
 40
0.0699705881849908
 50
359.1341344365857253
 51
90.1894770176523508
  0
LINE
  5
ACC2
  8
0
 10
4587.3632165353074015
 20
312.0967189317022985
 30
0.0
 11
4587.3631851120071588
 21
309.7051851416023283
 31
0.0
  0
ARC
  5
ACC3
  8
0
 10
4587.2932637313688247
 20
309.7041406465303908
 30
0.0
 40
0.0699291816069565
 50
269.8186353982289916
 51
0.8558284741055247
  0
LINE
  5
ACC4
  8
0
 10
4587.2930423772459108
 20
309.634211815262006
 30
0.0
 11
4580.3123942047077435
 21
309.6341995181023208
 31
0.0
  0
ARC
  5
ACC5
  8
0
 10
4580.3121691553278652
 20
309.7041380647759183
 30
0.0
 40
0.0699389087564662
 50
179.1437393644094129
 51
270.1843666436164995
  0
LINE
  5
ACC6
  8
0
 10
4587.3769310236084493
 20
309.705183175202194
 30
0.0
 11
4587.3769002374083357
 21
312.0967110256021897
 31
0.0
  0
ARC
  5
ACC7
  8
0
 10
4587.4468698068667436
 20
312.0977697422202937
 30
0.0
 40
0.0699775787764331
 50
89.8713110401763799
 51
180.8668820694875023
  0
LINE
  5
ACC8
  8
0
 10
4587.4470269796011053
 20
312.1677471444879757
 30
0.0
 11
4594.4277155118070368
 21
312.1677464495022036
 31
0.0
  0
ARC
  5
ACC9
  8
0
 10
4594.4279469039684045
 20
312.0977762439242724
 30
0.0
 40
0.0699705881849908
 50
359.1341344365857253
 51
90.1894770176523508
  0
LINE
  5
ACCA
  8
0
 10
4594.4979095024073104
 20
312.0967188743023257
 30
0.0
 11
4594.4978780791061581
 21
309.7051850842022986
 31
0.0
  0
ARC
  5
ACCB
  8
0
 10
4594.427956698469643
 20
309.704140589130418
 30
0.0
 40
0.0699291816069565
 50
269.8186353982289916
 51
0.8558284741055247
  0
LINE
  5
ACCC
  8
0
 10
4594.4277353443458196
 20
309.6342117578619764
 30
0.0
 11
4590.9869904818142459
 21
309.6342056966212795
 31
0.0
  0
LINE
  5
ACCD
  8
0
 10
4590.9348916766066395
 20
309.6342056048436007
 30
0.0
 11
4590.8767704993733787
 21
309.6342055024570072
 31
0.0
  0
LINE
  5
ACCE
  8
0
 10
4590.8246537031345724
 20
309.6342054106476098
 30
0.0
 11
4587.4470871718067428
 21
309.6341994607021775
 31
0.0
  0
ARC
  5
ACCF
  8
0
 10
4587.446862122427774
 20
309.7041380073758887
 30
0.0
 40
0.0699389087564662
 50
179.1437393644094129
 51
270.1843666436164995
  0
LINE
  5
ACD0
  8
0
 10
4594.5116488074991139
 20
309.7051845352099804
 30
0.0
 11
4594.5116180212990002
 21
312.0967123856099761
 31
0.0
  0
ARC
  5
ACD1
  8
0
 10
4594.5815875907601367
 20
312.0977711022280801
 30
0.0
 40
0.0699775787764331
 50
89.8713110401763799
 51
180.8668820694875023
  0
LINE
  5
ACD2
  8
0
 10
4594.5817447634926793
 20
312.1677485044958189
 30
0.0
 11
4597.4077135789066233
 21
312.1677482231469867
 31
0.0
  0
LINE
  5
ACD3
  8
0
 10
4600.5094295572689589
 20
312.1677479143452842
 30
0.0
 11
4601.2400569992678356
 21
312.1677478416053191
 31
0.0
  0
LINE
  5
ACD4
  8
0
 10
4601.2400268157980463
 20
309.6342125498812834
 30
0.0
 11
4600.5094298033518498
 21
309.6342112628564109
 31
0.0
  0
LINE
  5
ACD5
  8
0
 10
4597.4077135789066233
 20
309.6342057988509282
 30
0.0
 11
4594.5818049556992264
 21
309.6342008207100207
 31
0.0
  0
ARC
  5
ACD6
  8
0
 10
4594.5815799063202576
 20
309.7041393673836751
 30
0.0
 40
0.0699389087564662
 50
179.1437393644094129
 51
270.1843666436164995
  0
LINE
  5
ACD7
  8
0
 10
4600.5094298047615666
 20
309.6196969669002783
 30
0.0
 11
4601.2400266428639952
 21
309.6196968941633259
 31
0.0
  0
LINE
  5
ACD8
  8
0
 10
4601.2399964593150798
 20
307.0861549628913281
 30
0.0
 11
4600.5094300508480956
 21
307.0861536759204
 31
0.0
  0
ARC
  5
ACD9
  8
0
 10
4591.0142535114828206
 20
309.5497235609295217
 30
0.0
 40
0.0699775787764331
 50
89.8713110401763799
 51
112.9295668230474945
  0
LINE
  5
ACDA
  8
0
 10
4591.0144106842153633
 20
309.6197009631973174
 30
0.0
 11
4597.4077135789066233
 21
309.6197003266906904
 31
0.0
  0
LINE
  5
ACDB
  8
0
 10
4597.4077135789066233
 20
307.0861645417934938
 30
0.0
 11
4591.0144708764219104
 21
307.0861532794115192
 31
0.0
  0
ARC
  5
ACDC
  8
0
 10
4591.014245827042032
 20
307.1560918260851736
 30
0.0
 40
0.0699389087564662
 50
247.0432999840618038
 51
270.1843666436164995
  0
LINE
  5
ACDD
  8
0
 10
4583.8095705339574124
 20
307.2811095182088934
 30
0.0
 11
4583.8095682821840455
 21
307.4560312585518886
 31
0.0
  0
LINE
  5
ACDE
  8
0
 10
4583.8095676019329403
 20
307.5088744594528976
 30
0.0
 11
4583.8095413437067691
 21
309.5486610256022004
 31
0.0
  0
ARC
  5
ACDF
  8
0
 10
4583.8795109131679055
 20
309.5497197422203044
 30
0.0
 40
0.0699775787764331
 50
89.8713110401763799
 51
180.8668820694875023
  0
LINE
  5
ACE0
  8
0
 10
4583.8796680859013577
 20
309.6196971444879864
 30
0.0
 11
4590.8246535705748101
 21
309.6196964530568039
 31
0.0
  0
ARC
  5
ACE1
  8
0
 10
4590.8605880102677474
 20
309.5497262439242832
 30
0.0
 40
0.0699705881849908
 50
359.1341344365857253
 51
76.6279477114503749
  0
LINE
  5
ACE2
  8
0
 10
4590.9305506087075628
 20
309.5486688743022796
 30
0.0
 11
4590.93051918540732
 21
307.1571350842023094
 31
0.0
  0
ARC
  5
ACE3
  8
0
 10
4590.8605978047698954
 20
307.1560905891303719
 30
0.0
 40
0.0699291816069565
 50
283.3517440044478803
 51
0.8558284741055247
  0
LINE
  5
ACE4
  8
0
 10
4590.8246304229332964
 20
307.086161694891473
 30
0.0
 11
4586.6161576723252438
 21
307.0861542812158973
 31
0.0
  0
LINE
  5
ACE5
  8
0
 10
4586.5125656989775962
 20
307.0861540987274907
 30
0.0
 11
4586.3558239537069312
 21
307.086153822610072
 31
0.0
  0
LINE
  5
ACE6
  8
0
 10
4586.3558239537069312
 20
307.0716465428056949
 30
0.0
 11
4586.5125618986958216
 21
307.0716465272012101
 31
0.0
  0
LINE
  5
ACE7
  8
0
 10
4586.6161618053893108
 20
307.0716465168869718
 30
0.0
 11
4587.2929977241083179
 21
307.0716464495022819
 31
0.0
  0
ARC
  5
ACE8
  8
0
 10
4587.2932291162678666
 20
307.0016762439242939
 30
0.0
 40
0.0699705881849908
 50
359.1341344365857253
 51
90.1894770176523508
  0
LINE
  5
ACE9
  8
0
 10
4587.3631917147067725
 20
307.0006188743022904
 30
0.0
 11
4587.3631602914074392
 21
304.6090850842023201
 31
0.0
  0
ARC
  5
ACEA
  8
0
 10
4587.2932389107700146
 20
304.6080405891303826
 30
0.0
 40
0.0699291816069565
 50
269.8186353982289916
 51
0.8558284741055247
  0
LINE
  5
ACEB
  8
0
 10
4587.2930175566471007
 20
304.5381117578619978
 30
0.0
 11
4586.5911448169063078
 21
304.5381105214378863
 31
0.0
  0
LINE
  5
ACEC
  8
0
 10
4586.5380464061099701
 20
304.5381104278994258
 30
0.0
 11
4586.3558239537069312
 21
304.5381101068949761
 31
0.0
  0
LINE
  5
ACED
  8
0
 10
4587.376931020065058
 20
304.6090845351279768
 30
0.0
 11
4587.3769002338649443
 21
307.0006123855279156
 31
0.0
  0
ARC
  5
ACEE
  8
0
 10
4587.4468698033260807
 20
307.0016711021460196
 30
0.0
 40
0.0699775787764331
 50
89.8713110401763799
 51
180.8668820694875023
  0
LINE
  5
ACEF
  8
0
 10
4587.4470269760577139
 20
307.0716485044137016
 30
0.0
 11
4590.8246302903298783
 21
307.0716481681450887
 31
0.0
  0
LINE
  5
ACF0
  8
0
 10
4590.8767462925279688
 20
307.0716481629565919
 30
0.0
 11
4590.9348675426008413
 21
307.0716481571701024
 31
0.0
  0
LINE
  5
ACF1
  8
0
 10
4590.9869669954359779
 20
307.0716481519831973
 30
0.0
 11
4594.427715508264555
 21
307.0716478094279864
 31
0.0
  0
ARC
  5
ACF2
  8
0
 10
4594.4279469004250132
 20
307.0016776038498847
 30
0.0
 40
0.0699705881849908
 50
359.1341344365857253
 51
90.1894770176523508
  0
LINE
  5
ACF3
  8
0
 10
4594.4979094988648285
 20
307.0006202342279948
 30
0.0
 11
4594.4978780755636762
 21
304.6090864441280246
 31
0.0
  0
ARC
  5
ACF4
  8
0
 10
4594.4279566949271612
 20
304.6080419490560871
 30
0.0
 40
0.0699291816069565
 50
269.8186353982289916
 51
0.8558284741055247
  0
LINE
  5
ACF5
  8
0
 10
4594.4277353408051567
 20
304.5381131177877023
 30
0.0
 11
4590.9869437750030556
 21
304.5381070564646961
 31
0.0
  0
LINE
  5
ACF6
  8
0
 10
4590.9348436818681876
 20
304.5381069646846868
 30
0.0
 11
4590.8767223597787961
 21
304.5381068622978091
 31
0.0
  0
LINE
  5
ACF7
  8
0
 10
4590.8246071426283379
 20
304.5381067704913107
 30
0.0
 11
4587.4470871682651705
 21
304.5381008206279034
 31
0.0
  0
ARC
  5
ACF8
  8
0
 10
4587.4468621188862016
 20
304.6080393673016147
 30
0.0
 40
0.0699389087564662
 50
179.1437393644094129
 51
270.1843666436164995
  0
LINE
  5
ACF9
  8
0
 10
4594.5116488078483599
 20
304.6090845351963026
 30
0.0
 11
4594.5116180216473367
 21
307.0006123855962983
 31
0.0
  0
ARC
  5
ACFA
  8
0
 10
4594.5815875911075636
 20
307.0016711022144023
 30
0.0
 40
0.0699775787764331
 50
89.8713110401763799
 51
180.8668820694875023
  0
LINE
  5
ACFB
  8
0
 10
4594.5817447638410158
 20
307.0716485044821979
 30
0.0
 11
4597.4077135789066233
 21
307.0716482231333089
 31
0.0
  0
LINE
  5
ACFC
  8
0
 10
4600.5094300522550839
 20
307.0716479143316064
 30
0.0
 11
4601.2399962864838017
 21
307.0716478415977235
 31
0.0
  0
LINE
  5
ACFD
  8
0
 10
4601.2399661030140123
 20
304.5381125497606263
 30
0.0
 11
4600.5094302983397938
 21
304.5381112628435858
 31
0.0
  0
LINE
  5
ACFE
  8
0
 10
4597.4077135789066233
 20
304.5381057988371936
 30
0.0
 11
4594.5818049560475629
 21
304.5381008206962861
 31
0.0
  0
ARC
  5
ACFF
  8
0
 10
4594.581579906668594
 20
304.6080393673699973
 30
0.0
 40
0.0699389087564662
 50
179.1437393644094129
 51
270.1843666436164995
  0
LINE
  5
AD00
  8
0
 10
4586.3558239537069312
 20
304.5235969553684754
 30
0.0
 11
4586.5380464705258419
 21
304.5235969372267846
 31
0.0
  0
LINE
  5
AD01
  8
0
 10
4586.5911448155311518
 20
304.5235969319402898
 30
0.0
 11
4590.8246070100549332
 21
304.5235965104639035
 31
0.0
  0
ARC
  5
AD02
  8
0
 10
4590.8606128307674226
 20
304.4536263013242774
 30
0.0
 40
0.0699705881849908
 50
359.1341344365857253
 51
76.6893483871731263
  0
LINE
  5
AD03
  8
0
 10
4590.9305754292072379
 20
304.4525689317022739
 30
0.0
 11
4590.9305440059069952
 21
302.0610351416021899
 31
0.0
  0
ARC
  5
AD04
  8
0
 10
4590.8606226252686611
 20
302.0599906465303093
 30
0.0
 40
0.0699291816069565
 50
283.2903118609867761
 51
0.8558284741055247
  0
LINE
  5
AD05
  8
0
 10
4590.8245838624134194
 20
301.9900617521657864
 30
0.0
 11
4586.5911445756009925
 21
301.9900542945089228
 31
0.0
  0
LINE
  5
AD06
  8
0
 10
4586.5380577152664046
 20
301.9900542009906985
 30
0.0
 11
4586.3558239537069312
 21
301.9900538799664105
 31
0.0
  0
ARC
  5
AD07
  8
0
 10
4591.014253521367209
 20
304.4536197996202986
 30
0.0
 40
0.0699775787764331
 50
89.8713110401763799
 51
112.9711054657879004
  0
LINE
  5
AD08
  8
0
 10
4591.0144106940997517
 20
304.5235972018879806
 30
0.0
 11
4597.4077135789066233
 21
304.5235965653814105
 31
0.0
  0
LINE
  5
AD09
  8
0
 10
4597.4077135789066233
 20
301.9900607804843276
 30
0.0
 11
4591.0144708863072083
 21
301.9900495181022961
 31
0.0
  0
ARC
  5
AD0A
  8
0
 10
4591.0142458369282394
 20
302.0599880647758937
 30
0.0
 40
0.0699389087564662
 50
247.0017303514655111
 51
270.1843666436164995
  0
LINE
  5
AD0B
  8
0
 10
4600.5094302997504201
 20
304.5235969669002998
 30
0.0
 11
4601.2399659300790518
 21
304.5235968941693727
 31
0.0
  0
LINE
  5
AD0C
  8
0
 10
4601.2399357465310459
 20
301.9900549627844271
 30
0.0
 11
4600.509430545833311
 21
301.9900536759212173
 31
0.0
  0
LINE
  5
AD0D
  8
0
 10
4594.5116486180922948
 20
301.4561095182089048
 30
0.0
 11
4594.5116470020329871
 21
301.5816478958374773
 31
0.0
  0
LINE
  5
AD0E
  8
0
 10
4594.5116456906507665
 20
301.68351837380078
 30
0.0
 11
4594.5116428458068185
 21
301.9045110830023191
 31
0.0
  0
ARC
  5
AD0F
  8
0
 10
4594.5816124152670454
 20
301.9055697996201957
 30
0.0
 40
0.0699775787764331
 50
89.8713110401763799
 51
180.8668820694875023
  0
LINE
  5
AD10
  8
0
 10
4594.5817695880023166
 20
301.9755472018879914
 30
0.0
 11
4597.4077135789066233
 21
301.9755469205417739
 31
0.0
  0
LINE
  5
AD11
  8
0
 10
4600.5094305472421183
 20
301.9755466117400147
 30
0.0
 11
4601.2399355736843063
 21
301.9755465390121003
 31
0.0
  0
LINE
  5
AD12
  8
0
 10
4601.239905390212698
 20
299.4420112470158983
 30
0.0
 11
4600.509488747567957
 21
299.4420099603087237
 31
0.0
  0
LINE
  5
AD13
  8
0
 10
4600.4076925523759201
 20
299.4420097809838239
 30
0.0
 11
4598.8405198727587049
 21
299.4420070202411921
 31
0.0
  0
LINE
  5
AD14
  8
0
 10
4598.7874506339430809
 20
299.442006926754118
 30
0.0
 11
4598.6055766959070752
 21
299.4420066063635772
 31
0.0
  0
LINE
  5
AD15
  8
0
 10
4587.376930830290803
 20
301.4561095182089048
 30
0.0
 11
4587.3769292177403258
 21
301.5813754914383935
 31
0.0
  0
LINE
  5
AD16
  8
0
 10
4587.3769279028520032
 20
301.6835183733372219
 30
0.0
 11
4587.3769250580071457
 21
301.9045110830023191
 31
0.0
  0
ARC
  5
AD17
  8
0
 10
4587.4468946274682821
 20
301.9055697996201957
 30
0.0
 40
0.0699775787764331
 50
89.8713110401763799
 51
180.8668820694875023
  0
LINE
  5
AD18
  8
0
 10
4587.4470518001999153
 20
301.9755472018879914
 30
0.0
 11
4590.824583729798178
 21
301.9755468656264839
 31
0.0
  0
LINE
  5
AD19
  8
0
 10
4590.8766981529097393
 20
301.9755468604381008
 30
0.0
 11
4590.9348195478378329
 21
301.975546854651725
 31
0.0
  0
LINE
  5
AD1A
  8
0
 10
4590.9869202886011408
 20
301.9755468494645925
 30
0.0
 11
4594.4277403324058469
 21
301.9755465069022762
 31
0.0
  0
ARC
  5
AD1B
  8
0
 10
4594.4279717245672146
 20
301.9055763013241744
 30
0.0
 40
0.0699705881849908
 50
359.1341344365857253
 51
90.1894770176523508
  0
LINE
  5
AD1C
  8
0
 10
4594.4979343230070299
 20
301.9045189317022846
 30
0.0
 11
4594.4979314191932644
 21
301.6835183737999273
 31
0.0
  0
LINE
  5
AD1D
  8
0
 10
4594.497930080669903
 20
301.5816473721237116
 30
0.0
 11
4594.4979284311802985
 21
301.4561095182089048
 31
0.0
  0
LINE
  5
AD1E
  8
0
 10
4580.2421882182952686
 20
301.4561095182089048
 30
0.0
 11
4580.2421866092490745
 21
301.5811030860916162
 31
0.0
  0
LINE
  5
AD1F
  8
0
 10
4580.2421852908528308
 20
301.6835183728737206
 30
0.0
 11
4580.2421840345614328
 21
301.7811095182088934
 31
0.0
  0
LINE
  5
AD20
  8
0
 10
4586.3558239537069312
 20
301.9755479027239176
 30
0.0
 11
4586.5380577796513535
 21
301.9755478845809762
 31
0.0
  0
LINE
  5
AD21
  8
0
 10
4586.591144574226746
 20
301.9755478792957888
 30
0.0
 11
4587.2929977203930321
 21
301.9755478094205046
 31
0.0
  0
ARC
  5
AD22
  8
0
 10
4587.2932291125516713
 20
301.9055776038424028
 30
0.0
 40
0.0699705881849908
 50
359.1341344365857253
 51
90.1894770176523508
  0
LINE
  5
AD23
  8
0
 10
4587.3631917109923961
 20
301.9045202342203993
 30
0.0
 11
4587.3631888071622598
 21
301.6835183733363124
 31
0.0
  0
LINE
  5
AD24
  8
0
 10
4587.3631874650600366
 20
301.5813749667765933
 30
0.0
 11
4587.3631858191492938
 21
301.4561095182089048
 31
0.0
  0
LINE
  5
AD25
  8
0
 10
4598.6055766959070752
 20
299.4274970990422844
 30
0.0
 11
4598.7874506340067455
 21
299.4274970809353249
 31
0.0
  0
LINE
  5
AD26
  8
0
 10
4598.8405198735363228
 20
299.427497075651786
 30
0.0
 11
4600.4076924097407755
 21
299.4274969196267193
 31
0.0
  0
LINE
  5
AD27
  8
0
 10
4600.5094887924169598
 20
299.4274969094919925
 30
0.0
 11
4601.2399052172950178
 21
299.4274968367728889
 31
0.0
  0
LINE
  5
AD28
  8
0
 10
4601.2398750337461024
 20
296.893954905321209
 30
0.0
 11
4600.5094966217484398
 21
296.8939536186812802
 31
0.0
  0
LINE
  5
AD29
  8
0
 10
4600.4076675095948303
 20
296.8939534392985138
 30
0.0
 11
4598.8690783037245637
 21
296.8939507289086919
 31
0.0
  0
LINE
  5
AD2A
  8
0
 10
4598.7659152872256527
 20
296.8939505471760185
 30
0.0
 11
4598.6055766959070752
 21
296.8939502647223776
 31
0.0
  0
LINE
  5
AD2B
  8
0
 10
4594.5116736320060227
 20
294.416883232602288
 30
0.0
 11
4594.5116566626420536
 21
295.7350943038936748
 31
0.0
  0
LINE
  5
AD2C
  8
0
 10
4594.5116559808247985
 20
295.7880590675883923
 30
0.0
 11
4594.5116538175070673
 21
295.9561095182089048
 31
0.0
  0
LINE
  5
AD2D
  8
0
 10
4598.6055766959070752
 20
296.8794468012844732
 30
0.0
 11
4598.7659054901787385
 21
296.8794467853223864
 31
0.0
  0
LINE
  5
AD2E
  8
0
 10
4598.8690783037518486
 20
296.8794467750507238
 30
0.0
 11
4600.4076673670188029
 21
296.8794466218714092
 31
0.0
  0
LINE
  5
AD2F
  8
0
 10
4600.5094966665783431
 20
296.8794466117333855
 30
0.0
 11
4601.2398748608993628
 21
296.8794465390180903
 31
0.0
  0
LINE
  5
AD30
  8
0
 10
4601.239844677428664
 20
294.3459112469088836
 30
0.0
 11
4600.5095044958889048
 21
294.345909960336428
 31
0.0
  0
LINE
  5
AD31
  8
0
 10
4600.4076424669383414
 20
294.3459097808956244
 30
0.0
 11
4594.5818297802070447
 21
294.3458995181023283
 31
0.0
  0
ARC
  5
AD32
  8
0
 10
4594.5816047308280758
 20
294.4158380647759259
 30
0.0
 40
0.0699389087564662
 50
179.1437393644094129
 51
270.1843666436164995
  0
LINE
  5
AD33
  8
0
 10
4587.3769558442072594
 20
294.416883232602288
 30
0.0
 11
4587.3769388748405618
 21
295.7350943038936748
 31
0.0
  0
LINE
  5
AD34
  8
0
 10
4587.3769381967676964
 20
295.7877683537665803
 30
0.0
 11
4587.3769360297073945
 21
295.9561095182089048
 31
0.0
  0
LINE
  5
AD35
  8
0
 10
4594.4979231241786692
 20
295.9561095182089048
 30
0.0
 11
4594.4979209160919709
 21
295.7880585079344087
 31
0.0
  0
LINE
  5
AD36
  8
0
 10
4594.4979202201739099
 20
295.7350943038936748
 30
0.0
 11
4594.4979028997067871
 21
294.416885141602279
 31
0.0
  0
ARC
  5
AD37
  8
0
 10
4594.427981519070272
 20
294.4158406465302846
 30
0.0
 40
0.0699291816069565
 50
269.8186353982289916
 51
0.8558284741055247
  0
LINE
  5
AD38
  8
0
 10
4594.4277601649473581
 20
294.3459118152620135
 30
0.0
 11
4590.9868503613415669
 21
294.3459057537306762
 31
0.0
  0
LINE
  5
AD39
  8
0
 10
4590.9347476923539944
 20
294.3459056619462899
 30
0.0
 11
4590.8766260805550701
 21
294.345905559558787
 31
0.0
  0
LINE
  5
AD3A
  8
0
 10
4590.8245140215758511
 20
294.3459054677579161
 30
0.0
 11
4587.4471119924073719
 21
294.3458995181023283
 31
0.0
  0
ARC
  5
AD3B
  8
0
 10
4587.446886943026584
 20
294.4158380647759259
 30
0.0
 40
0.0699389087564662
 50
179.1437393644094129
 51
270.1843666436164995
  0
LINE
  5
AD3C
  8
0
 10
4580.2422380565067215
 20
294.416883232602288
 30
0.0
 11
4580.2422210871418429
 21
295.7350943038936748
 31
0.0
  0
LINE
  5
AD3D
  8
0
 10
4580.2422204128088197
 20
295.7874776399448251
 30
0.0
 11
4580.2422182420059471
 21
295.9561095182089048
 31
0.0
  0
LINE
  5
AD3E
  8
0
 10
4587.3632053364799503
 20
295.9561095182089048
 30
0.0
 11
4587.3632031245715552
 21
295.7877677941123125
 31
0.0
  0
LINE
  5
AD3F
  8
0
 10
4587.3632024324742815
 20
295.7350943038936748
 30
0.0
 11
4587.3631851120071588
 21
294.416885141602279
 31
0.0
  0
ARC
  5
AD40
  8
0
 10
4587.2932637313688247
 20
294.4158406465302846
 30
0.0
 40
0.0699291816069565
 50
269.8186353982289916
 51
0.8558284741055247
  0
LINE
  5
AD41
  8
0
 10
4587.2930423772459108
 20
294.3459118152620135
 30
0.0
 11
4580.3123942047077435
 21
294.3458995181023283
 31
0.0
  0
ARC
  5
AD42
  8
0
 10
4580.3121691553278652
 20
294.4158380647759259
 30
0.0
 40
0.0699389087564662
 50
179.1437393644094129
 51
270.1843666436164995
  0
LINE
  5
AD43
  8
0
 10
4583.8095969504065579
 20
291.8688332326022987
 30
0.0
 11
4583.8095661642073537
 21
294.2603610830022944
 31
0.0
  0
ARC
  5
AD44
  8
0
 10
4583.8795357336666711
 20
294.2614197996202847
 30
0.0
 40
0.0699775787764331
 50
89.8713110401763799
 51
180.8668820694875023
  0
LINE
  5
AD45
  8
0
 10
4583.8796929064010328
 20
294.3313972018880236
 30
0.0
 11
4590.8245138890151793
 21
294.3313965104732119
 31
0.0
  0
ARC
  5
AD46
  8
0
 10
4590.8606128307674226
 20
294.2614263013243203
 30
0.0
 40
0.0699705881849908
 50
359.1341344365857253
 51
76.7703498030040095
  0
LINE
  5
AD47
  8
0
 10
4590.9305754292072379
 20
294.2603689317023168
 30
0.0
 11
4590.9305440059069952
 21
291.8688351416022897
 31
0.0
  0
ARC
  5
AD48
  8
0
 10
4590.8606226252686611
 20
291.8677906465302954
 30
0.0
 40
0.0699291816069565
 50
283.2092689084748258
 51
0.8558284741055247
  0
LINE
  5
AD49
  8
0
 10
4590.8244907413736655
 20
291.7978617520017792
 30
0.0
 11
4587.8386024031642592
 21
291.7978564920395002
 31
0.0
  0
LINE
  5
AD4A
  8
0
 10
4587.6926197459506511
 20
291.7978562348753826
 30
0.0
 11
4587.521150965841116
 21
291.7978559328147981
 31
0.0
  0
LINE
  5
AD4B
  8
0
 10
4587.3744499297617949
 20
291.7978556743851755
 30
0.0
 11
4583.8797530986066704
 21
291.7978495181022254
 31
0.0
  0
ARC
  5
AD4C
  8
0
 10
4583.8795280492267921
 20
291.8677880647758798
 30
0.0
 40
0.0699389087564662
 50
179.1437393644094129
 51
270.1843666436164995
  0
ARC
  5
AD4D
  8
0
 10
4591.0142535116647196
 20
294.2614235609644879
 30
0.0
 40
0.0699775787764331
 50
89.8713110401763799
 51
113.0541947741772049
  0
LINE
  5
AD4E
  8
0
 10
4591.0144106843972622
 20
294.3314009632322836
 30
0.0
 11
4597.9950992166031938
 21
294.3314002682466253
 31
0.0
  0
ARC
  5
AD4F
  8
0
 10
4597.995330608763652
 20
294.2614300626685235
 30
0.0
 40
0.0699705881849908
 50
359.1341344365857253
 51
90.1894770176523508
  0
LINE
  5
AD50
  8
0
 10
4598.0652932072052863
 20
294.26037269304652
 30
0.0
 11
4598.0652617839032246
 21
291.8688389029464929
 31
0.0
  0
ARC
  5
AD51
  8
0
 10
4597.9953404032667095
 20
291.8677944078746123
 30
0.0
 40
0.0699291816069565
 50
269.8186353982289916
 51
0.8558284741055247
  0
LINE
  5
AD52
  8
0
 10
4597.9951190491437956
 20
291.7978655766062843
 30
0.0
 11
4591.0144708766038093
 21
291.7978532794465991
 31
0.0
  0
ARC
  5
AD53
  8
0
 10
4591.014245827223931
 20
291.8677918261201967
 30
0.0
 40
0.0699389087564662
 50
246.9185789771593136
 51
270.1843666436164995
  0
LINE
  5
AD54
  8
0
 10
4598.0790077018464217
 20
291.8688345351745852
 30
0.0
 11
4598.0789769156472175
 21
294.2603623855745241
 31
0.0
  0
ARC
  5
AD55
  8
0
 10
4598.1489464851074445
 20
294.2614211021925144
 30
0.0
 40
0.0699775787764331
 50
89.8713110401763799
 51
180.8668820694875023
  0
LINE
  5
AD56
  8
0
 10
4598.1491036578390776
 20
294.3313985044603101
 30
0.0
 11
4600.4076423243159297
 21
294.3313982796038886
 31
0.0
  0
LINE
  5
AD57
  8
0
 10
4600.5095045407342695
 20
294.3313982694626816
 30
0.0
 11
4601.2398445045273547
 21
294.3313981967513087
 31
0.0
  0
LINE
  5
AD58
  8
0
 10
4601.2398143209793488
 20
291.7978562651865104
 30
0.0
 11
4598.1491638500456247
 21
291.7978508206746255
 31
0.0
  0
ARC
  5
AD59
  8
0
 10
4598.1489388006675654
 20
291.8677893673482231
 30
0.0
 40
0.0699389087564662
 50
179.1437393644094129
 51
270.1843666436164995
  0
LINE
  5
AD5A
  8
0
 10
4594.5116488084322555
 20
289.3207845352692971
 30
0.0
 11
4594.5116180222321418
 21
291.7123123856692928
 31
0.0
  0
ARC
  5
AD5B
  8
0
 10
4594.5815875916932782
 20
291.7133711022873968
 30
0.0
 40
0.0699775787764331
 50
89.8713110401763799
 51
180.8668820694875023
  0
LINE
  5
AD5C
  8
0
 10
4594.5817447644258209
 20
291.7833485045550788
 30
0.0
 11
4601.2398141481316998
 21
291.7833478416887942
 31
0.0
  0
LINE
  5
AD5D
  8
0
 10
4601.2397839646600914
 20
289.2498125495127965
 30
0.0
 11
4594.581804956632368
 21
289.2498008207692806
 31
0.0
  0
ARC
  5
AD5E
  8
0
 10
4594.5815799072533991
 20
289.3197393674429918
 30
0.0
 40
0.0699389087564662
 50
179.1437393644094129
 51
270.1843666436164995
  0
LINE
  5
AD5F
  8
0
 10
4580.2422380565067215
 20
289.3207832326023095
 30
0.0
 11
4580.2422072703056983
 21
291.7123110830021915
 31
0.0
  0
ARC
  5
AD60
  8
0
 10
4580.3121768397668347
 20
291.7133697996202955
 30
0.0
 40
0.0699775787764331
 50
89.8713110401763799
 51
180.8668820694875023
  0
LINE
  5
AD61
  8
0
 10
4580.3123340125011964
 20
291.7833472018879775
 30
0.0
 11
4587.293022544707128
 21
291.7833465069023191
 31
0.0
  0
ARC
  5
AD62
  8
0
 10
4587.2932539368666767
 20
291.7133763013242742
 30
0.0
 40
0.0699705881849908
 50
46.9031307970959332
 51
90.1894770176523508
  0
LINE
  5
AD63
  8
0
 10
4587.3632155808172683
 20
291.6396756308130875
 30
0.0
 11
4587.3631851120071588
 21
289.3207851416023004
 31
0.0
  0
ARC
  5
AD64
  8
0
 10
4587.2932637313688247
 20
289.3197406465304198
 30
0.0
 40
0.0699291816069565
 50
269.8186353982289916
 51
0.8558284741055247
  0
LINE
  5
AD65
  8
0
 10
4587.2930423772459108
 20
289.2498118152619782
 30
0.0
 11
4580.3123942047077435
 21
289.2497995181021793
 31
0.0
  0
ARC
  5
AD66
  8
0
 10
4580.3121691553278652
 20
289.3197380647758905
 30
0.0
 40
0.0699389087564662
 50
179.1437393644094129
 51
270.1843666436164995
  0
LINE
  5
AD67
  8
0
 10
4587.3769480432365526
 20
289.3218277276741901
 30
0.0
 11
4587.3769180288563803
 21
291.6533993278076196
 31
0.0
  0
LINE
  5
AD68
  8
0
 10
4587.5077075711778889
 20
291.7843916909204154
 30
0.0
 11
4587.7060954238004342
 21
291.7843916711692032
 31
0.0
  0
LINE
  5
AD69
  8
0
 10
4587.8520637097235522
 20
291.7843916566367852
 30
0.0
 11
4590.824490618301752
 21
291.7843913607069908
 31
0.0
  0
LINE
  5
AD6A
  8
0
 10
4590.8766018835640352
 20
291.7843913555187783
 30
0.0
 11
4590.9347235681725579
 21
291.7843913497322887
 31
0.0
  0
LINE
  5
AD6B
  8
0
 10
4590.9868268845257262
 20
291.7843913445449857
 30
0.0
 11
4594.4277325314378686
 21
291.7843910019741998
 31
0.0
  0
ARC
  5
AD6C
  8
0
 10
4594.4279639235992363
 20
291.7144207963962117
 30
0.0
 40
0.0699705881849908
 50
359.1341344365857253
 51
90.1894770176523508
  0
LINE
  5
AD6D
  8
0
 10
4594.4979265220381421
 20
291.7133634267742082
 30
0.0
 11
4594.4978950987369899
 21
289.3218296366741811
 31
0.0
  0
ARC
  5
AD6E
  8
0
 10
4594.4279737180995653
 20
289.3207851416023004
 30
0.0
 40
0.0699291816069565
 50
269.8186353982289916
 51
0.8558284741055247
  0
LINE
  5
AD6F
  8
0
 10
4594.4277523639766514
 20
289.2508563103339156
 30
0.0
 11
4590.986803664089166
 21
289.250850248734082
 31
0.0
  0
LINE
  5
AD70
  8
0
 10
4590.9346997074408137
 20
289.250850156947422
 30
0.0
 11
4590.8765779508148626
 21
289.2508500545596917
 31
0.0
  0
LINE
  5
AD71
  8
0
 10
4590.824467470599302
 20
289.2508499627614924
 30
0.0
 11
4587.4471041914366651
 21
289.2508440131741736
 31
0.0
  0
ARC
  5
AD72
  8
0
 10
4587.4468791420586058
 20
289.320782559847828
 30
0.0
 40
0.0699389087564662
 50
179.1437393644094129
 51
270.1843666436164995
  0
LINE
  5
AD73
  8
0
 10
4583.8095969504065579
 20
286.7727332326023202
 30
0.0
 11
4583.8095661642073537
 21
289.1642610830022022
 31
0.0
  0
ARC
  5
AD74
  8
0
 10
4583.8795357336666711
 20
289.1653197996203062
 30
0.0
 40
0.0699775787764331
 50
89.8713110401763799
 51
180.8668820694875023
  0
LINE
  5
AD75
  8
0
 10
4583.8796929064010328
 20
289.2352972018879882
 30
0.0
 11
4590.8244673284953024
 21
289.2352965104778946
 31
0.0
  0
ARC
  5
AD76
  8
0
 10
4590.8606128307674226
 20
289.1653263013242849
 30
0.0
 40
0.0699705881849908
 50
359.1341344365857253
 51
76.8108404072601729
  0
LINE
  5
AD77
  8
0
 10
4590.9305754292072379
 20
289.1642689317022814
 30
0.0
 11
4590.9305440059069952
 21
286.7727351416021975
 31
0.0
  0
ARC
  5
AD78
  8
0
 10
4590.8606226252686611
 20
286.7716906465303737
 30
0.0
 40
0.0699291816069565
 50
283.1687575310508009
 51
0.8558284741055247
  0
LINE
  5
AD79
  8
0
 10
4590.8244441808537886
 20
286.7017617519197756
 30
0.0
 11
4583.8797530986066704
 21
286.7017495181023037
 31
0.0
  0
ARC
  5
AD7A
  8
0
 10
4583.8795280492267921
 20
286.7716880647760149
 30
0.0
 40
0.0699389087564662
 50
179.1437393644094129
 51
270.1843666436164995
  0
ARC
  5
AD7B
  8
0
 10
4591.0142535115382998
 20
289.1653235608509931
 30
0.0
 40
0.0699775787764331
 50
89.8713110401763799
 51
113.0957628749657005
  0
LINE
  5
AD7C
  8
0
 10
4591.014410684269933
 20
289.2353009631186751
 30
0.0
 11
4597.9950992164776835
 21
289.2353002681330167
 31
0.0
  0
ARC
  5
AD7D
  8
0
 10
4597.9953306086372322
 20
289.1653300625549718
 30
0.0
 40
0.0699705881849908
 50
359.1341344365857253
 51
90.1894770176523508
  0
LINE
  5
AD7E
  8
0
 10
4598.0652932070770476
 20
289.1642726929330252
 30
0.0
 11
4598.0652617837768048
 21
286.7727389028329981
 31
0.0
  0
ARC
  5
AD7F
  8
0
 10
4597.9953404031402897
 20
286.7716944077610037
 30
0.0
 40
0.0699291816069565
 50
269.8186353982289916
 51
0.8558284741055247
  0
LINE
  5
AD80
  8
0
 10
4597.9951190490173758
 20
286.7017655764926758
 30
0.0
 11
4591.0144708764773895
 21
286.7017532793329906
 31
0.0
  0
ARC
  5
AD81
  8
0
 10
4591.0142458270984207
 20
286.7716918260065881
 30
0.0
 40
0.0699389087564662
 50
246.8769797870531022
 51
270.1843666436164995
  0
LINE
  5
AD82
  8
0
 10
4598.0790077015162751
 20
286.772734535126915
 30
0.0
 11
4598.0789769153161615
 21
289.1642623855267971
 31
0.0
  0
ARC
  5
AD83
  8
0
 10
4598.1489464847763884
 20
289.165321102144901
 30
0.0
 40
0.0699775787764331
 50
89.8713110401763799
 51
180.8668820694875023
  0
LINE
  5
AD84
  8
0
 10
4598.1491036575098406
 20
289.235298504412583
 30
0.0
 11
4601.2397837917433208
 21
289.2352981967096071
 31
0.0
  0
LINE
  5
AD85
  8
0
 10
4601.2397536081944054
 20
286.7017562650318041
 30
0.0
 11
4598.1491638497145686
 21
286.7017508206267848
 31
0.0
  0
ARC
  5
AD86
  8
0
 10
4598.1489388003374188
 20
286.7716893673004961
 30
0.0
 40
0.0699389087564662
 50
179.1437393644094129
 51
270.1843666436164995
  0
LINE
  5
AD87
  8
0
 10
4594.5116457977337632
 20
284.458518372502283
 30
0.0
 11
4594.511618021682807
 21
286.6162123855580717
 31
0.0
  0
ARC
  5
AD88
  8
0
 10
4594.5815875911439434
 20
286.6172711021761756
 30
0.0
 40
0.0699775787764331
 50
89.8713110401763799
 51
180.8668820694875023
  0
LINE
  5
AD89
  8
0
 10
4594.5817447638773956
 20
286.6872485044439145
 30
0.0
 11
4601.2397534353458468
 21
286.6872478415837122
 31
0.0
  0
LINE
  5
AD8A
  8
0
 10
4587.3769528340408215
 20
284.458518372502283
 30
0.0
 11
4587.3769250580071457
 21
286.6162110830022129
 31
0.0
  0
ARC
  5
AD8B
  8
0
 10
4587.4468946274682821
 20
286.6172697996203169
 30
0.0
 40
0.0699775787764331
 50
89.8713110401763799
 51
180.8668820694875023
  0
LINE
  5
AD8C
  8
0
 10
4587.4470518001999153
 20
286.6872472018879989
 30
0.0
 11
4590.8244440482376376
 21
286.6872468656404749
 31
0.0
  0
LINE
  5
AD8D
  8
0
 10
4590.8765537340914307
 20
286.6872468604524897
 30
0.0
 11
4590.9346755635851878
 21
286.6872468546660002
 31
0.0
  0
LINE
  5
AD8E
  8
0
 10
4590.9867801681275523
 20
286.6872468494785267
 30
0.0
 11
4594.4277403324058469
 21
286.6872465069022837
 31
0.0
  0
ARC
  5
AD8F
  8
0
 10
4594.4279717245672146
 20
286.6172763013242957
 30
0.0
 40
0.0699705881849908
 50
359.1341344365857253
 51
90.1894770176523508
  0
LINE
  5
AD90
  8
0
 10
4594.4979343230070299
 20
286.6162189317022921
 30
0.0
 11
4594.4979059721326848
 21
284.458518372502283
 31
0.0
  0
LINE
  5
AD91
  8
0
 10
4580.2422350463402836
 20
284.458518372502283
 30
0.0
 11
4580.2422072703056983
 21
286.6162110830022129
 31
0.0
  0
ARC
  5
AD92
  8
0
 10
4580.3121768397668347
 20
286.6172697996203169
 30
0.0
 40
0.0699775787764331
 50
89.8713110401763799
 51
180.8668820694875023
  0
LINE
  5
AD93
  8
0
 10
4580.3123340125011964
 20
286.6872472018879989
 30
0.0
 11
4587.293022544707128
 21
286.6872465069022837
 31
0.0
  0
ARC
  5
AD94
  8
0
 10
4587.2932539368666767
 20
286.6172763013242957
 30
0.0
 40
0.0699705881849908
 50
359.1341344365857253
 51
90.1894770176523508
  0
LINE
  5
AD95
  8
0
 10
4587.3632165353074015
 20
286.6162189317022921
 30
0.0
 11
4587.3631881844339659
 21
284.458518372502283
 31
0.0
  0
ARC
  5
AD96
  8
0
 10
4575.28057671188526
 20
283.9585183650709155
 30
0.0
 40
0.500000016374742
 50
90.0108368521356965
 51
176.7385365400724879
  0
LINE
  5
AD97
  8
0
 10
4575.2804821425052069
 20
284.458518372502283
 30
0.0
 11
4606.4055766959072571
 21
284.458518372502283
 31
0.0
  0
ARC
  5
AD98
  8
0
 10
4574.7514261653832364
 20
283.9885190446954084
 30
0.0
 40
0.0300006722127708
 50
270.0044551932346053
 51
357.030034524814198
  0
LINE
  5
AD99
  8
0
 10
4574.7514284981698438
 20
283.9585183725732804
 30
0.0
 11
4574.4355744932272501
 21
283.9585183724213948
 31
0.0
  0
ARC
  5
AD9A
  8
0
 10
4574.4355766959070024
 20
283.9285183725023103
 30
0.0
 40
0.0300000000000023
 50
90.004206917900234
 51
180.0042072998892024
  0
LINE
  5
AD9B
  8
0
 10
4576.67405693670662
 20
332.6426216818445027
 30
0.0
 11
4576.6740305226057899
 21
335.0241784949021735
 31
0.0
  0
ARC
  5
AD9C
  8
0
 10
4576.7490084257970011
 20
335.0252238063399091
 30
0.0
 40
0.0749851894896967
 50
89.8423838846955221
 51
180.7987427121773862
  0
LINE
  5
AD9D
  8
0
 10
4576.7492147038083203
 20
335.100208712102301
 30
0.0
 11
4583.725669737456883
 21
335.1001075601745924
 31
0.0
  0
ARC
  5
AD9E
  8
0
 10
4583.7260450251824295
 20
335.0302873905017123
 30
0.0
 40
0.0698211782628243
 50
359.1012283022021165
 51
90.3079653869218362
  0
LINE
  5
AD9F
  8
0
 10
4583.7958576132741655
 20
335.0291921837359723
 30
0.0
 11
4583.7958261883486557
 21
332.6375997470415768
 31
0.0
  0
ARC
  5
ADA0
  8
0
 10
4583.7259016618399983
 20
332.6365911176177974
 30
0.0
 40
0.0699318006415093
 50
269.8212492376953264
 51
0.8264081913694882
  0
LINE
  5
ADA1
  8
0
 10
4583.7256834897061708
 20
332.566659657302182
 30
0.0
 11
4576.7492042716075957
 21
332.5666365512021798
 31
0.0
  0
ARC
  5
ADA2
  8
0
 10
4576.7489981357539364
 20
332.6415846417377224
 30
0.0
 40
0.0749483740110528
 50
179.2071887051664021
 51
270.1575848626621905
  0
LINE
  5
ADA3
  8
0
 10
4576.6740569330650032
 20
327.5465229949638228
 30
0.0
 11
4576.6740305189659921
 21
329.9280798080216073
 31
0.0
  0
ARC
  5
ADA4
  8
0
 10
4576.7490084221562938
 20
329.9291251194591723
 30
0.0
 40
0.0749851894896967
 50
89.8423838846955221
 51
180.7987427121773862
  0
LINE
  5
ADA5
  8
0
 10
4576.7492147001667036
 20
330.0041100252215074
 30
0.0
 11
4583.7256697338170852
 21
330.0040088732939125
 31
0.0
  0
ARC
  5
ADA6
  8
0
 10
4583.7260450215399032
 20
329.9341887036210892
 30
0.0
 40
0.0698211782628243
 50
359.1012283022021165
 51
90.3079653869218362
  0
LINE
  5
ADA7
  8
0
 10
4583.7958576096316392
 20
329.9330934968554061
 30
0.0
 11
4583.7958261847088579
 21
327.5415010601608969
 31
0.0
  0
ARC
  5
ADA8
  8
0
 10
4583.7259016581983815
 20
327.5404924307371743
 30
0.0
 40
0.0699318006415093
 50
269.8212492376953264
 51
0.8264081913694882
  0
LINE
  5
ADA9
  8
0
 10
4583.7256834860672825
 20
327.4705609704216158
 30
0.0
 11
4576.7492042679659789
 21
327.4705378643214999
 31
0.0
  0
ARC
  5
ADAA
  8
0
 10
4576.7489981321141386
 20
327.5454859548569857
 30
0.0
 40
0.0749483740110528
 50
179.2071887051664021
 51
270.1575848626621905
  0
LINE
  5
ADAB
  8
0
 10
4576.6740580475780007
 20
324.5311095182088934
 30
0.0
 11
4576.6740564041374455
 21
324.6792859254337031
 31
0.0
  0
LINE
  5
ADAC
  8
0
 10
4576.6740558239389429
 20
324.7315978597903268
 30
0.0
 11
4576.6740547106073791
 21
324.8319785506021731
 31
0.0
  0
ARC
  5
ADAD
  8
0
 10
4576.7490326137976808
 20
324.8330238620399086
 30
0.0
 40
0.0749851894896967
 50
89.8423838846955221
 51
180.7987427121773862
  0
LINE
  5
ADAE
  8
0
 10
4576.7492388918071811
 20
324.9080087678021869
 30
0.0
 11
4583.7256939254575627
 21
324.907907615874592
 31
0.0
  0
ARC
  5
ADAF
  8
0
 10
4583.7260692131812903
 20
324.8380874462017118
 30
0.0
 40
0.0698211782628243
 50
359.1012283022021165
 51
90.3079653869218362
  0
LINE
  5
ADB0
  8
0
 10
4583.7958818012730262
 20
324.8369922394359719
 30
0.0
 11
4583.7958804150202923
 21
324.7314915099939867
 31
0.0
  0
LINE
  5
ADB1
  8
0
 10
4583.7958797185247022
 20
324.6784848004108994
 30
0.0
 11
4583.795877782050411
 21
324.5311095182088934
 31
0.0
  0
LINE
  5
ADB2
  8
0
 10
4576.6740811247072998
 20
317.3543217375445238
 30
0.0
 11
4576.67406505202689
 21
318.8034719354062076
 31
0.0
  0
LINE
  5
ADB3
  8
0
 10
4576.6740639146746616
 20
318.9060183725022739
 30
0.0
 11
4576.6740625272750549
 21
319.0311095182088934
 31
0.0
  0
LINE
  5
ADB4
  8
0
 10
4583.7958724749069006
 20
319.0311095182088934
 30
0.0
 11
4583.7958708312407907
 21
318.9060183725022739
 31
0.0
  0
LINE
  5
ADB5
  8
0
 10
4583.7958694873586865
 20
318.8037423720534207
 30
0.0
 11
4583.7958503763502449
 21
317.3492998027415979
 31
0.0
  0
ARC
  5
ADB6
  8
0
 10
4583.725925849838859
 20
317.3482911733178753
 30
0.0
 40
0.0699318006415093
 50
269.8212492376953264
 51
0.8264081913694882
  0
LINE
  5
ADB7
  8
0
 10
4583.725707677705941
 20
317.2783597130023168
 30
0.0
 11
4576.7492284596073659
 21
317.2783366069023145
 31
0.0
  0
ARC
  5
ADB8
  8
0
 10
4576.7490223237537066
 20
317.3532846974376866
 30
0.0
 40
0.0749483740110528
 50
179.2071887051664021
 51
270.1575848626621905
  0
LINE
  5
ADB9
  8
0
 10
4576.6740811247072998
 20
312.2582217375443747
 30
0.0
 11
4576.6740547106073791
 21
314.639778550602216
 31
0.0
  0
ARC
  5
ADBA
  8
0
 10
4576.7490326137976808
 20
314.6408238620398947
 30
0.0
 40
0.0749851894896967
 50
89.8423838846955221
 51
180.7987427121773862
  0
LINE
  5
ADBB
  8
0
 10
4576.7492388918071811
 20
314.715808767802173
 30
0.0
 11
4583.7256939254575627
 21
314.7157076158745781
 31
0.0
  0
ARC
  5
ADBC
  8
0
 10
4583.7260692131812903
 20
314.6458874462016979
 30
0.0
 40
0.0698211782628243
 50
359.1012283022021165
 51
90.3079653869218362
  0
LINE
  5
ADBD
  8
0
 10
4583.7958818012730262
 20
314.6447922394360148
 30
0.0
 11
4583.7958503763502449
 21
312.2531998027416194
 31
0.0
  0
ARC
  5
ADBE
  8
0
 10
4583.725925849838859
 20
312.2521911733178968
 30
0.0
 40
0.0699318006415093
 50
269.8212492376953264
 51
0.8264081913694882
  0
LINE
  5
ADBF
  8
0
 10
4583.725707677705941
 20
312.1822597130022814
 30
0.0
 11
4576.7492284596073659
 21
312.1822366069022792
 31
0.0
  0
ARC
  5
ADC0
  8
0
 10
4576.7490223237537066
 20
312.2571846974377081
 30
0.0
 40
0.0749483740110528
 50
179.2071887051664021
 51
270.1575848626621905
  0
LINE
  5
ADC1
  8
0
 10
4576.6740798050013836
 20
307.2811095182088934
 30
0.0
 11
4576.6740778553630662
 21
307.4568934041403736
 31
0.0
  0
LINE
  5
ADC2
  8
0
 10
4576.6740772864068276
 20
307.5081918283577807
 30
0.0
 11
4576.6740547106073791
 21
309.5436785506021806
 31
0.0
  0
ARC
  5
ADC3
  8
0
 10
4576.7490326137976808
 20
309.5447238620399162
 30
0.0
 40
0.0749851894896967
 50
89.8423838846955221
 51
180.7987427121773862
  0
LINE
  5
ADC4
  8
0
 10
4576.7492388918071811
 20
309.6197087678021944
 30
0.0
 11
4583.7256939254575627
 21
309.6196076158744859
 31
0.0
  0
ARC
  5
ADC5
  8
0
 10
4583.7260692131812903
 20
309.5497874462017762
 30
0.0
 40
0.0698211782628243
 50
359.1012283022021165
 51
90.3079653869218362
  0
LINE
  5
ADC6
  8
0
 10
4583.7958818012730262
 20
309.5486922394360931
 30
0.0
 11
4583.7958549985632999
 21
307.5088731476089947
 31
0.0
  0
LINE
  5
ADC7
  8
0
 10
4583.795854304255954
 20
307.4560329155431759
 30
0.0
 11
4583.7958520058064096
 21
307.2811095182088934
 31
0.0
  0
LINE
  5
ADC8
  8
0
 10
4576.6740811247072998
 20
291.8738217375445174
 30
0.0
 11
4576.6740547106073791
 21
294.2553785506023019
 31
0.0
  0
ARC
  5
ADC9
  8
0
 10
4576.7490326137976808
 20
294.2564238620399237
 30
0.0
 40
0.0749851894896967
 50
89.8423838846955221
 51
180.7987427121773862
  0
LINE
  5
ADCA
  8
0
 10
4576.7492388918071811
 20
294.3314087678023157
 30
0.0
 11
4583.7256939254575627
 21
294.3313076158746071
 31
0.0
  0
ARC
  5
ADCB
  8
0
 10
4583.7260692131812903
 20
294.2614874462017269
 30
0.0
 40
0.0698211782628243
 50
359.1012283022021165
 51
90.3079653869218362
  0
LINE
  5
ADCC
  8
0
 10
4583.7958818012730262
 20
294.260392239435987
 30
0.0
 11
4583.7958503763502449
 21
291.8687998027415915
 31
0.0
  0
ARC
  5
ADCD
  8
0
 10
4583.725925849838859
 20
291.8677911733179258
 30
0.0
 40
0.0699318006415093
 50
269.8212492376953264
 51
0.8264081913694882
  0
LINE
  5
ADCE
  8
0
 10
4583.725707677705941
 20
291.7978597130023104
 30
0.0
 11
4576.7492284596073659
 21
291.7978366069021945
 31
0.0
  0
ARC
  5
ADCF
  8
0
 10
4576.7490223237537066
 20
291.8727846974376803
 30
0.0
 40
0.0749483740110528
 50
179.2071887051664021
 51
270.1575848626621905
  0
LINE
  5
ADD0
  8
0
 10
4576.6740569333769599
 20
286.7777229948769104
 30
0.0
 11
4576.6740305192779488
 21
289.1592798079345812
 31
0.0
  0
ARC
  5
ADD1
  8
0
 10
4576.7490084224682505
 20
289.1603251193723167
 30
0.0
 40
0.0749851894896967
 50
89.8423838846955221
 51
180.7987427121773862
  0
LINE
  5
ADD2
  8
0
 10
4576.7492147004777507
 20
289.2353100251347087
 30
0.0
 11
4583.7256697341281324
 21
289.2352088732070001
 31
0.0
  0
ARC
  5
ADD3
  8
0
 10
4583.7260450218518599
 20
289.1653887035341768
 30
0.0
 40
0.0698211782628243
 50
359.1012283022021165
 51
90.3079653869218362
  0
LINE
  5
ADD4
  8
0
 10
4583.7958576099454149
 20
289.16429349676838
 30
0.0
 11
4583.7958261850208146
 21
286.7727010600739845
 31
0.0
  0
ARC
  5
ADD5
  8
0
 10
4583.7259016585094287
 20
286.7716924306503188
 30
0.0
 40
0.0699318006415093
 50
269.8212492376953264
 51
0.8264081913694882
  0
LINE
  5
ADD6
  8
0
 10
4583.7256834863783297
 20
286.7017609703347034
 30
0.0
 11
4576.7492042682779356
 21
286.7017378642345875
 31
0.0
  0
ARC
  5
ADD7
  8
0
 10
4576.7489981324251858
 20
286.7766859547700733
 30
0.0
 40
0.0749483740110528
 50
179.2071887051664021
 51
270.1575848626621905
  0
LINE
  5
ADD8
  8
0
 10
4574.6718834199336925
 20
330.0895941051118143
 30
0.0
 11
4574.671858610136951
 21
332.4810934828306017
 31
0.0
  0
ARC
  5
ADD9
  8
0
 10
4574.7418450682807816
 20
332.4821537038423003
 30
0.0
 40
0.0699944882993229
 50
89.8322680948765253
 51
180.8679042300475999
  0
LINE
  5
ADDA
  8
0
 10
4574.742049975034206
 20
332.5521478922117922
 30
0.0
 11
4580.1583354101840087
 21
332.5520562568843275
 31
0.0
  0
ARC
  5
ADDB
  8
0
 10
4580.1587106979068267
 20
332.4822360872113904
 30
0.0
 40
0.0698211782628243
 50
359.1012283022021165
 51
90.3079653869218362
  0
LINE
  5
ADDC
  8
0
 10
4580.2285232860012911
 20
332.4811408804455937
 30
0.0
 11
4580.2284918610766908
 21
330.0895484437511982
 31
0.0
  0
ARC
  5
ADDD
  8
0
 10
4580.1585673345662144
 20
330.0885398143274756
 30
0.0
 40
0.0699318006415093
 50
269.8212492376953264
 51
0.8264081913694882
  0
LINE
  5
ADDE
  8
0
 10
4580.1583491624342059
 20
330.0186083540119171
 30
0.0
 11
4574.7420432710341629
 21
330.0185945312118179
 31
0.0
  0
ARC
  5
ADDF
  8
0
 10
4574.741829635349859
 20
330.0885482390941092
 30
0.0
 40
0.0699540340986673
 50
179.1433526005675958
 51
270.1749783590756806
  0
LINE
  5
ADE0
  8
0
 10
4574.6718834198336481
 20
324.9934941051117789
 30
0.0
 11
4574.6718586100369066
 21
327.3849934828306232
 31
0.0
  0
ARC
  5
ADE1
  8
0
 10
4574.7418450681816466
 20
327.3860537038423217
 30
0.0
 40
0.0699944882993229
 50
89.8322680948765253
 51
180.8679042300475999
  0
LINE
  5
ADE2
  8
0
 10
4574.7420499749341616
 20
327.4560478922118136
 30
0.0
 11
4580.1583354100848737
 21
327.4559562568842921
 31
0.0
  0
ARC
  5
ADE3
  8
0
 10
4580.1587106978076918
 20
327.3861360872114119
 30
0.0
 40
0.0698211782628243
 50
359.1012283022021165
 51
90.3079653869218362
  0
LINE
  5
ADE4
  8
0
 10
4580.2285232859003372
 20
327.385040880445672
 30
0.0
 11
4580.2284918609757369
 21
324.9934484437512765
 31
0.0
  0
ARC
  5
ADE5
  8
0
 10
4580.1585673344670795
 20
324.9924398143276107
 30
0.0
 40
0.0699318006415093
 50
269.8212492376953264
 51
0.8264081913694882
  0
LINE
  5
ADE6
  8
0
 10
4580.1583491623341615
 20
324.9225083540118817
 30
0.0
 11
4574.7420432709341185
 21
324.9224945312117825
 31
0.0
  0
ARC
  5
ADE7
  8
0
 10
4574.7418296352489051
 20
324.9924482390940739
 30
0.0
 40
0.0699540340986673
 50
179.1433526005675958
 51
270.1749783590756806
  0
LINE
  5
ADE8
  8
0
 10
4574.6718834199336925
 20
314.8012941051118219
 30
0.0
 11
4574.671858610136951
 21
317.1927934828306093
 31
0.0
  0
ARC
  5
ADE9
  8
0
 10
4574.7418450682807816
 20
317.1938537038423078
 30
0.0
 40
0.0699944882993229
 50
89.8322680948765253
 51
180.8679042300475999
  0
LINE
  5
ADEA
  8
0
 10
4574.742049975034206
 20
317.2638478922117997
 30
0.0
 11
4580.1583354101840087
 21
317.2637562568842213
 31
0.0
  0
ARC
  5
ADEB
  8
0
 10
4580.1587106979068267
 20
317.193936087211398
 30
0.0
 40
0.0698211782628243
 50
359.1012283022021165
 51
90.3079653869218362
  0
LINE
  5
ADEC
  8
0
 10
4580.2285232860012911
 20
317.1928408804457149
 30
0.0
 11
4580.2284918610766908
 21
314.8012484437512057
 31
0.0
  0
ARC
  5
ADED
  8
0
 10
4580.1585673345662144
 20
314.8002398143274831
 30
0.0
 40
0.0699318006415093
 50
269.8212492376953264
 51
0.8264081913694882
  0
LINE
  5
ADEE
  8
0
 10
4580.1583491624342059
 20
314.7303083540119246
 30
0.0
 11
4574.7420432710341629
 21
314.7302945312118254
 31
0.0
  0
ARC
  5
ADEF
  8
0
 10
4574.741829635349859
 20
314.8002482390940031
 30
0.0
 40
0.0699540340986673
 50
179.1433526005675958
 51
270.1749783590756806
  0
LINE
  5
ADF0
  8
0
 10
4574.6718588533431102
 20
309.7051954085137027
 30
0.0
 11
4574.6718340435445498
 21
312.0966947862323764
 31
0.0
  0
ARC
  5
ADF1
  8
0
 10
4574.7418205016901993
 20
312.0977550072440749
 30
0.0
 40
0.0699944882993229
 50
89.8322680948765253
 51
180.8679042300475999
  0
LINE
  5
ADF2
  8
0
 10
4574.7420254084418048
 20
312.1677491956136237
 30
0.0
 11
4580.1583108435934264
 21
312.1676575602859884
 31
0.0
  0
ARC
  5
ADF3
  8
0
 10
4580.1586861313171539
 20
312.0978373906132219
 30
0.0
 40
0.0698211782628243
 50
359.1012283022021165
 51
90.3079653869218362
  0
LINE
  5
ADF4
  8
0
 10
4580.2284987194088899
 20
312.096742183847482
 30
0.0
 11
4580.2284672944842896
 21
309.7051497471530865
 31
0.0
  0
ARC
  5
ADF5
  8
0
 10
4580.1585427679747227
 20
309.7041411177294208
 30
0.0
 40
0.0699318006415093
 50
269.8212492376953264
 51
0.8264081913694882
  0
LINE
  5
ADF6
  8
0
 10
4580.1583245958418047
 20
309.6342096574136917
 30
0.0
 11
4574.7420187044417617
 21
309.6341958346135925
 31
0.0
  0
ARC
  5
ADF7
  8
0
 10
4574.7418050687583673
 20
309.7041495424958839
 30
0.0
 40
0.0699540340986673
 50
179.1433526005675958
 51
270.1749783590756806
  0
LINE
  5
ADF8
  8
0
 10
4574.6718386952152287
 20
301.4561095182089048
 30
0.0
 11
4574.6718374007177772
 21
301.5808904094764102
 31
0.0
  0
LINE
  5
ADF9
  8
0
 10
4574.6718363360387229
 20
301.6835183725116849
 30
0.0
 11
4574.6718353236137773
 21
301.7811095182088934
 31
0.0
  0
LINE
  5
ADFA
  8
0
 10
4580.2284970975842953
 20
301.7811095182088934
 30
0.0
 11
4580.2284958152613399
 21
301.6835183728728111
 31
0.0
  0
LINE
  5
ADFB
  8
0
 10
4580.2284944695429658
 20
301.5811025633241229
 30
0.0
 11
4580.2284928271647004
 21
301.4561095182089048
 31
0.0
  0
LINE
  5
ADFC
  8
0
 10
4574.6718834199336925
 20
294.4168941051119077
 30
0.0
 11
4574.6718697447140585
 21
295.7350943038936748
 31
0.0
  0
LINE
  5
ADFD
  8
0
 10
4574.6718692036356515
 20
295.7872506683759752
 30
0.0
 11
4574.6718674518670014
 21
295.9561095182089048
 31
0.0
  0
LINE
  5
ADFE
  8
0
 10
4580.2285120865799399
 20
295.9561095182089048
 30
0.0
 11
4580.2285098707916404
 21
295.7874770812899783
 31
0.0
  0
LINE
  5
ADFF
  8
0
 10
4580.2285091824960546
 20
295.7350943038936748
 30
0.0
 11
4580.2284918610766908
 21
294.4168484437511779
 31
0.0
  0
ARC
  5
AE00
  8
0
 10
4580.1585673345662144
 20
294.4158398143275122
 30
0.0
 40
0.0699318006415093
 50
269.8212492376953264
 51
0.8264081913694882
  0
LINE
  5
AE01
  8
0
 10
4580.1583491624342059
 20
294.3459083540118968
 30
0.0
 11
4574.7420432710341629
 21
294.3458945312117976
 31
0.0
  0
ARC
  5
AE02
  8
0
 10
4574.741829635349859
 20
294.415848239094089
 30
0.0
 40
0.0699540340986673
 50
179.1433526005675958
 51
270.1749783590756806
  0
LINE
  5
AE03
  8
0
 10
4574.6718834198336481
 20
289.3207941051118155
 30
0.0
 11
4574.6718586100369066
 21
291.7122934828304892
 31
0.0
  0
ARC
  5
AE04
  8
0
 10
4574.7418450681816466
 20
291.7133537038423015
 30
0.0
 40
0.0699944882993229
 50
89.8322680948765253
 51
180.8679042300475999
  0
LINE
  5
AE05
  8
0
 10
4574.7420499749341616
 20
291.7833478922117934
 30
0.0
 11
4580.1583354100848737
 21
291.783256256884215
 31
0.0
  0
ARC
  5
AE06
  8
0
 10
4580.1587106978076918
 20
291.7134360872113916
 30
0.0
 40
0.0698211782628243
 50
359.1012283022021165
 51
90.3079653869218362
  0
LINE
  5
AE07
  8
0
 10
4580.2285232859003372
 20
291.7123408804457085
 30
0.0
 11
4580.2284918609757369
 21
289.3207484437511994
 31
0.0
  0
ARC
  5
AE08
  8
0
 10
4580.1585673344670795
 20
289.3197398143274768
 30
0.0
 40
0.0699318006415093
 50
269.8212492376953264
 51
0.8264081913694882
  0
LINE
  5
AE09
  8
0
 10
4580.1583491623341615
 20
289.2498083540119183
 30
0.0
 11
4574.7420432709341185
 21
289.249794531211819
 31
0.0
  0
ARC
  5
AE0A
  8
0
 10
4574.7418296352489051
 20
289.3197482390941104
 30
0.0
 40
0.0699540340986673
 50
179.1433526005675958
 51
270.1749783590756806
  0
LINE
  5
AE0B
  8
0
 10
4574.6718807981324062
 20
284.4774183725021999
 30
0.0
 11
4574.671858610136951
 21
286.6161934828306244
 31
0.0
  0
ARC
  5
AE0C
  8
0
 10
4574.7418450682807816
 20
286.6172537038423229
 30
0.0
 40
0.0699944882993229
 50
89.8322680948765253
 51
180.8679042300475999
  0
LINE
  5
AE0D
  8
0
 10
4574.742049975034206
 20
286.6872478922118148
 30
0.0
 11
4580.1583354101840087
 21
286.6871562568841796
 31
0.0
  0
ARC
  5
AE0E
  8
0
 10
4580.1587106979068267
 20
286.6173360872114131
 30
0.0
 40
0.0698211782628243
 50
359.1012283022021165
 51
90.3079653869218362
  0
LINE
  5
AE0F
  8
0
 10
4580.2285232860012911
 20
286.6162408804456732
 30
0.0
 11
4580.2284949340673847
 21
284.458518372502283
 31
0.0
  0
LINE
  5
AE10
  8
0
 10
4574.6718548784156155
 20
337.7387222686023165
 30
0.0
 11
4574.6718291252072959
 21
340.1202780366022012
 31
0.0
  0
ARC
  5
AE11
  8
0
 10
4574.746806819412086
 20
340.1213239707611251
 30
0.0
 40
0.0749849892079024
 50
89.8423449640592651
 51
180.7992207111603022
  0
LINE
  5
AE12
  8
0
 10
4574.7470131478066833
 20
340.1963086761023192
 30
0.0
 11
4576.5901661762909498
 21
340.1962905002022808
 31
0.0
  0
ARC
  5
AE13
  8
0
 10
4576.5903975684523175
 20
340.1263202946242927
 30
0.0
 40
0.0699705881849908
 50
359.1341344365857253
 51
90.1894770176523508
  0
LINE
  5
AE14
  8
0
 10
4576.6603601668921328
 20
340.1252629250022892
 30
0.0
 11
4576.6603287435909806
 21
337.7337291349022053
 31
0.0
  0
ARC
  5
AE15
  8
0
 10
4576.590407362953556
 20
337.7326846398303815
 30
0.0
 40
0.0699291816069565
 50
269.8186353982289916
 51
0.8558284741055247
  0
LINE
  5
AE16
  8
0
 10
4576.5901860088306421
 20
337.6627558085619967
 30
0.0
 11
4574.7470093172059933
 21
337.6627387487022816
 31
0.0
  0
ARC
  5
AE17
  8
0
 10
4574.7467917595986364
 20
337.737682526915421
 30
0.0
 40
0.0749440939912334
 50
179.2050778321489872
 51
270.1663259849689211
  0
LINE
  5
AE18
  8
0
 10
4574.6718548774033479
 20
332.6426222683209062
 30
0.0
 11
4574.6718291241941188
 21
335.0241780363209045
 31
0.0
  0
ARC
  5
AE19
  8
0
 10
4574.7468068183979995
 20
335.0252239704797148
 30
0.0
 40
0.0749849892079024
 50
89.8423449640592651
 51
180.7992207111603022
  0
LINE
  5
AE1A
  8
0
 10
4574.7470131467944157
 20
335.1002086758209089
 30
0.0
 11
4576.5901661752777727
 21
335.1001904999209273
 31
0.0
  0
ARC
  5
AE1B
  8
0
 10
4576.5903975674382309
 20
335.0302202943428824
 30
0.0
 40
0.0699705881849908
 50
359.1341344365857253
 51
90.1894770176523508
  0
LINE
  5
AE1C
  8
0
 10
4576.6603601658789557
 20
335.0291629247208789
 30
0.0
 11
4576.660328742578713
 21
332.6376291346209086
 31
0.0
  0
ARC
  5
AE1D
  8
0
 10
4576.5904073619412884
 20
332.636584639549028
 30
0.0
 40
0.0699291816069565
 50
269.8186353982289916
 51
0.8558284741055247
  0
LINE
  5
AE1E
  8
0
 10
4576.590186007819284
 20
332.5666558082807001
 30
0.0
 11
4574.7470093161928162
 21
332.5666387484209281
 31
0.0
  0
ARC
  5
AE1F
  8
0
 10
4574.7467917585863688
 20
332.6415825266340107
 30
0.0
 40
0.0749440939912334
 50
179.2050778321489872
 51
270.1663259849689211
  0
LINE
  5
AE20
  8
0
 10
4574.6718790690729293
 20
327.5465210110397152
 30
0.0
 11
4574.6718533158627906
 21
329.9280767790395998
 31
0.0
  0
ARC
  5
AE21
  8
0
 10
4574.7468310100675808
 20
329.9291227131984101
 30
0.0
 40
0.0749849892079024
 50
89.8423449640592651
 51
180.7992207111603022
  0
LINE
  5
AE22
  8
0
 10
4574.7470373384630875
 20
330.0041074185396042
 30
0.0
 11
4576.5901903669482635
 21
330.0040892426396226
 31
0.0
  0
ARC
  5
AE23
  8
0
 10
4576.5904217591078122
 20
329.9341190370615777
 30
0.0
 40
0.0699705881849908
 50
359.1341344365857253
 51
90.1894770176523508
  0
LINE
  5
AE24
  8
0
 10
4576.6603843575467181
 20
329.9330616674395742
 30
0.0
 11
4576.6603529342482943
 21
327.5415278773396039
 31
0.0
  0
ARC
  5
AE25
  8
0
 10
4576.5904315536099602
 20
327.5404833822677233
 30
0.0
 40
0.0699291816069565
 50
269.8186353982289916
 51
0.8558284741055247
  0
LINE
  5
AE26
  8
0
 10
4576.5902101994879558
 20
327.4705545509993954
 30
0.0
 11
4574.747033507863307
 21
327.4705374911396234
 31
0.0
  0
ARC
  5
AE27
  8
0
 10
4574.7468159502550407
 20
327.5454812693528197
 30
0.0
 40
0.0749440939912334
 50
179.2050778321489872
 51
270.1663259849689211
  0
LINE
  5
AE28
  8
0
 10
4574.6718323818231511
 20
324.5311095182088934
 30
0.0
 11
4574.671830777066134
 21
324.6795111532973124
 31
0.0
  0
LINE
  5
AE29
  8
0
 10
4574.6718302134977421
 20
324.7316277589100082
 30
0.0
 11
4574.6718291283632425
 21
324.8319767234395954
 31
0.0
  0
ARC
  5
AE2A
  8
0
 10
4574.7468068225680327
 20
324.8330226575985193
 30
0.0
 40
0.0749849892079024
 50
89.8423449640592651
 51
180.7992207111603022
  0
LINE
  5
AE2B
  8
0
 10
4574.7470131509644489
 20
324.9080073629395997
 30
0.0
 11
4576.5901661794478059
 21
324.907989187039675
 31
0.0
  0
ARC
  5
AE2C
  8
0
 10
4576.5903975716082641
 20
324.8380189814615733
 30
0.0
 40
0.0699705881849908
 50
359.1341344365857253
 51
90.1894770176523508
  0
LINE
  5
AE2D
  8
0
 10
4576.66036017004717
 20
324.8369616118396266
 30
0.0
 11
4576.6603587856352533
 21
324.7315980643273861
 31
0.0
  0
LINE
  5
AE2E
  8
0
 10
4576.6603580983055508
 20
324.6792874663389057
 30
0.0
 11
4576.6603561513384193
 21
324.5311095182088934
 31
0.0
  0
LINE
  5
AE2F
  8
0
 10
4574.6718790690729293
 20
317.3543210110395876
 30
0.0
 11
4574.6718633993459662
 21
318.8033959056995172
 31
0.0
  0
LINE
  5
AE30
  8
0
 10
4574.6718622896250963
 20
318.9060183725022739
 30
0.0
 11
4574.6718609369399928
 21
319.0311095182088934
 31
0.0
  0
LINE
  5
AE31
  8
0
 10
4576.6603750318372477
 20
319.0311095182088934
 30
0.0
 11
4576.660373388213884
 21
318.9060183725022739
 31
0.0
  0
LINE
  5
AE32
  8
0
 10
4576.6603720408102163
 20
318.8034714154408107
 30
0.0
 11
4576.6603529342482943
 21
317.34932787733959
 31
0.0
  0
ARC
  5
AE33
  8
0
 10
4576.5904315536099602
 20
317.3482833822677094
 30
0.0
 40
0.0699291816069565
 50
269.8186353982289916
 51
0.8558284741055247
  0
LINE
  5
AE34
  8
0
 10
4576.5902101994879558
 20
317.2783545509993814
 30
0.0
 11
4574.747033507863307
 21
317.2783374911396095
 31
0.0
  0
ARC
  5
AE35
  8
0
 10
4574.7468159502550407
 20
317.3532812693526921
 30
0.0
 40
0.0749440939912334
 50
179.2050778321489872
 51
270.1663259849689211
  0
LINE
  5
AE36
  8
0
 10
4574.6718790690729293
 20
312.2582210111397103
 30
0.0
 11
4574.6718533158627906
 21
314.639776779139595
 31
0.0
  0
ARC
  5
AE37
  8
0
 10
4574.7468310100675808
 20
314.6408227132984052
 30
0.0
 40
0.0749849892079024
 50
89.8423449640592651
 51
180.7992207111603022
  0
LINE
  5
AE38
  8
0
 10
4574.7470373384630875
 20
314.7158074186395993
 30
0.0
 11
4576.5901903669482635
 21
314.7157892427396746
 31
0.0
  0
ARC
  5
AE39
  8
0
 10
4576.5904217591078122
 20
314.6458190371615729
 30
0.0
 40
0.0699705881849908
 50
359.1341344365857253
 51
90.1894770176523508
  0
LINE
  5
AE3A
  8
0
 10
4576.6603843575467181
 20
314.6447616675396262
 30
0.0
 11
4576.6603529342482943
 21
312.2532278774395991
 31
0.0
  0
ARC
  5
AE3B
  8
0
 10
4576.5904315536099602
 20
312.2521833823677184
 30
0.0
 40
0.0699291816069565
 50
269.8186353982289916
 51
0.8558284741055247
  0
LINE
  5
AE3C
  8
0
 10
4576.5902101994879558
 20
312.1822545510993905
 30
0.0
 11
4574.747033507863307
 21
312.1822374912396185
 31
0.0
  0
ARC
  5
AE3D
  8
0
 10
4574.7468159502550407
 20
312.2571812694527011
 30
0.0
 40
0.0749440939912334
 50
179.2050778321489872
 51
270.1663259849689211
  0
LINE
  5
AE3E
  8
0
 10
4574.6718777823771234
 20
307.2811095182088934
 30
0.0
 11
4574.6718758789038475
 21
307.4571353201823172
 31
0.0
  0
LINE
  5
AE3F
  8
0
 10
4574.6718753288696462
 20
307.5080002836630229
 30
0.0
 11
4574.6718533158627906
 21
309.543676779039572
 31
0.0
  0
ARC
  5
AE40
  8
0
 10
4574.7468310100675808
 20
309.5447227131983823
 30
0.0
 40
0.0749849892079024
 50
89.8423449640592651
 51
180.7992207111603022
  0
LINE
  5
AE41
  8
0
 10
4574.7470373384630875
 20
309.61970741853969
 30
0.0
 11
4576.5901903669482635
 21
309.6196892426397085
 31
0.0
  0
ARC
  5
AE42
  8
0
 10
4576.5904217591078122
 20
309.5497190370616067
 30
0.0
 40
0.0699705881849908
 50
359.1341344365857253
 51
90.1894770176523508
  0
LINE
  5
AE43
  8
0
 10
4576.6603843575467181
 20
309.5486616674397169
 30
0.0
 11
4576.6603575469971474
 21
307.5081905158311883
 31
0.0
  0
LINE
  5
AE44
  8
0
 10
4576.6603568730060942
 20
307.4568950619780026
 30
0.0
 11
4576.6603545632915484
 21
307.2811095182088934
 31
0.0
  0
LINE
  5
AE45
  8
0
 10
4574.6718790690729293
 20
291.8738210110395812
 30
0.0
 11
4574.6718533158627906
 21
294.2553767790395796
 31
0.0
  0
ARC
  5
AE46
  8
0
 10
4574.7468310100675808
 20
294.2564227131985035
 30
0.0
 40
0.0749849892079024
 50
89.8423449640592651
 51
180.7992207111603022
  0
LINE
  5
AE47
  8
0
 10
4574.7470373384630875
 20
294.3314074185395839
 30
0.0
 11
4576.5901903669482635
 21
294.331389242639716
 31
0.0
  0
ARC
  5
AE48
  8
0
 10
4576.5904217591078122
 20
294.2614190370616143
 30
0.0
 40
0.0699705881849908
 50
359.1341344365857253
 51
90.1894770176523508
  0
LINE
  5
AE49
  8
0
 10
4576.6603843575467181
 20
294.2603616674396108
 30
0.0
 11
4576.6603529342482943
 21
291.8688278773395837
 31
0.0
  0
ARC
  5
AE4A
  8
0
 10
4576.5904315536099602
 20
291.867783382267703
 30
0.0
 40
0.0699291816069565
 50
269.8186353982289916
 51
0.8558284741055247
  0
LINE
  5
AE4B
  8
0
 10
4576.5902101994879558
 20
291.7978545509993751
 30
0.0
 11
4574.747033507863307
 21
291.7978374911396031
 31
0.0
  0
ARC
  5
AE4C
  8
0
 10
4574.7468159502550407
 20
291.8727812693527994
 30
0.0
 40
0.0749440939912334
 50
179.2050778321489872
 51
270.1663259849689211
  0
LINE
  5
AE4D
  8
0
 10
4574.6718548818726049
 20
286.7777209554395768
 30
0.0
 11
4574.6718291286633757
 21
289.1592767234395751
 31
0.0
  0
ARC
  5
AE4E
  8
0
 10
4574.7468068228681659
 20
289.1603226575984991
 30
0.0
 40
0.0749849892079024
 50
89.8423449640592651
 51
180.7992207111603022
  0
LINE
  5
AE4F
  8
0
 10
4574.7470131512627631
 20
289.2353073629395794
 30
0.0
 11
4576.5901661797470297
 21
289.2352891870395979
 31
0.0
  0
ARC
  5
AE50
  8
0
 10
4576.5903975719083974
 20
289.1653189814616098
 30
0.0
 40
0.0699705881849908
 50
359.1341344365857253
 51
90.1894770176523508
  0
LINE
  5
AE51
  8
0
 10
4576.6603601703482127
 20
289.16426161183972
 30
0.0
 11
4576.66032874704797
 21
286.7727278217396929
 31
0.0
  0
ARC
  5
AE52
  8
0
 10
4576.5904073664096359
 20
286.7716833266676986
 30
0.0
 40
0.0699291816069565
 50
269.8186353982289916
 51
0.8558284741055247
  0
LINE
  5
AE53
  8
0
 10
4576.590186012286722
 20
286.7017544953993138
 30
0.0
 11
4574.7470093206629826
 21
286.7017374355395987
 31
0.0
  0
ARC
  5
AE54
  8
0
 10
4574.7467917630556258
 20
286.776681213752795
 30
0.0
 40
0.0749440939912334
 50
179.2050778321489872
 51
270.1663259849689211
  0
LINE
  5
AE55
  8
0
 10
4574.4055766959882021
 20
283.9285161695652278
 30
0.0
 11
4574.4055766959072571
 21
281.3573857550023263
 31
0.0
  0
LINE
  5
AE56
  8
0
 10
4574.4055766959072571
 20
281.3573857550023263
 30
0.0
 11
4574.389889297013724
 21
279.55978789190209
 31
0.0
  0
LINE
  5
AE57
  8
0
 10
4574.389889297013724
 20
279.55978789190209
 30
0.0
 11
4574.108840592107299
 21
263.458518372502283
 31
0.0
  0
LINE
  5
AE58
  8
0
 10
4574.3210250042066036
 20
283.9942088355023202
 30
0.0
 11
4574.347803785506585
 21
283.9945073110022804
 31
0.0
  0
ARC
  5
AE59
  8
0
 10
4574.4576783624661402
 20
284.020826546546914
 30
0.0
 40
0.0300234644447881
 50
270.0738677591231749
 51
359.9146596332342938
  0
ARC
  5
AE5A
  8
0
 10
4574.3657401520667918
 20
282.8941681573747928
 30
0.0
 40
1.1004853321365511
 50
85.2057117339360275
 51
90.9338821354391769
  0
ARC
  5
AE5B
  8
0
 10
4574.3640510138020545
 20
283.9711210732057225
 30
0.0
 40
0.0237206643645451
 50
37.5584396550131316
 51
82.7621199547491671
  0
ARC
  5
AE5C
  8
0
 10
4566.4453945455406938
 20
283.6676106407196016
 30
0.0
 40
7.9468483982322011
 50
359.3936939853061858
 51
2.0074405832682221
  0
ARC
  5
AE5D
  8
0
 10
4574.1917264827106919
 20
283.9437525782475973
 30
0.0
 40
0.195652086477008
 50
0.6531878358761625
 51
12.3443834695406096
  0
ARC
  5
AE5E
  8
0
 10
4574.4238952906816849
 20
283.5857099645747894
 30
0.0
 40
0.0321720183661907
 50
183.9060743656681893
 51
235.2919338183766911
  0
ARC
  5
AE5F
  8
0
 10
4575.562647448808093
 20
284.3521491463022812
 30
0.0
 40
0.1252683212000119
 50
58.117287414752461
 51
89.9723410935829264
  0
LINE
  5
AE60
  8
0
 10
4575.5627079207069983
 20
284.4774174529061952
 30
0.0
 11
4574.5205006753076304
 21
284.4774183725021999
 31
0.0
  0
ARC
  5
AE61
  8
0
 10
4574.5223548255444257
 20
284.5123717531641887
 30
0.0
 40
0.0350025240917672
 50
188.103308813142803
 51
266.9635124412142773
  0
LINE
  5
AE62
  8
0
 10
4575.0060957213663642
 20
284.3764420433022906
 30
0.0
 11
4574.5204775399070058
 21
284.3764420433022906
 31
0.0
  0
ARC
  5
AE63
  8
0
 10
4574.5227234928979669
 20
284.3411115479262889
 30
0.0
 40
0.0354018108188026
 50
93.6373878846128491
 51
171.5963899365119971
  0
LINE
  5
AE64
  8
0
 10
4574.5680308084065473
 20
284.3570315268023023
 30
0.0
 11
4574.5680308084065473
 21
283.9585183724851163
 31
0.0
  0
LINE
  5
AE65
  8
0
 10
4574.5680308084065473
 20
284.3570315268023023
 30
0.0
 11
4574.8428632859067875
 21
284.3620053597023229
 31
0.0
  0
LINE
  5
AE66
  8
0
 10
4574.8428632859067875
 20
284.3620053597023229
 30
0.0
 11
4574.8428632859067875
 21
284.2001937115452961
 31
0.0
  0
LINE
  5
AE67
  8
0
 10
4574.8716132859071877
 20
284.3726662062023252
 30
0.0
 11
4575.0004310675121815
 21
284.3726662062023252
 31
0.0
  0
LINE
  5
AE68
  8
0
 10
4574.8716132859071877
 20
284.3726662062023252
 30
0.0
 11
4574.8716132859071877
 21
284.2461795070195762
 31
0.0
  0
LINE
  5
AE69
  8
0
 10
4574.8428632859067875
 20
284.3587094099023034
 30
0.0
 11
4574.8716132859071877
 21
284.3581891014022744
 31
0.0
  0
LINE
  5
AE6A
  8
0
 10
4605.2972443370072142
 20
325.8126437996021991
 30
0.0
 11
4605.2971946959060006
 21
327.103265872502277
 31
0.0
  0
ARC
  5
AE6B
  8
0
 10
4606.7710085866483496
 20
327.0773343270129203
 30
0.0
 40
1.474042004005911
 50
166.3220213633711069
 51
178.9919929452678957
  0
ARC
  5
AE6C
  8
0
 10
4605.2074391519017809
 20
327.4560650417554939
 30
0.0
 40
0.1347523942833195
 50
347.0614804049561144
 51
0.0177659888836156
  0
ARC
  5
AE6D
  8
0
 10
4605.2021946970762656
 20
317.2644732362367108
 30
0.0
 40
0.1399999988310292
 50
347.0805383501672168
 51
0.0000000268465277
  0
ARC
  5
AE6E
  8
0
 10
4606.731548337453205
 20
316.8901812913318849
 30
0.0
 40
1.4345056760944821
 50
166.1665611609253972
 51
179.165816731792404
  0
LINE
  5
AE6F
  8
0
 10
4605.2971946959060006
 20
316.9110658725032863
 30
0.0
 11
4605.2971946959014531
 21
315.9289220822327025
 31
0.0
  0
ARC
  5
AE70
  8
0
 10
4602.1742316430108986
 20
315.9288862544661924
 30
0.0
 40
3.1229630530960688
 50
353.7091514069679761
 51
0.0006573179947489
  0
ARC
  5
AE71
  8
0
 10
4605.3090399766351766
 20
315.5882863266363074
 30
0.0
 40
0.0306920545918905
 50
182.9891106901995101
 51
239.309924772868186
  0
LINE
  5
AE72
  8
0
 10
4605.8721999655308537
 20
315.4609567089715938
 30
0.0
 11
4605.2905921426781788
 21
315.4354752495175944
 31
0.0
  0
ARC
  5
AE73
  8
0
 10
4605.226256926732276
 20
317.3793560147764765
 30
0.0
 40
1.944945101938492
 50
263.6597082522966957
 51
271.8955850641768279
  0
ARC
  5
AE74
  8
0
 10
4605.0289763802884409
 20
315.6806394584418172
 30
0.0
 40
0.2349853671671915
 50
251.2832715651063893
 51
265.7275858367416959
  0
ARC
  5
AE75
  8
0
 10
4605.299161065699991
 20
315.3857738997053275
 30
0.0
 40
0.0504346172266444
 50
99.7820989044999607
 51
157.4265516102119875
  0
ARC
  5
AE76
  8
0
 10
4602.1811955344583112
 20
315.9295884927523161
 30
0.0
 40
3.115849550721923
 50
344.2355742812840163
 51
350.3099462943031881
  0
ARC
  5
AE77
  8
0
 10
4607.6514958383559133
 20
314.4361796064284249
 30
0.0
 40
2.5548980084774038
 50
165.3333696037728942
 51
172.6969859726978029
  0
ARC
  5
AE78
  8
0
 10
4604.8639047694905457
 20
314.7952412826062982
 30
0.0
 40
0.2557285405502952
 50
345.1401643295770896
 51
352.2938595795424135
  0
LINE
  5
AE79
  8
0
 10
4605.11108074823278
 20
314.7296583428671966
 30
0.0
 11
4605.1094075579867422
 21
314.7218699477857058
 31
0.0
  0
ARC
  5
AE7A
  8
0
 10
4604.9838262237326489
 20
314.7488140928055032
 30
0.0
 40
0.1284393182166832
 50
309.06121167491591
 51
347.8904739171288156
  0
ARC
  5
AE7B
  8
0
 10
4605.3487420695191759
 20
314.3686243335646964
 30
0.0
 40
0.399127001271156
 50
135.3572768782638889
 51
160.2532789458132072
  0
ARC
  5
AE7C
  8
0
 10
4604.4700566488627373
 20
315.1707872464016873
 30
0.0
 40
0.8356700239581023
 50
307.0094584241102211
 51
319.4666615766413997
  0
ARC
  5
AE7D
  8
0
 10
4605.8964509574698241
 20
313.6720850311610889
 30
0.0
 40
1.240678181979143
 50
116.5344948656785959
 51
129.6253993042579111
  0
LINE
  5
AE7E
  8
0
 10
4605.3421946959069828
 20
314.7820770796722059
 30
0.0
 11
4605.3421946948692494
 21
314.7222381888944938
 31
0.0
  0
ARC
  5
AE7F
  8
0
 10
4605.2021501032122615
 20
314.7222617351724239
 30
0.0
 40
0.1400445936370426
 50
326.8698130365208954
 51
359.9903666100485111
  0
ARC
  5
AE80
  8
0
 10
4605.5670355315342022
 20
314.4990182535372014
 30
0.0
 40
0.2878044293764904
 50
149.3540367826288104
 51
171.8673420723692118
  0
ARC
  5
AE81
  8
0
 10
4605.5302005987050507
 20
314.4729912331994228
 30
0.0
 40
0.2568962296611689
 50
140.3732154793628126
 51
164.9418555001996936
  0
ARC
  5
AE82
  8
0
 10
4604.609448925641118
 20
314.6617837499069879
 30
0.0
 40
0.6836594481953564
 50
321.4468914878602277
 51
349.71607547329711
  0
ARC
  5
AE83
  8
0
 10
4606.3937285371057442
 20
314.0102292481707877
 30
0.0
 40
0.0100881459949276
 50
79.2129602456757596
 51
121.354559681058106
  0
ARC
  5
AE84
  8
0
 10
4606.3999803694623552
 20
314.0028472278797267
 30
0.0
 40
0.0197021656767683
 50
125.714315635874101
 51
159.590352882990004
  0
ARC
  5
AE85
  8
0
 10
4606.4571661116087853
 20
313.9819210408542176
 30
0.0
 40
0.0805962360659867
 50
159.8248548337093098
 51
181.4918017828017014
  0
ARC
  5
AE86
  8
0
 10
4606.3926378427149757
 20
313.9006053101696807
 30
0.0
 40
0.0093880441901866
 50
238.0243835373385934
 51
282.8553971408090888
  0
ARC
  5
AE87
  8
0
 10
4606.3981683899519339
 20
313.9071697923149031
 30
0.0
 40
0.0179264992774708
 50
201.6527122321209902
 51
234.1376310007678114
  0
ARC
  5
AE88
  8
0
 10
4606.4522575072878681
 20
313.9274765367770215
 30
0.0
 40
0.0756994880617694
 50
178.1566554215671943
 51
200.8322642515873895
  0
LINE
  5
AE89
  8
0
 10
4606.3765971928069121
 20
313.9798228056022822
 30
0.0
 11
4606.3765971928069121
 21
313.9299115533023041
 31
0.0
  0
ARC
  5
AE8A
  8
0
 10
4606.4055977895532124
 20
313.6554578059910909
 30
0.0
 40
0.0499789103897151
 50
359.9769747001618043
 51
81.0147917087184481
  0
LINE
  5
AE8B
  8
0
 10
4606.455576695907439
 20
313.6554377211023166
 30
0.0
 11
4606.455576695907439
 21
313.6319985406021829
 31
0.0
  0
ARC
  5
AE8C
  8
0
 10
4606.4056015372843831
 20
313.6319766269850788
 30
0.0
 40
0.0499751634271142
 50
280.982420625517193
 51
0.0251236360775287
  0
LINE
  5
AE8D
  8
0
 10
4606.3956216758997471
 20
313.7076397692496244
 30
0.0
 11
4606.4134034695007358
 21
313.7048234098494959
 31
0.0
  0
LINE
  5
AE8E
  8
0
 10
4606.4151221960009934
 20
313.5829167246495217
 30
0.0
 11
4606.3947316505000344
 21
313.5789532167494826
 31
0.0
  0
ARC
  5
AE8F
  8
0
 10
4606.3937335873997654
 20
313.6977298847181146
 30
0.0
 40
0.0100881459949276
 50
79.2129602456757596
 51
121.354559681058106
  0
ARC
  5
AE90
  8
0
 10
4606.3999854197545574
 20
313.690347864426883
 30
0.0
 40
0.0197021656767683
 50
125.714315635874101
 51
159.590352882990004
  0
ARC
  5
AE91
  8
0
 10
4606.457171161901897
 20
313.6694216774014876
 30
0.0
 40
0.0805962360659867
 50
159.8248548337093098
 51
181.4918017828017014
  0
ARC
  5
AE92
  8
0
 10
4606.3926428930080874
 20
313.5881059467168939
 30
0.0
 40
0.0093880441901866
 50
238.0243835373385934
 51
282.8553971408090888
  0
ARC
  5
AE93
  8
0
 10
4606.3981734402459551
 20
313.5946704288621731
 30
0.0
 40
0.0179264992774708
 50
201.6527122321209902
 51
234.1376310007678114
  0
ARC
  5
AE94
  8
0
 10
4606.4522625575809798
 20
313.6149771733242915
 30
0.0
 40
0.0756994880617694
 50
178.1566554215671943
 51
200.8322642515873895
  0
LINE
  5
AE95
  8
0
 10
4606.3766022431009333
 20
313.6673234421494953
 30
0.0
 11
4606.3766022431009333
 21
313.6174121898495173
 31
0.0
  0
ARC
  5
AE96
  8
0
 10
4607.7187048862106167
 20
201.4079368214644035
 30
0.0
 40
111.9868852033306013
 50
92.5130694022160043
 51
92.6579315312623493
  0
ARC
  5
AE97
  8
0
 10
4606.8152420877404438
 20
277.0316678205052767
 30
0.0
 40
36.1364539447098423
 50
91.9974114712837547
 51
93.6184349772046147
  0
ARC
  5
AE98
  8
0
 10
4605.5514841747735773
 20
312.9359212800770251
 30
0.0
 40
0.2102869330450329
 50
60.7300317438517183
 51
88.8431859403238349
  0
LINE
  5
AE99
  8
0
 10
4605.6542987738621378
 20
313.1193599685367985
 30
0.0
 11
4605.2755697345082808
 21
310.7866704009023238
 31
0.0
  0
ARC
  5
AE9A
  8
0
 10
4608.5502213136223872
 20
310.1648864117379958
 30
0.0
 40
3.3331604062484521
 50
169.2487847210564098
 51
176.9581557076438969
  0
ARC
  5
AE9B
  8
0
 10
4597.6568275616173196
 20
309.3866576078656863
 30
0.0
 40
7.624984157365728
 50
7.1957579615416662
 51
18.5411289435733586
  0
ARC
  5
AE9C
  8
0
 10
4605.5451946959074121
 20
312.5114356197022971
 30
0.0
 40
0.1720000000000152
 50
0.0000244173338549
 51
77.3553903694083971
  0
LINE
  5
AE9D
  8
0
 10
4605.7171946959069828
 20
312.5114356930022836
 30
0.0
 11
4605.7171946959069828
 21
312.3139243166023107
 31
0.0
  0
ARC
  5
AE9E
  8
0
 10
4605.5452131778883995
 20
312.3139138584547823
 30
0.0
 40
0.1719815183366329
 50
271.1191307826650814
 51
0.0034841401403742
  0
LINE
  5
AE9F
  8
0
 10
4605.5485721962068055
 20
312.1419651462023239
 30
0.0
 11
4605.4953051304382825
 21
312.1400772233700991
 31
0.0
  0
ARC
  5
AEA0
  8
0
 10
4606.3252596793399789
 20
312.269854299244912
 30
0.0
 40
1.510506147090793
 50
186.0502550718958901
 51
197.6729227407680867
  0
ARC
  5
AEA1
  8
0
 10
4604.8520783894346096
 20
312.1053237859725868
 30
0.0
 40
0.0293968505442368
 50
100.7002844078413943
 51
169.569557981096608
  0
LINE
  5
AEA2
  8
0
 10
4604.846620232307032
 20
312.1342094804023191
 30
0.0
 11
4605.0898125556068408
 21
312.1426497283022741
 31
0.0
  0
ARC
  5
AEA3
  8
0
 10
4605.1207058670042898
 20
312.2641310229204237
 30
0.0
 40
0.1145270139637005
 50
287.3188471782419242
 51
26.1021251670464096
  0
LINE
  5
AEA4
  8
0
 10
4605.2235524148072727
 20
312.3145197571022891
 30
0.0
 11
4605.1602682580059991
 21
312.4908256584022865
 31
0.0
  0
ARC
  5
AEA5
  8
0
 10
4604.8723557154844457
 20
312.3236304473044811
 30
0.0
 40
0.3329382386517168
 50
30.1443897469649613
 51
91.4389134274283037
  0
LINE
  5
AEA6
  8
0
 10
4604.863995257706847
 20
312.6564636991022894
 30
0.0
 11
4604.4737865231072647
 21
312.6626168434023043
 31
0.0
  0
ARC
  5
AEA7
  8
0
 10
4604.4779576295095467
 20
312.7451741096057276
 30
0.0
 40
0.0826625691084372
 50
196.6772045619468088
 51
267.1076591506881073
  0
LINE
  5
AEA8
  8
0
 10
4604.3987720833074491
 20
312.7214516388021934
 30
0.0
 11
4604.3696079908067986
 21
312.7792553557022757
 31
0.0
  0
ARC
  5
AEA9
  8
0
 10
4604.473296354564809
 20
312.835727929068014
 30
0.0
 40
0.1180695910111355
 50
128.691846605043196
 51
208.5743691838189875
  0
ARC
  5
AEAA
  8
0
 10
4604.8430512510803965
 20
312.2835198035808162
 30
0.0
 40
0.7822746148413735
 50
99.1665721482522287
 51
124.5425549830467986
  0
ARC
  5
AEAB
  8
0
 10
4605.753042392037969
 20
307.5262017544944797
 30
0.0
 40
5.62555999532748
 50
93.7124346383650391
 51
100.597743502228397
  0
ARC
  5
AEAC
  8
0
 10
4606.3357434268764337
 20
309.3288579395331794
 30
0.0
 40
3.8512689398433539
 50
93.5588268504473604
 51
100.1915909636058046
  0
ARC
  5
AEAD
  8
0
 10
4606.676870705690817
 20
305.2057908923637797
 30
0.0
 40
7.9880072739139241
 50
93.3802112384595802
 51
94.1651980368978343
  0
ARC
  5
AEAE
  8
0
 10
4605.336512173785195
 20
310.5562038958331073
 30
0.0
 40
0.0246361058409653
 50
23.2428421691537004
 51
79.5173489161937965
  0
ARC
  5
AEAF
  8
0
 10
4605.2867055549068027
 20
310.5447953358536211
 30
0.0
 40
0.0754621316741892
 50
336.8195513109521926
 51
16.2612223856928217
  0
ARC
  5
AEB0
  8
0
 10
4605.1112442223720791
 20
310.5989965959208234
 30
0.0
 40
0.2588097834494583
 50
332.5914921945487208
 51
341.0830835155139766
  0
ARC
  5
AEB1
  8
0
 10
4605.0855961832567118
 20
312.3451274613955206
 30
0.0
 40
0.2025216289544032
 50
271.1929481171346765
 51
289.9809225979300891
  0
ARC
  5
AEB2
  8
0
 10
4615.261025121961211
 20
310.8326792798592919
 30
0.0
 40
13.4342626364491906
 50
173.1659403220525917
 51
174.3305726310692876
  0
LINE
  5
AEB3
  8
0
 10
4601.9222136334237803
 20
312.4312788727464181
 30
0.0
 11
4602.4310232997067942
 21
312.427920490502288
 31
0.0
  0
ARC
  5
AEB4
  8
0
 10
4602.48954832936397
 20
313.1293135004743817
 30
0.0
 40
0.703830472155096
 50
265.2302243138001927
 51
274.4831105172788739
  0
LINE
  5
AEB5
  8
0
 10
4602.3374547669391177
 20
296.8933063133022756
 30
0.0
 11
4605.3420055027645503
 21
296.8931700711947883
 31
0.0
  0
LINE
  5
AEB6
  8
0
 10
4602.3374564917057796
 20
296.8800749342261724
 30
0.0
 11
4605.3420064710226143
 21
296.8800626474449018
 31
0.0
  0
LINE
  5
AEB7
  8
0
 10
4606.4055766959072571
 20
284.458518372502283
 30
0.0
 11
4606.4055766959072571
 21
283.1135183725024262
 31
0.0
  0
ARC
  5
AEB8
  8
0
 10
4606.2505766959066023
 20
283.1135183725024262
 30
0.0
 40
0.1550000000000011
 50
270.0
 51
0.0
  0
LINE
  5
AEB9
  8
0
 10
4606.2505766959066023
 20
282.958518372502283
 30
0.0
 11
4606.079788817307417
 21
282.9585183725022262
 31
0.0
  0
ARC
  5
AEBA
  8
0
 10
4606.0812298502778503
 20
283.1151188017740878
 30
0.0
 40
0.156607059304955
 50
186.5272193712312117
 51
269.4727806465065214
  0
LINE
  5
AEBB
  8
0
 10
4605.9256379235112036
 20
283.0973164606651835
 30
0.0
 11
4605.9139503965152471
 21
283.208515851871482
 31
0.0
  0
LINE
  5
AEBC
  8
0
 10
4606.3305756462495992
 20
283.2085183724061039
 30
0.0
 11
4592.3589275123058542
 21
283.2084338455522925
 31
0.0
  0
LINE
  5
AEBD
  8
0
 10
4591.1123798040071051
 20
283.2083967445523172
 30
0.0
 11
4581.5279890744068325
 21
283.2083492571022134
 31
0.0
  0
LINE
  5
AEBE
  8
0
 10
4580.2835561987067194
 20
283.2082751420023214
 30
0.0
 11
4574.59016305350724
 21
283.2188972278023016
 31
0.0
  0
ARC
  5
AEBF
  8
0
 10
4580.6546040637977057
 20
283.3588838834197077
 30
0.0
 40
0.4004491368193213
 50
202.0922882461024983
 51
268.829040390993498
  0
LINE
  5
AEC0
  8
0
 10
4580.6464206142072726
 20
282.9585183725022262
 30
0.0
 11
4581.164732777707286
 21
282.958518372502283
 31
0.0
  0
ARC
  5
AEC1
  8
0
 10
4581.1562069931160295
 20
283.3599193005476877
 30
0.0
 40
0.4014914619747889
 50
271.2167835208420001
 51
337.8200060507116973
  0
ARC
  5
AEC2
  8
0
 10
4591.4855121354094081
 20
283.3618831778358071
 30
0.0
 40
0.4034672501449623
 50
202.3596120901148936
 51
268.7088174159144955
  0
LINE
  5
AEC3
  8
0
 10
4591.4764206142071998
 20
282.958518372502283
 30
0.0
 11
4591.9947327777072132
 21
282.9585183725022262
 31
0.0
  0
ARC
  5
AEC4
  8
0
 10
4591.985428536137988
 20
283.3624002480310082
 30
0.0
 40
0.4039890323904669
 50
271.3196915499494821
 51
337.5972157883161913
  0
ARC
  5
AEC5
  8
0
 10
4606.3305766954999854
 20
283.2835183731074835
 30
0.0
 40
0.0750000007088221
 50
269.9991984322880967
 51
359.9948589916382957
  0
ARC
  5
AEC6
  8
0
 10
4574.596932110383932
 20
283.1879827899754218
 30
0.0
 40
0.0316468418197908
 50
102.3506252618332013
 51
179.9723733456332866
  0
LINE
  5
AEC7
  8
0
 10
4605.3755766959038738
 20
283.2085125947730262
 30
0.0
 11
4605.3755761343072663
 21
282.0060328094447755
 31
0.0
  0
ARC
  5
AEC8
  8
0
 10
4604.6055761325005733
 20
282.0060327916380061
 30
0.0
 40
0.7700000018060964
 50
272.000041946864485
 51
0.0000013250062563
  0
LINE
  5
AEC9
  8
0
 10
4604.6324493084066489
 20
281.2365018727023198
 30
0.0
 11
4574.9234265862069151
 21
281.2803371288022731
 31
0.0
  0
ARC
  5
AECA
  8
0
 10
4574.9114280672829409
 20
280.9290155192987868
 30
0.0
 40
0.3515264396321815
 50
88.0439649082323541
 51
174.7650986296517033
  0
LINE
  5
AECB
  8
0
 10
4574.5652852722441821
 20
283.1879980493249036
 30
0.0
 11
4574.561367842468826
 21
280.9610885104924023
 31
0.0
  0
LINE
  5
AECC
  8
0
 10
4574.561367842468826
 20
280.9610885104924023
 30
0.0
 11
4574.2488619181067406
 21
263.458518372502283
 31
0.0
  0
LINE
  5
AECD
  8
0
 10
4574.2488619181067406
 20
263.458518372502283
 30
0.0
 11
4574.108840592107299
 21
263.458518372502283
 31
0.0
  0
ARC
  5
AECE
  8
0
 10
4567.3958758994949676
 20
268.989115304182576
 30
0.0
 40
7.3258253927888326
 50
341.4962855684394185
 51
2.723515261378016
  0
LINE
  5
AECF
  8
0
 10
4574.561367842468826
 20
280.9610885104924023
 30
0.0
 11
4574.7134264608939702
 21
269.3372122260371953
 31
0.0
  0
ARC
  5
AED0
  8
0
 10
4576.1296055941320446
 20
278.555629496402787
 30
0.0
 40
1.499999998381341
 50
134.4720934735638878
 51
157.7081402444806884
  0
ARC
  5
AED1
  8
0
 10
4576.1134172653910355
 20
279.2332753086309935
 30
0.0
 40
1.0051228664798111
 50
89.5292601540272557
 51
132.9471503610436116
  0
ARC
  5
AED2
  8
0
 10
4578.0736765420597294
 20
278.4913996280632773
 30
0.0
 40
1.6829251850000491
 50
43.1770826204185667
 51
90.9530031023306265
  0
ARC
  5
AED3
  8
0
 10
4571.841046654276397
 20
271.4351437089633805
 30
0.0
 40
11.0913503789897305
 50
32.2453701682436389
 51
47.7330085725672504
  0
ARC
  5
AED4
  8
0
 10
4625.8302056280881516
 20
295.6356702426264178
 30
0.0
 40
48.138372613970688
 50
200.548230477987687
 51
202.1327923486070119
  0
ARC
  5
AED5
  8
0
 10
4643.6214650803067343
 20
302.2421315126995864
 30
0.0
 40
67.1165650304412509
 50
198.6969543955731865
 51
200.498275664174912
  0
LINE
  5
AED6
  8
0
 10
4575.0787629179703799
 20
279.6260171201644766
 30
0.0
 11
4575.4286034670076333
 21
279.9690076229023248
 31
0.0
  0
LINE
  5
AED7
  8
0
 10
4574.7417101657383682
 20
279.1246165568754805
 30
0.0
 11
4574.5925371640323647
 21
278.7607479536470123
 31
0.0
  0
LINE
  5
AED8
  8
0
 10
4575.8046134733958752
 20
280.2489558081135783
 30
0.0
 11
4578.0456856676073585
 21
280.1740920210023091
 31
0.0
  0
ARC
  5
AED9
  8
0
 10
4575.798774047058032
 20
279.4412367955520153
 30
0.0
 40
0.8077401204306504
 50
89.585785836469654
 51
146.9513201987251989
  0
ARC
  5
AEDA
  8
0
 10
4578.8106849093519486
 20
277.320879475915774
 30
0.0
 40
4.490708420446464
 50
145.2318259518808929
 51
155.0645976858180859
  0
ARC
  5
AEDB
  8
0
 10
4578.3918689023521438
 20
277.5630467811803896
 30
0.0
 40
4.0090669314043446
 50
155.6794623784398937
 51
161.4304178372981085
  0
ARC
  5
AEDC
  8
0
 10
4604.0169552810757523
 20
280.7187591287747068
 30
0.0
 40
0.5195089380569943
 50
93.2100240342024193
 51
175.1074658486930105
  0
LINE
  5
AEDD
  8
0
 10
4603.4993392165033583
 20
280.7630665369243275
 30
0.0
 11
4603.1442758891871563
 21
273.9886500227394208
 31
0.0
  0
ARC
  5
AEDE
  8
0
 10
4602.7647972601516813
 20
274.0085179647030031
 30
0.0
 40
0.3799983750116274
 50
277.2458340556398753
 51
357.0029648106279865
  0
ARC
  5
AEDF
  8
0
 10
4602.6277921381961278
 20
273.5049966347705777
 30
0.0
 40
0.1268304274057841
 50
93.9306338490725068
 51
175.2973012510977071
  0
LINE
  5
AEE0
  8
0
 10
4602.5013886820961488
 20
273.5153948847150787
 30
0.0
 11
4602.0746100117057722
 21
265.9885586815022975
 31
0.0
  0
ARC
  5
AEE1
  8
0
 10
4600.5190861234686963
 20
266.0804314158914963
 30
0.0
 40
1.558234631305794
 50
281.0489627618856048
 51
356.619909243945699
  0
LINE
  5
AEE2
  8
0
 10
4602.8127252546355521
 20
273.6315542100398943
 30
0.0
 11
4579.7447086979345841
 21
273.6285183724993999
 31
0.0
  0
ARC
  5
AEE3
  8
0
 10
4579.744695201594368
 20
274.0084870667873815
 30
0.0
 40
0.3799686945276815
 50
191.9957301943146035
 51
270.0020351239929823
  0
ARC
  5
AEE4
  8
0
 10
4579.8739254785841695
 20
273.5065242420607774
 30
0.0
 40
0.1220565447761391
 50
12.7818093606946004
 51
88.4445862561135669
  0
LINE
  5
AEE5
  8
0
 10
4579.9929574187071921
 20
273.5335278965022781
 30
0.0
 11
4581.6704162288060616
 21
265.6659542120023048
 31
0.0
  0
ARC
  5
AEE6
  8
0
 10
4583.1693227244222726
 20
265.989523489739895
 30
0.0
 40
1.533433324305383
 50
192.1815287287336957
 51
252.5832955550521888
  0
LINE
  5
AEE7
  8
0
 10
4579.3730238486477901
 20
273.9295148297679248
 30
0.0
 11
4578.0456856678292752
 21
280.174092021006004
 31
0.0
  0
LINE
  5
AEE8
  8
0
 10
4577.8308973655502996
 20
279.5384293826974726
 30
0.0
 11
4578.3723403182921174
 21
278.6373169856981917
 31
0.0
  0
ARC
  5
AEE9
  8
0
 10
4576.5451464146071885
 20
278.7658722703023955
 30
0.0
 40
1.4999999999998339
 50
32.8919941855906188
 51
49.9999999999874305
  0
LINE
  5
AEEA
  8
0
 10
4577.8308973656066883
 20
279.5384293826022031
 30
0.0
 11
4577.8046900439858291
 21
279.580457959894602
 31
0.0
  0
LINE
  5
AEEB
  8
0
 10
4577.5093278291369643
 20
279.9149389349806825
 30
0.0
 11
4577.4122069923059826
 21
279.9960160924022716
 31
0.0
  0
ARC
  5
AEEC
  8
0
 10
4576.780893340241164
 20
279.1998614523553783
 30
0.0
 40
1.0160802813531491
 50
51.5872171021946784
 51
87.0523683476849044
  0
LINE
  5
AEED
  8
0
 10
4581.2217884690553547
 20
277.3528912731957234
 30
0.0
 11
4581.2638574421598605
 21
277.3581764841694053
 31
0.0
  0
ARC
  5
AEEE
  8
0
 10
4581.2620054253848139
 20
277.3695347426908029
 30
0.0
 40
0.0115082580252425
 50
279.2608445966150157
 51
359.519222649726089
  0
ARC
  5
AEEF
  8
0
 10
4580.8997661194653119
 20
277.339646984971921
 30
0.0
 40
0.3749325989926598
 50
4.5573811139839933
 51
25.2062325956792712
  0
ARC
  5
AEF0
  8
0
 10
4579.5031103445980989
 20
280.5653079948382924
 30
0.0
 40
0.5672634242146442
 50
16.5683474354504199
 51
86.3197559021640615
  0
ARC
  5
AEF1
  8
0
 10
4596.403855411069344
 20
875.4331111281931044
 30
0.0
 40
594.5409386019360909
 50
267.9294851780443878
 51
268.3745698777349276
  0
ARC
  5
AEF2
  8
0
 10
4601.6294645716443483
 20
262.871733751598299
 30
0.0
 40
1.961466710732783
 50
111.4954959698369947
 51
129.837151470589788
  0
ARC
  5
AEF3
  8
0
 10
4598.0763423722273728
 20
267.042517705331079
 30
0.0
 40
3.5177573057908691
 50
271.4943622496709281
 51
310.7573333967808935
  0
ARC
  5
AEF4
  8
0
 10
4598.1609363698817106
 20
267.0123935283247079
 30
0.0
 40
3.5540625114740281
 50
269.4116843435106716
 51
310.9404781130568267
  0
ARC
  5
AEF5
  8
0
 10
4601.7767493714936791
 20
262.7910821964720753
 30
0.0
 40
2.0043290258576141
 50
112.0164493103100938
 51
129.9465873571753036
  0
ARC
  5
AEF6
  8
0
 10
4600.4336901770775512
 20
266.1466526894125764
 30
0.0
 40
1.6100678940825111
 50
276.2016677294728879
 51
291.5611690204586921
  0
LINE
  5
AEF7
  8
0
 10
4598.1244437364630357
 20
263.458518372502283
 30
0.0
 11
4584.5924730159067622
 21
263.458518372502283
 31
0.0
  0
ARC
  5
AEF8
  8
0
 10
4597.5273515064145613
 20
263.6959551178613879
 30
0.0
 40
0.2374367469703859
 50
269.9911265695948259
 51
332.6590604549027717
  0
ARC
  5
AEF9
  8
0
 10
4597.5237981361760831
 20
263.7836087504520037
 30
0.0
 40
0.3251093961963755
 50
270.6197611354755281
 51
318.137918193281223
  0
ARC
  5
AEFA
  8
0
 10
4597.5261269819839072
 20
263.9585515430953251
 30
0.0
 40
0.5000345800171678
 50
270.1360971223102183
 51
301.1251763821211966
  0
LINE
  5
AEFB
  8
0
 10
4597.7583825876272385
 20
263.5157286047917751
 30
0.0
 11
4598.168080503706733
 21
263.5259568033022788
 31
0.0
  0
ARC
  5
AEFC
  8
0
 10
4601.5167086775563803
 20
262.9436647557483866
 30
0.0
 40
1.947813922842913
 50
111.2063190154115944
 51
129.6938300337288865
  0
ARC
  5
AEFD
  8
0
 10
4597.9951649707600154
 20
267.1027288030883255
 30
0.0
 40
3.5020180969842589
 50
271.1873087802696887
 51
310.5672800913807237
  0
ARC
  5
AEFE
  8
0
 10
4600.3105867513495468
 20
266.2866713902288893
 30
0.0
 40
1.699395602135056
 50
275.9199522405903053
 51
290.6800964708720016
  0
ARC
  5
AEFF
  8
0
 10
4601.4278179790098875
 20
262.9951865570342875
 30
0.0
 40
1.9742213176275829
 50
111.1933715205347966
 51
129.7231890379040919
  0
ARC
  5
AF00
  8
0
 10
4597.8751852492869148
 20
267.1933606927203186
 30
0.0
 40
3.5255275933388792
 50
276.1698220582032945
 51
310.5278328908664776
  0
ARC
  5
AF01
  8
0
 10
4600.2170603242566358
 20
266.367920563496682
 30
0.0
 40
1.7148957440243271
 50
274.9799400318258904
 51
290.303998091886001
  0
ARC
  5
AF02
  8
0
 10
4601.3427115806916845
 20
263.0520653891887264
 30
0.0
 40
2.0044066840493042
 50
111.2367920628697959
 51
129.2541739307305875
  0
ARC
  5
AF03
  8
0
 10
4597.8224101811647415
 20
267.2646984980885918
 30
0.0
 40
3.4856655837438728
 50
273.2941662236310094
 51
310.2460679097277989
  0
ARC
  5
AF04
  8
0
 10
4600.1306264930126417
 20
266.4143783850954037
 30
0.0
 40
1.682882864537915
 50
274.2637736914746256
 51
290.2864033981323928
  0
ARC
  5
AF05
  8
0
 10
4601.2415821737477017
 20
263.1392869441401103
 30
0.0
 40
2.0044155329582738
 50
111.080587717188493
 51
129.141964577081211
  0
ARC
  5
AF06
  8
0
 10
4597.7337384847905923
 20
267.3548057824181114
 30
0.0
 40
3.47989054141653
 50
279.7220075347526063
 51
310.1234364916244886
  0
ARC
  5
AF07
  8
0
 10
4600.0441143241650934
 20
266.465222630857113
 30
0.0
 40
1.6475536370968751
 50
273.7253246269366969
 51
290.3355853279749113
  0
ARC
  5
AF08
  8
0
 10
4601.1142285773612457
 20
263.2660969347095943
 30
0.0
 40
1.959542146415554
 50
110.5575243332641975
 51
132.8121500764530083
  0
ARC
  5
AF09
  8
0
 10
4597.6924738050747692
 20
266.881716301532208
 30
0.0
 40
3.0187037079089278
 50
283.6611832009512
 51
313.8179077069574987
  0
ARC
  5
AF0A
  8
0
 10
4599.9523246558483152
 20
266.5579979575218772
 30
0.0
 40
1.64943645527837
 50
273.3946012057834878
 51
290.1541292660526778
  0
ARC
  5
AF0B
  8
0
 10
4601.0042689912161222
 20
263.3794130617419
 30
0.0
 40
1.9373633960796659
 50
110.3324995303410958
 51
129.1356416645832894
  0
ARC
  5
AF0C
  8
0
 10
4597.5545087401760611
 20
267.5406702570757034
 30
0.0
 40
3.4680293733166949
 50
281.1838460785442066
 51
309.9519377708384127
  0
ARC
  5
AF0D
  8
0
 10
4599.8495460350331996
 20
266.7381927955793799
 30
0.0
 40
1.735895600396115
 50
273.3400483296788934
 51
289.3998931730624804
  0
ARC
  5
AF0E
  8
0
 10
4600.9436279524743441
 20
263.4195914661669917
 30
0.0
 40
2.0042566548512522
 50
110.6830116138687998
 51
128.9150157941253951
  0
ARC
  5
AF0F
  8
0
 10
4599.0783915360116225
 20
262.8915665763983043
 30
0.0
 40
1.509780135288012
 50
122.0220678178315978
 51
152.5770409870634978
  0
ARC
  5
AF10
  8
0
 10
4597.4604156242075987
 20
267.6418306345872224
 30
0.0
 40
3.469499938942489
 50
287.9185000894605082
 51
309.8719139281619164
  0
ARC
  5
AF11
  8
0
 10
4599.7602895208146947
 20
266.8256901292298267
 30
0.0
 40
1.7267038628561791
 50
273.0971533665388051
 51
289.3037972562357254
  0
ARC
  5
AF12
  8
0
 10
4600.8455303794389692
 20
263.5165134401564728
 30
0.0
 40
2.0042759091771019
 50
110.5720846406202043
 51
128.8671353049024049
  0
ARC
  5
AF13
  8
0
 10
4597.3650362505450175
 20
267.7445388206411963
 30
0.0
 40
3.4722100371039368
 50
296.2563341483200929
 51
309.8039196228356218
  0
ARC
  5
AF14
  8
0
 10
4599.6772757992503102
 20
266.8513522925068173
 30
0.0
 40
1.6538216743274261
 50
272.7641608193417824
 51
289.7352690088064833
  0
ARC
  5
AF15
  8
0
 10
4600.7499776969543746
 20
263.6114997808799103
 30
0.0
 40
2.007860565041002
 50
110.504720193878299
 51
134.7728486902664997
  0
ARC
  5
AF16
  8
0
 10
4595.1222106689483553
 20
269.1096666849584835
 30
0.0
 40
5.8602250262244189
 50
302.580367651434301
 51
315.9738553553384008
  0
ARC
  5
AF17
  8
0
 10
4599.5858755708941317
 20
266.9510888886835005
 30
0.0
 40
1.6541332134512421
 50
272.618238843693689
 51
289.6183721566418967
  0
ARC
  5
AF18
  8
0
 10
4598.7032273829354381
 20
262.7224115005087128
 30
0.0
 40
1.2616513363883921
 50
103.6527622006420017
 51
137.9803246198245006
  0
ARC
  5
AF19
  8
0
 10
4598.3780283171563497
 20
262.5418868342964061
 30
0.0
 40
1.153046998009233
 50
96.1703173150519461
 51
120.9748197142887989
  0
LINE
  5
AF1A
  8
0
 10
4598.0677301630066722
 20
263.6014625972023282
 30
0.0
 11
4597.9157698314884328
 21
263.5982174984570747
 31
0.0
  0
LINE
  5
AF1B
  8
0
 10
4591.8440760186040279
 20
263.6237528393658067
 30
0.0
 11
4593.8697028520582535
 21
263.634523284793886
 31
0.0
  0
LINE
  5
AF1C
  8
0
 10
4593.9683821453054406
 20
263.7376778498311864
 30
0.0
 11
4595.8559199074888966
 21
263.7541800322894119
 31
0.0
  0
LINE
  5
AF1D
  8
0
 10
4592.0141019860066081
 20
263.5185462774903158
 30
0.0
 11
4593.8733627961210004
 21
263.5334638053088838
 31
0.0
  0
LINE
  5
AF1E
  8
0
 10
4593.9754814079433345
 20
263.5345238176769271
 30
0.0
 11
4595.9862872204821542
 21
263.5621502220253092
 31
0.0
  0
LINE
  5
AF1F
  8
0
 10
4592.361704035000912
 20
264.0594975800652264
 30
0.0
 11
4593.8547512234781607
 21
264.0473721632495767
 31
0.0
  0
LINE
  5
AF20
  8
0
 10
4592.1522902973647433
 20
263.9566112258222006
 30
0.0
 11
4593.8585139555443675
 21
263.943474470419801
 31
0.0
  0
LINE
  5
AF21
  8
0
 10
4592.4545082281074428
 20
263.8343044599022846
 30
0.0
 11
4593.8622513683512807
 21
263.8402759006236806
 31
0.0
  0
LINE
  5
AF22
  8
0
 10
4593.9611611844302388
 20
263.9443144250440128
 30
0.0
 11
4595.1731986099075584
 21
263.9515936680023174
 31
0.0
  0
LINE
  5
AF23
  8
0
 10
4592.01138959509899
 20
263.7286576715947035
 30
0.0
 11
4593.8659918360299343
 21
263.7369929787873843
 31
0.0
  0
LINE
  5
AF24
  8
0
 10
4593.9647797293246185
 20
263.8407653631948051
 30
0.0
 11
4595.6671194719137929
 21
263.8530734171720269
 31
0.0
  0
LINE
  5
AF25
  8
0
 10
4591.9313336081522721
 20
264.2502301776763147
 30
0.0
 11
4593.5432165113197698
 21
264.2536051971865732
 31
0.0
  0
LINE
  5
AF26
  8
0
 10
4592.8359103945367679
 20
264.1486878085980265
 30
0.0
 11
4593.8509609172815544
 21
264.1520312412907856
 31
0.0
  0
ARC
  5
AF27
  8
0
 10
4593.7131558499650055
 20
265.4130697284949747
 30
0.0
 40
0.0659804339771262
 50
4.8836091722116377
 51
87.0345407204285664
  0
LINE
  5
AF28
  8
0
 10
4593.7788967545784544
 20
265.4186867676248767
 30
0.0
 11
4593.8361813482506477
 21
264.5983739362744132
 31
0.0
  0
ARC
  5
AF29
  8
0
 10
4593.873507330224129
 20
264.6063306899254144
 30
0.0
 40
0.0381646297752158
 50
192.0335824263773929
 51
259.4769461326138753
  0
LINE
  5
AF2A
  8
0
 10
4593.8665372804589424
 20
264.5688079318809969
 30
0.0
 11
4593.9094654783066289
 21
264.5693071769023277
 31
0.0
  0
ARC
  5
AF2B
  8
0
 10
4593.9028817318376241
 20
264.6042254294919758
 30
0.0
 40
0.0355335064620799
 50
280.677618888224913
 51
354.7224958780856809
  0
LINE
  5
AF2C
  8
0
 10
4593.9382646078092876
 20
264.6009570706510772
 30
0.0
 11
4593.9381876095067128
 21
265.4151204938023056
 31
0.0
  0
ARC
  5
AF2D
  8
0
 10
4594.0039989083934415
 20
265.4140863550900917
 30
0.0
 40
0.0658194234547282
 50
93.3237556696153945
 51
179.0997456585469934
  0
LINE
  5
AF2E
  8
0
 10
4591.9982479618147408
 20
264.3550124781219779
 30
0.0
 11
4593.565343992070666
 21
264.3580732001053093
 31
0.0
  0
ARC
  5
AF2F
  8
0
 10
4593.4491484115269486
 20
265.4010236068858148
 30
0.0
 40
0.0614523215356663
 50
2.890205563300579
 51
70.5573928984919831
  0
LINE
  5
AF30
  8
0
 10
4593.5105225651695946
 20
265.4041221689370218
 30
0.0
 11
4593.5731818747071884
 21
264.208518372502283
 31
0.0
  0
LINE
  5
AF31
  8
0
 10
4593.5731818747071884
 20
264.208518372502283
 30
0.0
 11
4594.2285334971084012
 21
264.208518372502283
 31
0.0
  0
LINE
  5
AF32
  8
0
 10
4594.2285334971084012
 20
264.208518372502283
 30
0.0
 11
4594.2077206496069266
 21
265.4022355375022926
 31
0.0
  0
ARC
  5
AF33
  8
0
 10
4594.2699791488175833
 20
265.4027737741341184
 30
0.0
 40
0.0622608257473088
 50
110.387499187588304
 51
180.4953206312573002
  0
LINE
  5
AF34
  8
0
 10
4593.8789071115952538
 20
264.208518372502283
 30
0.0
 11
4593.9053303273585698
 21
263.458518372502283
 31
0.0
  0
ARC
  5
AF35
  8
0
 10
4596.3870009141783157
 20
263.6953841891607908
 30
0.0
 40
0.2368685027032146
 50
192.5826276904842018
 51
269.727139290383775
  0
ARC
  5
AF36
  8
0
 10
4596.3278195434668305
 20
263.7835123416219858
 30
0.0
 40
0.3249940840674166
 50
223.4938984625177056
 51
270.0481892319007216
  0
ARC
  5
AF37
  8
0
 10
4596.3172115460783971
 20
263.9613113083693747
 30
0.0
 40
0.5029106678681471
 50
241.9108744491317111
 51
268.7602105344773804
  0
LINE
  5
AF38
  8
0
 10
4595.9407037539813246
 20
264.0594430255114844
 30
0.0
 11
4593.9575330514790039
 21
264.0481378608487262
 31
0.0
  0
ARC
  5
AF39
  8
0
 10
4595.2532809118156365
 20
263.4414892980548757
 30
0.0
 40
0.9243467818997363
 50
18.7045120138355898
 51
90.300431025326489
  0
ARC
  5
AF3A
  8
0
 10
4595.1784240465585754
 20
262.6904207045535031
 30
0.0
 40
1.261183788716993
 50
43.5792128839049013
 51
90.2373930949652845
  0
ARC
  5
AF3B
  8
0
 10
4595.5476424814260099
 20
262.5128040730372163
 30
0.0
 40
1.137337481795661
 50
62.0668049437355123
 51
90.5966987604935241
  0
LINE
  5
AF3C
  8
0
 10
4593.9719558826709545
 20
263.6354110099196077
 30
0.0
 11
4595.5357980558173949
 21
263.6500798782309971
 31
0.0
  0
ARC
  5
AF3D
  8
0
 10
4595.3663156911934493
 20
263.4681635992016027
 30
0.0
 40
0.8088023933817975
 50
12.5408213663379797
 51
19.4825995049373404
  0
LINE
  5
AF3E
  8
0
 10
4595.8327959862208445
 20
264.1616137676753056
 30
0.0
 11
4593.9538975074028713
 21
264.1521733749016221
 31
0.0
  0
LINE
  5
AF3F
  8
0
 10
4595.248434111907045
 20
264.3658233728023106
 30
0.0
 11
4594.2258603078544184
 21
264.3616118900278025
 31
0.0
  0
LINE
  5
AF40
  8
0
 10
4595.6750009494908227
 20
264.264027554327015
 30
0.0
 11
4594.2568639056071333
 21
264.2575012831022718
 31
0.0
  0
ARC
  5
AF41
  8
0
 10
4594.2570174042048166
 20
264.2281066745356952
 30
0.0
 40
0.0293950093485762
 50
90.2991957488596881
 51
169.6579404383610097
  0
ARC
  5
AF42
  8
0
 10
4599.4962688190471454
 20
267.0451203833329146
 30
0.0
 40
1.6476180576796109
 50
270.6523651024853052
 51
289.514762306615296
  0
ARC
  5
AF43
  8
0
 10
4597.0421619448688944
 20
265.3226192175503115
 30
0.0
 40
0.0632546566126123
 50
107.5051058364400944
 51
179.9002035275748881
  0
LINE
  5
AF44
  8
0
 10
4596.97890738420665
 20
265.3227293930023052
 30
0.0
 11
4596.9789073718065993
 21
263.4885183722994952
 31
0.0
  0
ARC
  5
AF45
  8
0
 10
4596.9489073712402387
 20
263.4885183730693825
 30
0.0
 40
0.0300000005670924
 50
270.0000012134382814
 51
359.9999985295964962
  0
ARC
  5
AF46
  8
0
 10
4596.9068218699067074
 20
263.4885183725023126
 30
0.0
 40
0.030000000000055
 50
184.0000604965150899
 51
269.999999999895806
  0
LINE
  5
AF47
  8
0
 10
4596.7482703062114524
 20
265.3257554945927268
 30
0.0
 11
4596.8768949506093122
 21
263.4864256466912025
 31
0.0
  0
ARC
  5
AF48
  8
0
 10
4596.6831540346920519
 20
265.3181968077033162
 30
0.0
 40
0.0655535091664345
 50
6.6212520573911497
 51
73.5077284091441214
  0
ARC
  5
AF49
  8
0
 10
4597.2004589233129082
 20
265.3198968837560869
 30
0.0
 40
0.0691215841215752
 50
112.3334537704575951
 51
181.4442266856518131
  0
LINE
  5
AF4A
  8
0
 10
4597.1313592968563171
 20
265.3181547542945964
 30
0.0
 11
4597.1839037858653683
 21
263.4859152721634246
 31
0.0
  0
ARC
  5
AF4B
  8
0
 10
4597.4129313114599427
 20
263.4916721565321041
 30
0.0
 40
0.2290998673011828
 50
181.4398956384960115
 51
188.3206738841541039
  0
ARC
  5
AF4C
  8
0
 10
4596.4437187148287194
 20
263.4778206175677155
 30
0.0
 40
0.2283377283261462
 50
355.1507856723937948
 51
2.5444509909893092
  0
LINE
  5
AF4D
  8
0
 10
4596.6718313204910373
 20
263.487957545865811
 30
0.0
 11
4596.5964537163072237
 21
265.3181269800023188
 31
0.0
  0
ARC
  5
AF4E
  8
0
 10
4596.5241561302800619
 20
265.3150363315510276
 30
0.0
 40
0.0723636169161458
 50
2.4478460428051019
 51
64.2122286712715749
  0
LINE
  5
AF4F
  8
0
 10
4599.5150280594070864
 20
265.3976091224022866
 30
0.0
 11
4594.208345806451689
 21
265.3663797778893922
 31
0.0
  0
ARC
  5
AF50
  8
0
 10
4593.4716065390603035
 20
265.5206302438103876
 30
0.0
 40
0.0616911340903985
 50
247.4553475932526112
 51
268.1394221364012083
  0
ARC
  5
AF51
  8
0
 10
4593.4695766040458693
 20
265.4106142762195191
 30
0.0
 40
0.0572773650733021
 50
92.7572133753212
 51
112.1793939561238034
  0
ARC
  5
AF52
  8
0
 10
4593.8772052170461393
 20
259.0705137278592929
 30
0.0
 40
6.4104610368907116
 50
86.6667349937492304
 51
93.6704621295186257
  0
ARC
  5
AF53
  8
0
 10
4594.2464264002992422
 20
265.5231528330853052
 30
0.0
 40
0.0620463530854398
 50
271.7207083954228892
 51
292.3368402390386791
  0
ARC
  5
AF54
  8
0
 10
4594.2481430794514381
 20
265.413587373556993
 30
0.0
 40
0.0565706661733934
 50
67.2636164971333415
 51
88.1870917975109023
  0
ARC
  5
AF55
  8
0
 10
4593.3704114612710327
 20
264.2086690485214149
 30
0.0
 40
1.255468444550331
 50
90.3696958878366843
 51
148.7492000501079872
  0
LINE
  5
AF56
  8
0
 10
4592.2971056782171217
 20
264.85998748931911
 30
0.0
 11
4592.2742210944506951
 21
264.8205934239661019
 31
0.0
  0
ARC
  5
AF57
  8
0
 10
4583.529202398369307
 20
269.6896216089272116
 30
0.0
 40
10.0091352004440903
 50
326.8062064459713838
 51
330.8919310335261912
  0
ARC
  5
AF58
  8
0
 10
4593.5399739808362938
 20
264.2202678117607206
 30
0.0
 40
0.0334947051167459
 50
16.6587151888617484
 51
84.4446525749810633
  0
ARC
  5
AF59
  8
0
 10
4592.8400974079650041
 20
262.821209206738672
 30
0.0
 40
1.3274852049932711
 50
90.1807165873087939
 51
144.3800478911161917
  0
ARC
  5
AF5A
  8
0
 10
4592.9481510355180944
 20
263.4786350297853801
 30
0.0
 40
1.2738646090781991
 50
144.9670052703143881
 51
166.776306511505112
  0
ARC
  5
AF5B
  8
0
 10
4593.0602981590209311
 20
263.4573931444036248
 30
0.0
 40
1.3879061543920159
 50
166.9817020797528926
 51
171.4906275964258953
  0
ARC
  5
AF5C
  8
0
 10
4591.4529369695837886
 20
263.6955212386861831
 30
0.0
 40
0.2370082897853366
 50
269.6123850035393161
 51
352.0554635971466837
  0
ARC
  5
AF5D
  8
0
 10
4592.4607168785933027
 20
262.826144592271703
 30
0.0
 40
1.0081789851221079
 50
90.352845797394167
 51
133.1925984772821039
  0
ARC
  5
AF5E
  8
0
 10
4591.4922297861648985
 20
263.7922847911021904
 30
0.0
 40
0.3337827399439056
 50
270.5666115463355936
 51
323.6283276960778039
  0
ARC
  5
AF5F
  8
0
 10
4591.5090045924853257
 20
263.8424647808939767
 30
0.0
 40
0.3841827602673479
 50
272.0098816636348147
 51
312.9285092870226208
  0
ARC
  5
AF60
  8
0
 10
4592.022863879765282
 20
262.4624966958052141
 30
0.0
 40
1.056085929155177
 50
90.4753640574392648
 51
103.9419357583644938
  0
ARC
  5
AF61
  8
0
 10
4591.5640923525470498
 20
264.1935783237875057
 30
0.0
 40
0.7350744787350088
 50
269.6397803790213175
 51
286.1383675307583871
  0
ARC
  5
AF62
  8
0
 10
4591.0310426000924053
 20
265.4082234833866778
 30
0.0
 40
0.063278504721869
 50
104.4592128329795031
 51
180.1128945168605071
  0
LINE
  5
AF63
  8
0
 10
4590.9677642182059571
 20
265.4080988007023052
 30
0.0
 11
4590.9751346925067992
 21
263.4885183725023126
 31
0.0
  0
ARC
  5
AF64
  8
0
 10
4590.9451332826765793
 20
263.4885189548878088
 30
0.0
 40
0.030001409835117
 50
270.4255382058889268
 51
359.9988877777673224
  0
ARC
  5
AF65
  8
0
 10
4590.9032724777071053
 20
263.4885183725023126
 30
0.0
 40
0.029999999999987
 50
184.8653103285552106
 51
269.9952774760307079
  0
LINE
  5
AF66
  8
0
 10
4590.7460875263996058
 20
265.4125502619760937
 30
0.0
 11
4590.8733805728334119
 21
263.4859739623640849
 31
0.0
  0
ARC
  5
AF67
  8
0
 10
4590.682927468710659
 20
265.4082055678574079
 30
0.0
 40
0.0633093141190098
 50
3.93509944254399
 51
78.4423944801498152
  0
ARC
  5
AF68
  8
0
 10
4591.200046618628221
 20
265.4030639353256902
 30
0.0
 40
0.0720200525053218
 50
113.4427231657499959
 51
180.4526377136419057
  0
LINE
  5
AF69
  8
0
 10
4591.1280288135067167
 20
265.4024949815022865
 30
0.0
 11
4591.1802665451068606
 21
263.4861489768023262
 31
0.0
  0
ARC
  5
AF6A
  8
0
 10
4591.4096806710449528
 20
263.4916841420421179
 30
0.0
 40
0.2294808907816217
 50
181.3821297533405072
 51
188.3097850105837949
  0
ARC
  5
AF6B
  8
0
 10
4590.4395427780191312
 20
263.4778081138734933
 30
0.0
 40
0.2288306453348096
 50
355.1643980686715736
 51
2.5974189208992771
  0
LINE
  5
AF6C
  8
0
 10
4590.668138325563632
 20
263.4881782578846128
 30
0.0
 11
4590.5863898643583525
 21
265.4064682613774266
 31
0.0
  0
ARC
  5
AF6D
  8
0
 10
4590.5148442916988643
 20
265.4033398764643152
 30
0.0
 40
0.0716139355099921
 50
2.5037069683175872
 51
69.8940544996471118
  0
LINE
  5
AF6E
  8
0
 10
4585.3438050268387087
 20
263.7595338241087006
 30
0.0
 11
4587.8623258108309528
 21
263.737542434578188
 31
0.0
  0
LINE
  5
AF6F
  8
0
 10
4587.9615198281326229
 20
263.8399159130602243
 30
0.0
 11
4589.394108689708446
 21
263.8342666610022889
 31
0.0
  0
LINE
  5
AF70
  8
0
 10
4584.769408176597608
 20
263.6721833284930767
 30
0.0
 11
4587.8660350281907085
 21
263.6351044063064251
 31
0.0
  0
LINE
  5
AF71
  8
0
 10
4587.9684162311641558
 20
263.6346296308225874
 30
0.0
 11
4590.0080323754846177
 21
263.622210504747386
 31
0.0
  0
LINE
  5
AF72
  8
0
 10
4584.7701289240558253
 20
263.5807025335067806
 30
0.0
 11
4587.8696829135769804
 21
263.5343601926671795
 31
0.0
  0
LINE
  5
AF73
  8
0
 10
4586.1761827922473458
 20
264.0559083624991104
 30
0.0
 11
4587.8510778149411635
 21
264.0481800728188091
 31
0.0
  0
LINE
  5
AF74
  8
0
 10
4585.9256884860660648
 20
263.9552342226966175
 30
0.0
 11
4587.8548392791208244
 21
263.9442991360945143
 31
0.0
  0
LINE
  5
AF75
  8
0
 10
4587.9545379942519503
 20
264.0477452284355877
 30
0.0
 11
4589.5334086102520814
 21
264.0414414532127125
 31
0.0
  0
LINE
  5
AF76
  8
0
 10
4585.6873843219236733
 20
263.8558106815527822
 30
0.0
 11
4587.8585905187092067
 21
263.8407005735302846
 31
0.0
  0
LINE
  5
AF77
  8
0
 10
4587.9580296630529119
 20
263.9438081900169095
 30
0.0
 11
4589.7304617623267404
 21
263.9364747417719173
 31
0.0
  0
LINE
  5
AF78
  8
0
 10
4586.1928277974993762
 20
264.365914106883281
 30
0.0
 11
4587.5620354678067088
 21
264.3602166343546855
 31
0.0
  0
LINE
  5
AF79
  8
0
 10
4586.8108931492070042
 20
264.1568422057022758
 30
0.0
 11
4587.8473019704470062
 21
264.152458152880115
 31
0.0
  0
ARC
  5
AF7A
  8
0
 10
4587.7086202936943664
 20
265.4152385431900143
 30
0.0
 40
0.0634104702706106
 50
4.068847553400726
 51
77.120472584981357
  0
LINE
  5
AF7B
  8
0
 10
4587.771870938480788
 20
265.4197378402420782
 30
0.0
 11
4587.8360760410059811
 21
264.5014015434023236
 31
0.0
  0
ARC
  5
AF7C
  8
0
 10
4587.8657049924504463
 20
264.5069544638611774
 30
0.0
 40
0.0301448119791583
 50
190.6149701242810011
 51
269.9700600674840985
  0
LINE
  5
AF7D
  8
0
 10
4587.8656892403068923
 20
264.4768096560022741
 30
0.0
 11
4587.9077821507071349
 21
264.4766951658023117
 31
0.0
  0
ARC
  5
AF7E
  8
0
 10
4587.9077652002124523
 20
264.5072149804756236
 30
0.0
 40
0.0305198193803634
 50
270.031821679504219
 51
350.6260926895013768
  0
LINE
  5
AF7F
  8
0
 10
4587.9378774713068196
 20
264.5022440143208087
 30
0.0
 11
4587.93801479202466
 21
265.4179920741526075
 31
0.0
  0
ARC
  5
AF80
  8
0
 10
4587.9956958007796857
 20
265.4202773832067237
 30
0.0
 40
0.057726262727567
 50
103.2897408593753994
 51
182.2688596879966951
  0
LINE
  5
AF81
  8
0
 10
4586.6926954299060526
 20
264.4690744676022973
 30
0.0
 11
4587.52877814526164
 21
264.4660252602355968
 31
0.0
  0
ARC
  5
AF82
  8
0
 10
4587.4429909413429414
 20
265.4034790548415117
 30
0.0
 40
0.0787860559081291
 50
5.4042503721796971
 51
70.2586621602727348
  0
LINE
  5
AF83
  8
0
 10
4587.5214267917071993
 20
265.4108992963022047
 30
0.0
 11
4587.5628441424059929
 21
264.4959150727742099
 31
0.0
  0
LINE
  5
AF84
  8
0
 10
4587.5581871934728042
 20
264.4381547088357252
 30
0.0
 11
4587.5695257289071378
 21
264.208518372502283
 31
0.0
  0
LINE
  5
AF85
  8
0
 10
4587.5695257289071378
 20
264.208518372502283
 30
0.0
 11
4588.2248751086071934
 21
264.208518372502283
 31
0.0
  0
LINE
  5
AF86
  8
0
 10
4588.2248751086071934
 20
264.208518372502283
 30
0.0
 11
4588.2209544202942197
 21
264.4331504874156167
 31
0.0
  0
LINE
  5
AF87
  8
0
 10
4588.2116387106070761
 20
264.4891624186022909
 30
0.0
 11
4588.1891043722071117
 21
265.4044425583023212
 31
0.0
  0
ARC
  5
AF88
  8
0
 10
4588.2689028643717393
 20
265.4009068029279774
 30
0.0
 40
0.079876785851114
 50
110.2144736347515988
 51
177.4629665710936877
  0
LINE
  5
AF89
  8
0
 10
4587.8750389957704101
 20
264.208518372502283
 30
0.0
 11
4587.9009713179502796
 21
263.458518372502283
 31
0.0
  0
ARC
  5
AF8A
  8
0
 10
4590.3887037796775985
 20
263.6954988787675802
 30
0.0
 40
0.236979170487615
 50
190.8130386311499933
 51
269.8657910628194259
  0
ARC
  5
AF8B
  8
0
 10
4590.3544866991096569
 20
263.7847091330013996
 30
0.0
 40
0.3265354765609401
 50
215.7283882723006911
 51
267.3670572410979958
  0
ARC
  5
AF8C
  8
0
 10
4590.3378218194056899
 20
263.8350532271542761
 30
0.0
 40
0.3765385345661015
 50
226.8115842466411038
 51
270.2533098661759823
  0
LINE
  5
AF8D
  8
0
 10
4589.0129374605066914
 20
264.1488139596023075
 30
0.0
 11
4587.9510369102463301
 21
264.1519625307619208
 31
0.0
  0
ARC
  5
AF8E
  8
0
 10
4589.169690006527162
 20
263.4566393929745232
 30
0.0
 40
1.005667435839823
 50
17.4083654109743797
 51
89.7204520271543231
  0
ARC
  5
AF8F
  8
0
 10
4589.0106619322850747
 20
262.8226468801449869
 30
0.0
 40
1.326169031709393
 50
35.5676223261883209
 51
89.9016880773609444
  0
ARC
  5
AF90
  8
0
 10
4589.3896814231939061
 20
262.8267361076256066
 30
0.0
 40
1.007540280423723
 50
46.7431235085069332
 51
89.7482338848072629
  0
LINE
  5
AF91
  8
0
 10
4587.964980892595122
 20
263.7368898786688192
 30
0.0
 11
4589.8418798857719594
 21
263.7270993493884816
 31
0.0
  0
ARC
  5
AF92
  8
0
 10
4588.8767395692120772
 20
263.3875822491366989
 30
0.0
 40
1.3060414200454029
 50
11.6377153756347198
 51
16.4541158483776684
  0
LINE
  5
AF93
  8
0
 10
4589.7872671513941896
 20
264.250343028877694
 30
0.0
 11
4588.2536478904912656
 21
264.2536482641722841
 31
0.0
  0
LINE
  5
AF94
  8
0
 10
4589.1745966712069276
 20
264.4622948589022826
 30
0.0
 11
4588.2498036912720636
 21
264.4639847017043053
 31
0.0
  0
LINE
  5
AF95
  8
0
 10
4589.6211912183371169
 20
264.3552570242518982
 30
0.0
 11
4588.2222635249563609
 21
264.3581465785800901
 31
0.0
  0
ARC
  5
AF96
  8
0
 10
4588.2533659156770227
 20
264.2245535598116817
 30
0.0
 40
0.0290960707248836
 50
89.444728471192704
 51
172.3654352292070939
  0
ARC
  5
AF97
  8
0
 10
4587.5362667834360764
 20
264.2228612429485111
 30
0.0
 40
0.0333763205089155
 50
15.9008892843321696
 51
84.7740532513960829
  0
ARC
  5
AF98
  8
0
 10
4586.8098490589381981
 20
262.117290975628805
 30
0.0
 40
2.0395514973196112
 50
89.9706690571579912
 51
115.5983083174503037
  0
ARC
  5
AF99
  8
0
 10
4584.7904989026137628
 20
265.2098521207395834
 30
0.0
 40
1.5010328051108051
 50
269.1838567553190842
 51
314.5086543928861147
  0
ARC
  5
AF9A
  8
0
 10
4584.8369336020878109
 20
266.2295172130387186
 30
0.0
 40
2.5214577379938401
 50
268.4588291171872925
 51
295.6560173473628765
  0
ARC
  5
AF9B
  8
0
 10
4588.2495016999810105
 20
264.4353540913527922
 30
0.0
 40
0.0286322029861123
 50
89.3956753055312987
 51
184.4139872937149107
  0
LINE
  5
AF9C
  8
0
 10
4587.9718235947211724
 20
263.5332021194549839
 30
0.0
 11
4589.8318052871500186
 21
263.5198666758943205
 31
0.0
  0
ARC
  5
AF9D
  8
0
 10
4589.8279346661020099
 20
262.5088044783124133
 30
0.0
 40
1.011069606449686
 50
74.8365280078267148
 51
89.7806572460811054
  0
ARC
  5
AF9E
  8
0
 10
4590.2888395385853073
 20
264.209288219112409
 30
0.0
 40
0.7507698466121993
 50
254.832284718829186
 51
269.9998633654195146
  0
ARC
  5
AF9F
  8
0
 10
4586.6917386293180243
 20
263.2110662517803235
 30
0.0
 40
1.2580085796778639
 50
89.9564226812894958
 51
132.4439308491774909
  0
ARC
  5
AFA0
  8
0
 10
4587.5255309420472258
 20
264.4331472945733026
 30
0.0
 40
0.0330379320601846
 50
8.7176667441454185
 51
84.3594562108325192
  0
LINE
  5
AFA1
  8
0
 10
4587.5393068176381348
 20
264.256098826536288
 30
0.0
 11
4586.0022728243257006
 21
264.2633126536698001
 31
0.0
  0
LINE
  5
AFA2
  8
0
 10
4584.7707816646452557
 20
263.4978535033006892
 30
0.0
 11
4586.5799976127900663
 21
263.458518372502283
 31
0.0
  0
ARC
  5
AFA3
  8
0
 10
4588.3961214367482171
 20
264.4910643004981239
 30
0.0
 40
0.1844925293854399
 50
180.5906566312065138
 51
198.2949465707588956
  0
ARC
  5
AFA4
  8
0
 10
4587.3660723617585973
 20
264.4827119483172737
 30
0.0
 40
0.1972142392301585
 50
346.9422416557255247
 51
3.838716479745941
  0
ARC
  5
AFA5
  8
0
 10
4584.6990249662821952
 20
263.4885221285023817
 30
0.0
 40
0.03000825171122
 50
183.7861190996916037
 51
269.0082050244283778
  0
ARC
  5
AFA6
  8
0
 10
4584.4830027319221699
 20
265.4196509972899776
 30
0.0
 40
0.066032642910044
 50
5.4385404763857323
 51
86.6823626823558442
  0
ARC
  5
AFA7
  8
0
 10
4584.8195217936035988
 20
265.4198460093269887
 30
0.0
 40
0.0638833174635019
 50
91.0314072540387969
 51
179.9530296038441008
  0
LINE
  5
AFA8
  8
0
 10
4584.7556384976069239
 20
265.4198983801023246
 30
0.0
 11
4584.7708552131070974
 21
263.4885183725023126
 31
0.0
  0
ARC
  5
AFA9
  8
0
 10
4584.5914579582504302
 20
265.4501765204431081
 30
0.0
 40
1.9916584066051921
 50
257.1346277726422045
 51
270.0292010527645061
  0
LINE
  5
AFAA
  8
0
 10
4583.4179250294073427
 20
265.6014734185022803
 30
0.0
 11
4583.5066499063532319
 21
263.9085253458027864
 31
0.0
  0
LINE
  5
AFAB
  8
0
 10
4583.52761402984288
 20
263.5085115764915145
 30
0.0
 11
4583.5302340989073855
 21
263.458518372502283
 31
0.0
  0
LINE
  5
AFAC
  8
0
 10
4583.5302340989073855
 20
263.458518372502283
 30
0.0
 11
4584.0615191546075948
 21
263.458518372502283
 31
0.0
  0
LINE
  5
AFAD
  8
0
 10
4584.0615191546075948
 20
263.458518372502283
 30
0.0
 11
4584.0606464076945485
 21
263.5085160842486971
 31
0.0
  0
LINE
  5
AFAE
  8
0
 10
4584.0536640319278376
 20
263.9085207198045282
 30
0.0
 11
4584.0521536044070672
 21
263.9589973466023025
 31
0.0
  0
ARC
  5
AFAF
  8
0
 10
4584.2122250911143055
 20
264.0170734425335013
 30
0.0
 40
0.1702812830486199
 50
179.975363615847499
 51
199.941454415562788
  0
LINE
  5
AFB0
  8
0
 10
4584.0419438238068324
 20
264.0171466611022879
 30
0.0
 11
4584.0047678973924121
 21
265.4252160242944001
 31
0.0
  0
ARC
  5
AFB1
  8
0
 10
4584.0692788690557791
 20
265.4265813895344195
 30
0.0
 40
0.0645254189243934
 50
101.0835262299758028
 51
181.2124757362844889
  0
ARC
  5
AFB2
  8
0
 10
4584.5953017769616054
 20
265.4678582839204068
 30
0.0
 40
2.009375163855629
 50
217.8215163315063876
 51
230.6781055915928107
  0
ARC
  5
AFB3
  8
0
 10
4581.5006765359676137
 20
262.989734043430019
 30
0.0
 40
1.955658514416603
 50
39.576590217648608
 51
59.9305779669276006
  0
ARC
  5
AFB4
  8
0
 10
4583.2602294617672669
 20
266.0462493418128815
 30
0.0
 40
1.5711540367421879
 50
240.2483314080226933
 51
267.8581129234311788
  0
ARC
  5
AFB5
  8
0
 10
4584.1364241779137956
 20
265.0402974304581107
 30
0.0
 40
1.0666104502809211
 50
219.0871645856084058
 51
232.8216685683935054
  0
ARC
  5
AFB6
  8
0
 10
4582.1833679666160606
 20
263.3636112796605744
 30
0.0
 40
1.5081077306166539
 50
41.7482099765899477
 51
65.9141442115618617
  0
ARC
  5
AFB7
  8
0
 10
4584.2099150032599937
 20
264.9893796197675897
 30
0.0
 40
0.9990597714531674
 50
215.1879071272616955
 51
223.5725233019934137
  0
ARC
  5
AFB8
  8
0
 10
4582.2097221904969047
 20
263.4517865383260187
 30
0.0
 40
1.524739896798688
 50
39.0975534398346412
 51
65.0533257696822744
  0
ARC
  5
AFB9
  8
0
 10
4583.5210669913276433
 20
266.3721109294839948
 30
0.0
 40
1.676756573067806
 50
246.5132953348594071
 51
263.7910025516853239
  0
ARC
  5
AFBA
  8
0
 10
4581.8301895997692554
 20
263.3260941639798034
 30
0.0
 40
2.044646103868748
 50
36.518120267415803
 51
59.5132644482984219
  0
ARC
  5
AFBB
  8
0
 10
4583.6862695620957311
 20
266.5770793854849785
 30
0.0
 40
1.6992732517588831
 50
241.1953681770368121
 51
256.5624944229205084
  0
ARC
  5
AFBC
  8
0
 10
4581.9252297370103406
 20
263.4482175901385972
 30
0.0
 40
2.011286550208764
 50
40.1193538450027205
 51
59.6966106382898118
  0
ARC
  5
AFBD
  8
0
 10
4583.7628673676426843
 20
266.6911316463787784
 30
0.0
 40
1.716488205292463
 50
241.3575492222605021
 51
256.7047412082017104
  0
ARC
  5
AFBE
  8
0
 10
4582.091979719194569
 20
263.6620924427944033
 30
0.0
 40
1.86392864014718
 50
43.1019437157391323
 51
60.4073961842844298
  0
ARC
  5
AFBF
  8
0
 10
4583.8240296648100411
 20
266.7671927846459994
 30
0.0
 40
1.691695728726561
 50
241.3310888432428101
 51
256.9907603092963768
  0
ARC
  5
AFC0
  8
0
 10
4583.3765343173636211
 20
265.1856288093865146
 30
0.0
 40
0.0633383870025408
 50
7.9943681901179939
 51
72.2751408416731635
  0
ARC
  5
AFC1
  8
0
 10
4583.4042329592011811
 20
265.1433087977720788
 30
0.0
 40
0.1029960707814744
 50
71.5574677424667698
 51
94.6866909252468361
  0
ARC
  5
AFC2
  8
0
 10
4582.1626213971321704
 20
263.7612845095501939
 30
0.0
 40
1.9874802107791589
 50
50.2190315084532202
 51
59.9861427090152119
  0
ARC
  5
AFC3
  8
0
 10
4584.017530758799694
 20
267.0935225222286817
 30
0.0
 40
1.82676952892063
 50
241.8885202823375948
 51
251.2517357131648907
  0
ARC
  5
AFC4
  8
0
 10
4582.5928986392009392
 20
264.4017150955373836
 30
0.0
 40
1.3415067985372831
 50
51.6266437364401227
 51
61.7035685296853416
  0
ARC
  5
AFC5
  8
0
 10
4584.1917769725787366
 20
267.4190910900622953
 30
0.0
 40
2.0733574412073321
 50
242.3257266186375887
 51
248.2534444329158987
  0
ARC
  5
AFC6
  8
0
 10
4583.4562811633313686
 20
266.3153779125295841
 30
0.0
 40
1.706675919783063
 50
247.3425634185022091
 51
260.5152257220195793
  0
ARC
  5
AFC7
  8
0
 10
4584.0821350276646626
 20
263.9595322323153823
 30
0.0
 40
0.0299861942115453
 50
90.1087609470238959
 51
181.0220809989307043
  0
LINE
  5
AFC8
  8
0
 10
4584.0820781068032375
 20
263.9895183725022889
 30
0.0
 11
4584.6155306721066154
 21
263.9895183725022889
 31
0.0
  0
ARC
  5
AFC9
  8
0
 10
4584.6027617829176961
 20
265.1478510167901277
 30
0.0
 40
1.280445663003914
 50
245.2402014237391086
 51
255.4414561524407077
  0
ARC
  5
AFCA
  8
0
 10
4584.6027617829176961
 20
265.1478510167901277
 30
0.0
 40
1.280445663003914
 50
259.045450490606072
 51
272.0642675370281154
  0
LINE
  5
AFCB
  8
0
 10
4584.8183718632071759
 20
265.4837189763023275
 30
0.0
 11
4584.1374164190074225
 21
265.487526841202282
 31
0.0
  0
ARC
  5
AFCC
  8
0
 10
4584.147503164103
 20
267.1954313183725844
 30
0.0
 40
1.7079342626592089
 50
266.9582675580546152
 51
269.6616197149764957
  0
ARC
  5
AFCD
  8
0
 10
4584.3922850608050794
 20
267.6206192766389904
 30
0.0
 40
2.156954078705994
 50
256.8294026625039805
 51
261.0540916498206911
  0
ARC
  5
AFCE
  8
0
 10
4581.9188735832367456
 20
259.4375326192766806
 30
0.0
 40
6.3976097782778591
 50
71.9531296678963201
 51
76.5058830758618456
  0
ARC
  5
AFCF
  8
0
 10
4583.3673647186760718
 20
265.5993033897236728
 30
0.0
 40
0.050606857698575
 50
2.457604162145528
 51
32.4184401903933832
  0
ARC
  5
AFD0
  8
0
 10
4583.4351641163293607
 20
265.6748191731076076
 30
0.0
 40
0.0544989199857573
 50
200.8118268810480913
 51
242.6012402012412963
  0
ARC
  5
AFD1
  8
0
 10
4583.4015977558419763
 20
265.6245636461056279
 30
0.0
 40
0.0354438580557323
 50
73.3940726817875913
 51
119.357537622061102
  0
ARC
  5
AFD2
  8
0
 10
4499.0722999493345924
 20
259.1484027995479096
 30
0.0
 40
85.7066425239548835
 50
2.901329893471106
 51
4.2003396175407781
  0
ARC
  5
AFD3
  8
0
 10
4584.6155306721493616
 20
263.9595183726274854
 30
0.0
 40
0.0299999998748106
 50
23.028023952633859
 51
90.0000000803018168
  0
ARC
  5
AFD4
  8
0
 10
4584.7591516314541877
 20
283.712214925428384
 30
0.0
 40
19.7444294168531407
 50
269.3935602665450801
 51
269.6638590709889058
  0
ARC
  5
AFD5
  8
0
 10
4584.5610328756738454
 20
265.0330081593692171
 30
0.0
 40
1.064172099925899
 50
258.6854535437677782
 51
269.415296458022226
  0
ARC
  5
AFD6
  8
0
 10
4583.8919247521307625
 20
265.4563915508044261
 30
0.0
 40
0.0646254295085626
 50
82.0881258260440632
 51
179.3692641623622137
  0
LINE
  5
AFD7
  8
0
 10
4583.8273032384076942
 20
265.4571029601171972
 30
0.0
 11
4583.8273032405068079
 21
264.0202339786291077
 31
0.0
  0
ARC
  5
AFD8
  8
0
 10
4583.5363756215410831
 20
265.5461414727167835
 30
0.0
 40
0.0818571772012754
 50
5.7944563780175509
 51
58.545646580470958
  0
LINE
  5
AFD9
  8
0
 10
4583.617814548007118
 20
265.5544057764022909
 30
0.0
 11
4583.725343264404728
 21
264.0166734898022014
 31
0.0
  0
ARC
  5
AFDA
  8
0
 10
4583.755289798315971
 20
264.0187757497134271
 30
0.0
 40
0.0300202330101607
 50
184.0156016442251996
 51
272.0362780626616086
  0
LINE
  5
AFDB
  8
0
 10
4583.756356485512697
 20
263.9887744735988804
 30
0.0
 11
4583.7983549885120738
 21
263.9900074007579747
 31
0.0
  0
ARC
  5
AFDC
  8
0
 10
4583.7968624444456509
 20
264.0204121060933744
 30
0.0
 40
0.0304413172239163
 50
272.8103506594649161
 51
359.6647316510553765
  0
ARC
  5
AFDD
  8
0
 10
4587.9013400911017015
 20
263.4885203695732798
 30
0.0
 40
0.0300042633951381
 50
184.484852386320199
 51
269.2957775061044003
  0
LINE
  5
AFDE
  8
0
 10
4587.8714276995133332
 20
263.4861741702276277
 30
0.0
 11
4587.8452720647237584
 21
264.208518372502283
 31
0.0
  0
LINE
  5
AFDF
  8
0
 10
4587.9171277027071483
 20
264.208518372502283
 30
0.0
 11
4587.9430255370070881
 21
263.458518372502283
 31
0.0
  0
ARC
  5
AFE0
  8
0
 10
4587.9434805020619024
 20
263.4883642834873854
 30
0.0
 40
0.0298493784815776
 50
270.873337679748488
 51
359.9999920532600868
  0
LINE
  5
AFE1
  8
0
 10
4587.9733298805440427
 20
263.4883642793474223
 30
0.0
 11
4587.9491369689822022
 21
264.208518372502283
 31
0.0
  0
ARC
  5
AFE2
  8
0
 10
4584.7408386674123904
 20
263.4885248565075244
 30
0.0
 40
0.0300165463955108
 50
271.4836107836545125
 51
359.9876232884565752
  0
LINE
  5
AFE3
  8
0
 10
4593.9209948115067164
 20
264.2085187031022997
 30
0.0
 11
4593.9474694237296717
 21
263.458518372502283
 31
0.0
  0
LINE
  5
AFE4
  8
0
 10
4593.8489151938956638
 20
264.208518372502283
 30
0.0
 11
4593.8750663182099743
 21
263.4864256395231905
 31
0.0
  0
ARC
  5
AFE5
  8
0
 10
4593.9049969037414485
 20
263.4885203130401123
 30
0.0
 40
0.0300037932158884
 50
184.0032824302396932
 51
270.6367248039364881
  0
LINE
  5
AFE6
  8
0
 10
4593.9519285189862785
 20
264.208518372502283
 30
0.0
 11
4593.9770903563630782
 21
263.4884818023189155
 31
0.0
  0
ARC
  5
AFE7
  8
0
 10
4593.9470395264770559
 20
263.4885662459039963
 30
0.0
 40
0.030050948531017
 50
270.8196792324378066
 51
359.8389978474726263
  0
ARC
  5
AFE8
  8
0
 10
4604.595684522269039
 20
313.264918534832816
 30
0.0
 40
0.1795422537926843
 50
202.9131839100444097
 51
250.1133979822982099
  0
LINE
  5
AFE9
  8
0
 10
4601.886913600205844
 20
314.1309444932907127
 30
0.0
 11
4601.886913600205844
 21
314.0649985144023049
 31
0.0
  0
ARC
  5
AFEA
  8
0
 10
4605.315266278238596
 20
302.441925039265584
 30
0.0
 40
0.5015013749160332
 50
98.6923394879176641
 51
118.4259663099043962
  0
LINE
  5
AFEB
  8
0
 10
4605.2394750494067921
 20
302.9376662204023205
 30
0.0
 11
4605.8730674491071113
 21
302.948528956002292
 31
0.0
  0
ARC
  5
AFEC
  8
0
 10
4605.8713063559462171
 20
302.8976635589522743
 30
0.0
 40
0.0508958747461424
 50
271.9829377505329262
 51
359.0140903194788962
  0
ARC
  5
AFED
  8
0
 10
4605.8713063559462171
 20
302.8976635589522743
 30
0.0
 40
0.0508958747461424
 50
0.9859096805193688
 51
88.0170622494671306
  0
ARC
  5
AFEE
  8
0
 10
4605.2926974399269966
 20
303.3189243810368225
 30
0.0
 40
0.4866079295131782
 50
243.6270430674734087
 51
263.4121841409940998
  0
LINE
  5
AFEF
  8
0
 10
4605.2368709054071587
 20
302.8355294337022769
 30
0.0
 11
4605.8730674491071113
 21
302.8467981619021998
 31
0.0
  0
ARC
  5
AFF0
  8
0
 10
4605.7066282074229093
 20
302.9800241514121808
 30
0.0
 40
0.0344659589253655
 50
182.4863744700614916
 51
266.1547447402508055
  0
ARC
  5
AFF1
  8
0
 10
4605.7074629293920225
 20
302.8086002896425839
 30
0.0
 40
0.035337569163246
 50
94.8350557298342238
 51
176.4102127118588896
  0
ARC
  5
AFF2
  8
0
 10
4605.3834354272548808
 20
302.7964902396316802
 30
0.0
 40
0.0422195699385176
 50
100.6116442300532015
 51
172.584008525765995
  0
ARC
  5
AFF3
  8
0
 10
4605.3860294409250855
 20
302.9825139683110251
 30
0.0
 40
0.0449693639962028
 50
188.5184516160967974
 51
251.2503769774978934
  0
ARC
  5
AFF4
  8
0
 10
4581.5853049509087214
 20
284.4594370024021828
 30
0.0
 40
0.7305957651021524
 50
176.5234441221028021
 51
180.07204206838
  0
ARC
  5
AFF5
  8
0
 10
4583.1115821842067817
 20
284.3015246858699925
 30
0.0
 40
2.2645749980587739
 50
166.956237371913403
 51
174.876936847140513
  0
ARC
  5
AFF6
  8
0
 10
4578.655842390124235
 20
284.2919551922531127
 30
0.0
 40
2.3090648068030291
 50
5.2622807145996724
 51
13.0317498784898191
  0
ARC
  5
AFF7
  8
0
 10
4580.2135922697352726
 20
284.4571760979901001
 30
0.0
 40
0.7430427756167358
 50
0.1035023942674068
 51
3.5922012794377731
  0
ARC
  5
AFF8
  8
0
 10
4587.0033049510093406
 20
284.4594370022022076
 30
0.0
 40
0.7305957651021524
 50
176.5234441221028021
 51
180.0720420526965881
  0
ARC
  5
AFF9
  8
0
 10
4588.5295821843055819
 20
284.3015246856700742
 30
0.0
 40
2.2645749980587739
 50
166.956237371913403
 51
174.876936847140513
  0
ARC
  5
AFFA
  8
0
 10
4584.0738423902239447
 20
284.2919551920530807
 30
0.0
 40
2.3090648068030291
 50
5.2622807145996724
 51
13.0317498784898191
  0
ARC
  5
AFFB
  8
0
 10
4585.6315922698358918
 20
284.4571760977901818
 30
0.0
 40
0.7430427756167358
 50
0.1035024096903747
 51
3.5922012794377731
  0
ARC
  5
AFFC
  8
0
 10
4592.4114615274356765
 20
284.458063347584698
 30
0.0
 40
0.7206598982964277
 50
176.3718139599500887
 51
179.9638234219127071
  0
ARC
  5
AFFD
  8
0
 10
4593.9767050496684533
 20
284.2856637597899976
 30
0.0
 40
2.2948374108186989
 50
166.9823604726898054
 51
174.5488191600186951
  0
ARC
  5
AFFE
  8
0
 10
4589.3169112840087109
 20
284.2442270257215
 30
0.0
 40
2.4874086999515308
 50
5.9847885389792541
 51
12.9717750360475499
  0
ARC
  5
AFFF
  8
0
 10
4591.070051012935437
 20
284.4542523222257273
 30
0.0
 40
0.7223973991115868
 50
0.3383568338453195
 51
3.915014782490529
  0
ARC
  5
B000
  8
0
 10
4597.8294714975836541
 20
284.4580630096352252
 30
0.0
 40
0.7206698698471071
 50
176.3718373064401135
 51
179.9637970542985101
  0
ARC
  5
B001
  8
0
 10
4599.3478783302889497
 20
284.2922261527334058
 30
0.0
 40
2.2476000200812831
 50
166.9412760949672929
 51
174.6019518323064119
  0
ARC
  5
B002
  8
0
 10
4594.9749432651879033
 20
284.276689674056172
 30
0.0
 40
2.2453120207623671
 50
5.7995554447420812
 51
13.4796128022016806
  0
ARC
  5
B003
  8
0
 10
4596.4888578347799921
 20
284.4542854461482762
 30
0.0
 40
0.7215901987932487
 50
0.3361051833192868
 51
3.9167648476562511
  0
ARC
  5
B004
  8
0
 10
4626.0484199666379936
 20
277.5163360360431284
 30
0.0
 40
22.2634872663122607
 50
161.5290647488216962
 51
161.8311030438975138
  0
ARC
  5
B005
  8
0
 10
4605.4513827617893185
 20
284.6386784367492169
 30
0.0
 40
0.4786762131778794
 50
166.2894517350217995
 51
202.1091027023431934
  0
ARC
  5
B006
  8
0
 10
4605.5505475251848111
 20
284.4841211473374187
 30
0.0
 40
0.6246226195029904
 50
154.5909514722615086
 51
172.1036042172410134
  0
ARC
  5
B007
  8
0
 10
4589.6632866572681451
 20
335.4617357012182879
 30
0.0
 40
2.1669321562617361
 50
161.3203811616544954
 51
165.9511514606276137
  0
ARC
  5
B008
  8
0
 10
4586.2647048731769246
 20
335.7090786561084883
 30
0.0
 40
1.4179843719718499
 50
11.5271567252301708
 51
18.3611712720060609
  0
ARC
  5
B009
  8
0
 10
4587.8134443436038055
 20
335.9322060865106891
 30
0.0
 40
0.2583186246597248
 50
167.5817850439331096
 51
178.681236186833587
  0
ARC
  5
B00A
  8
0
 10
4587.3782203463360929
 20
335.9471545798559191
 30
0.0
 40
0.2795601711783449
 50
1.797320146186157
 51
9.3218617771273262
  0
LINE
  5
B00B
  8
0
 10
4587.5551941408748462
 20
335.9381512220751915
 30
0.0
 11
4587.5551630154068334
 21
332.9647991437022938
 31
0.0
  0
LINE
  5
B00C
  8
0
 10
4587.6576429818578617
 20
335.9559227078185017
 30
0.0
 11
4587.6577752924076776
 21
332.9627448060023198
 31
0.0
  0
ARC
  5
B00D
  8
0
 10
4587.8479790672599847
 20
332.9718632422602127
 30
0.0
 40
0.292901249077602
 50
181.381975263967206
 51
210.6858011598843063
  0
ARC
  5
B00E
  8
0
 10
4587.365283251200708
 20
332.972943373654175
 30
0.0
 40
0.2926697882441622
 50
329.0174641535613773
 51
358.0030285653384112
  0
ARC
  5
B00F
  8
0
 10
4587.6061784013891156
 20
332.8291938305312101
 30
0.0
 40
0.0121698182725353
 50
214.0088197583077942
 51
325.4027853318390271
  0
LINE
  5
B010
  8
0
 10
4581.2410943893082731
 20
340.3608759584022891
 30
0.0
 11
4581.2368428723066245
 21
339.4236460175022785
 31
0.0
  0
LINE
  5
B011
  8
0
 10
4581.3444886494871753
 20
340.3616409049794811
 30
0.0
 11
4581.3392850427471785
 21
339.4214996237438982
 31
0.0
  0
ARC
  5
B012
  8
0
 10
4582.6312965585266284
 20
339.5249337762789992
 30
0.0
 40
1.398127423767805
 50
184.1544492578645134
 51
196.0737059918147907
  0
ARC
  5
B013
  8
0
 10
4579.904540637892751
 20
339.5352603186785245
 30
0.0
 40
1.4392473737926861
 50
343.9701415540599783
 51
355.4665098194714119
  0
ARC
  5
B014
  8
0
 10
4581.1882998564087757
 20
340.3500791014195102
 30
0.0
 40
0.0538872417602845
 50
11.5580216464791796
 51
76.2742185587008095
  0
ARC
  5
B015
  8
0
 10
4581.4002774826767563
 20
340.3456906229649235
 30
0.0
 40
0.0580241794856962
 50
102.0916940966635025
 51
164.0445252800612082
  0
LINE
  5
B016
  8
0
 10
4588.0137800051070371
 20
340.3585261906022765
 30
0.0
 11
4588.0095555721090932
 21
339.4235825740861969
 31
0.0
  0
LINE
  5
B017
  8
0
 10
4588.1171723206070965
 20
340.359304470302277
 30
0.0
 11
4588.1119552152058532
 21
339.4213736751023021
 31
0.0
  0
ARC
  5
B018
  8
0
 10
4589.3277667437596392
 20
339.5199466424090815
 30
0.0
 40
1.3217286887741919
 50
184.1810074820874092
 51
196.385876281616703
  0
ARC
  5
B019
  8
0
 10
4586.8055885297535497
 20
339.5280230006952138
 30
0.0
 40
1.3107127814705739
 50
343.1038598956544092
 51
355.33283023609971
  0
ARC
  5
B01A
  8
0
 10
4587.9650847963794149
 20
340.3540144983807068
 30
0.0
 40
0.0489037699953605
 50
5.293437080583371
 51
81.8756571827149742
  0
ARC
  5
B01B
  8
0
 10
4588.1664061623678208
 20
340.3533910081441149
 30
0.0
 40
0.0495877021978002
 50
98.5512569788687784
 51
173.1510303219029083
  0
LINE
  5
B01C
  8
0
 10
4594.7864685496069796
 20
340.3561764968022771
 30
0.0
 11
4594.7822554698050226
 21
339.4235847683021916
 31
0.0
  0
LINE
  5
B01D
  8
0
 10
4594.889860863307149
 20
340.3569547765022776
 30
0.0
 11
4594.8846552152062941
 21
339.4213736751023021
 31
0.0
  0
ARC
  5
B01E
  8
0
 10
4596.0869634695636705
 20
339.5179665345293074
 30
0.0
 40
1.3081173045361201
 50
184.1375339234353987
 51
196.4550656830016919
  0
ARC
  5
B01F
  8
0
 10
4593.5874753560274257
 20
339.5267419814773007
 30
0.0
 40
1.3014522915000051
 50
343.0548095083660201
 51
355.3561307804209832
  0
ARC
  5
B020
  8
0
 10
4594.7366563043333372
 20
340.3531588114879014
 30
0.0
 40
0.0499035690494542
 50
3.4668097420639872
 51
80.8505590571567438
  0
ARC
  5
B021
  8
0
 10
4594.9384649690200604
 20
340.3542294690855101
 30
0.0
 40
0.0486804518537202
 50
98.0733291673819991
 51
176.7906975373136049
  0
ARC
  5
B022
  8
0
 10
4600.0549264636410953
 20
331.2329730116028941
 30
0.0
 40
2.6506199383449962
 50
168.3522367395991068
 51
177.1226903973241917
  0
ARC
  5
B023
  8
0
 10
4594.8988724419514256
 20
331.2409203266362852
 30
0.0
 40
2.6137382618854512
 50
2.7985532005255771
 51
11.6365477029479791
  0
LINE
  5
B024
  8
0
 10
4597.4076481226447868
 20
331.3660272969320886
 30
0.0
 11
4597.4077135789066233
 21
318.9060183725022739
 31
0.0
  0
LINE
  5
B025
  8
0
 10
4597.5094934826065582
 20
331.3685349172022825
 30
0.0
 11
4597.5094305756074391
 21
318.9060183725022739
 31
0.0
  0
ARC
  5
B026
  8
0
 10
4603.1053128968351302
 20
293.6273674709743204
 30
0.0
 40
2.7011765323384651
 50
182.9160748847972116
 51
191.4637427794905022
  0
ARC
  5
B027
  8
0
 10
4598.1095871991519743
 20
293.5969155473321734
 30
0.0
 40
2.4024139424998441
 50
347.8314426626026261
 51
357.3890479205882116
  0
ARC
  5
B028
  8
0
 10
4603.8234647612162007
 20
331.0813246584268086
 30
0.0
 40
3.4325898016549119
 50
168.5025705272373955
 51
172.5738431323036082
  0
ARC
  5
B029
  8
0
 10
4595.0078306640043593
 20
330.7769776905681169
 30
0.0
 40
5.5408206698410307
 50
7.8126617190879486
 51
10.2772296485166397
  0
ARC
  5
B02A
  8
0
 10
4601.7139158137451886
 20
331.3471881284488063
 30
0.0
 40
1.3064039521064259
 50
172.1781499824587911
 51
179.1722725815006072
  0
ARC
  5
B02B
  8
0
 10
4599.1850550756680605
 20
331.3492523929133995
 30
0.0
 40
1.32457838770848
 50
0.8326640765384498
 51
7.8501307551107598
  0
LINE
  5
B02C
  8
0
 10
4600.4076481847068862
 20
331.3660605265022809
 30
0.0
 11
4600.4077135789066233
 21
318.9060183725022739
 31
0.0
  0
LINE
  5
B02D
  8
0
 10
4600.5094935902070574
 20
331.3685014550022743
 30
0.0
 11
4600.5094328688073801
 21
318.9060183725022739
 31
0.0
  0
LINE
  5
B02E
  8
0
 10
4600.4076340544052073
 20
293.4899501432620923
 30
0.0
 11
4600.4077135833567809
 21
301.5818730083818195
 31
0.0
  0
LINE
  5
B02F
  8
0
 10
4600.509507148681223
 20
293.4874761258524813
 30
0.0
 11
4600.5094821348029654
 21
301.5818768939175811
 31
0.0
  0
LINE
  5
B030
  8
0
 10
4601.2399308840022059
 20
301.5819047825402777
 30
0.0
 11
4600.5094821348029654
 21
301.5818768939175811
 31
0.0
  0
LINE
  5
B031
  8
0
 10
4600.4077135833567809
 20
301.5818730083818195
 30
0.0
 11
4574.5261450442858404
 21
301.5808848469243912
 31
0.0
  0
ARC
  5
B032
  8
0
 10
4574.5360529034660431
 20
301.5335459097735225
 30
0.0
 40
0.0483646631758728
 50
101.821151546101305
 51
178.6618930967196945
  0
LINE
  5
B033
  8
0
 10
4601.2399320945833097
 20
301.6835183742380195
 30
0.0
 11
4600.5094305756074391
 21
301.6835183741904984
 31
0.0
  0
LINE
  5
B034
  8
0
 10
4597.4077135789066233
 20
301.6835183739889885
 30
0.0
 11
4574.5270671544976722
 21
301.6835183725023057
 31
0.0
  0
ARC
  5
B035
  8
0
 10
4574.5384223400305927
 20
301.7330001837469808
 30
0.0
 40
0.0507680005766183
 50
182.4678647530340072
 51
257.0754261617825023
  0
LINE
  5
B036
  8
0
 10
4601.2400781196420212
 20
318.8044047818879108
 30
0.0
 11
4600.5094289126500371
 21
318.8043770369079084
 31
0.0
  0
LINE
  5
B037
  8
0
 10
4597.4077135789066233
 20
318.8042592553114218
 30
0.0
 11
4574.5261390761070288
 21
318.8033903721022853
 31
0.0
  0
ARC
  5
B038
  8
0
 10
4574.5415335387488085
 20
318.750899786572802
 30
0.0
 40
0.0547014720940828
 50
106.3453816712905962
 51
169.7735297645490959
  0
LINE
  5
B039
  8
0
 10
4601.240079329704713
 20
318.9060183725022739
 30
0.0
 11
4600.5094328688073801
 21
318.9060183725022739
 31
0.0
  0
LINE
  5
B03A
  8
0
 10
4600.4077135789066233
 20
318.9060183725022739
 30
0.0
 11
4597.5094305756074391
 21
318.9060183725022739
 31
0.0
  0
LINE
  5
B03B
  8
0
 10
4597.4077135789066233
 20
318.9060183725022739
 30
0.0
 11
4574.527214389619985
 21
318.9060183725022739
 31
0.0
  0
ARC
  5
B03C
  8
0
 10
4574.5328904709167546
 20
318.9510860052012049
 30
0.0
 40
0.0454236658137729
 50
185.8214939024796877
 51
262.8216304206786162
  0
LINE
  5
B03D
  8
0
 10
4597.4077135789066233
 20
318.8042592553114218
 30
0.0
 11
4597.4077135789066233
 21
301.6835183739889885
 31
0.0
  0
LINE
  5
B03E
  8
0
 10
4600.5094289126500371
 20
318.8043770369079084
 30
0.0
 11
4600.5094305756074391
 21
301.6835183741904984
 31
0.0
  0
ARC
  5
B03F
  8
0
 10
4587.3924867864761836
 20
325.1325152680295218
 30
0.0
 40
0.8886932265664524
 50
158.7005313381503981
 51
171.0177486850487014
  0
ARC
  5
B040
  8
0
 10
4585.7138090500820908
 20
325.1237719694869952
 30
0.0
 40
0.9130152673278267
 50
9.2920730802295122
 51
21.2933056187524592
  0
ARC
  5
B041
  8
0
 10
4586.9028973591593967
 20
325.2381669025718907
 30
0.0
 40
0.3896139897145329
 50
175.1267033170865943
 51
182.2096874624226075
  0
ARC
  5
B042
  8
0
 10
4586.0548240520629406
 20
325.2259034940901188
 30
0.0
 40
0.5618481497789515
 50
359.7227087861659811
 51
4.6236288386973117
  0
LINE
  5
B043
  8
0
 10
4586.513573081891991
 20
325.2231446486873097
 30
0.0
 11
4586.5134507173806924
 21
324.7560183700342122
 31
0.0
  0
LINE
  5
B044
  8
0
 10
4586.5134235026407623
 20
324.6521261522427153
 30
0.0
 11
4586.51303924529293
 21
323.185224486788627
 31
0.0
  0
LINE
  5
B045
  8
0
 10
4586.6166656220066216
 20
325.2231843593023086
 30
0.0
 11
4586.6167987112357878
 21
324.7560183702252061
 31
0.0
  0
LINE
  5
B046
  8
0
 10
4586.6168283286133374
 20
324.6520563040203911
 30
0.0
 11
4586.6172462109961998
 21
323.1852175688165971
 31
0.0
  0
ARC
  5
B047
  8
0
 10
4586.9428712147409897
 20
323.1819543715542977
 30
0.0
 40
0.4298444086102546
 50
179.5641083027500997
 51
199.6427530424915062
  0
ARC
  5
B048
  8
0
 10
4586.1781309953412347
 20
323.1881683944122869
 30
0.0
 40
0.4391251302199485
 50
340.1291891099696159
 51
359.6149818957978255
  0
ARC
  5
B049
  8
0
 10
4586.6667609785881723
 20
322.8518813009246742
 30
0.0
 40
1.9563745068865059
 50
70.7704145217268774
 51
76.2241182971332591
  0
ARC
  5
B04A
  8
0
 10
4587.0129924724833472
 20
325.513850816720776
 30
0.0
 40
0.867573248505267
 50
277.9928929092084218
 51
290.0971024287130149
  0
ARC
  5
B04B
  8
0
 10
4587.0894882391467036
 20
324.5241155174529126
 30
0.0
 40
0.231910981198762
 50
79.2809925487537441
 51
89.5203128886613371
  0
ARC
  5
B04C
  8
0
 10
4587.3089622104471346
 20
321.1714802910996127
 30
0.0
 40
3.4876355157901711
 50
92.8816379856688883
 51
93.7264702857657852
  0
LINE
  5
B04D
  8
0
 10
4587.0914298029074416
 20
324.7560183711023001
 30
0.0
 11
4586.6167987112357878
 21
324.7560183702252061
 31
0.0
  0
LINE
  5
B04E
  8
0
 10
4586.5134507173806924
 20
324.7560183700342122
 30
0.0
 11
4585.0376373737399263
 21
324.7560183673069218
 31
0.0
  0
LINE
  5
B04F
  8
0
 10
4587.0822891574071036
 20
324.6517418930523036
 30
0.0
 11
4586.6168283286133374
 21
324.6520563040203911
 31
0.0
  0
LINE
  5
B050
  8
0
 10
4586.5134235026407623
 20
324.6521261522427153
 30
0.0
 11
4585.0480546333528764
 21
324.6531159842891725
 31
0.0
  0
ARC
  5
B051
  8
0
 10
4585.0708781124430971
 20
324.2734408509522268
 30
0.0
 40
0.4837210001650283
 50
93.9404040783512215
 51
108.7559123597164046
  0
ARC
  5
B052
  8
0
 10
4585.0260514119199797
 20
324.929721711339198
 30
0.0
 40
0.2774794947204015
 50
244.9415526930312978
 51
274.5481439162336983
  0
ARC
  5
B053
  8
0
 10
4599.2455752037158163
 20
294.9353647792395918
 30
0.0
 40
0.8886932265664524
 50
68.7005313381657317
 51
81.0177486850358406
  0
ARC
  5
B054
  8
0
 10
4599.2368319051738581
 20
296.6140425156335141
 30
0.0
 40
0.9130152673278267
 50
279.2920730802135267
 51
291.2933056187646912
  0
ARC
  5
B055
  8
0
 10
4599.3512268382573893
 20
295.4249542065563787
 30
0.0
 40
0.3896139897145329
 50
85.1267033170872622
 51
92.2096874624227638
  0
ARC
  5
B056
  8
0
 10
4599.3389634297764132
 20
296.2730275136515274
 30
0.0
 40
0.5618481497789515
 50
269.7227087861433006
 51
274.6236288387129889
  0
LINE
  5
B057
  8
0
 10
4599.3362045843741726
 20
295.8142784838233865
 30
0.0
 11
4598.8690783057199951
 21
295.814400848334401
 31
0.0
  0
LINE
  5
B058
  8
0
 10
4598.7651860879295782
 20
295.8144280630747858
 30
0.0
 11
4597.2982844224752625
 21
295.8148123204225044
 31
0.0
  0
LINE
  5
B059
  8
0
 10
4599.3362442949892284
 20
295.7111859437084718
 30
0.0
 11
4598.8690783059118985
 21
295.7110528544794192
 31
0.0
  0
LINE
  5
B05A
  8
0
 10
4598.7651162397060034
 20
295.7110232371022107
 30
0.0
 11
4597.2982775045038579
 21
295.710605354719803
 31
0.0
  0
ARC
  5
B05B
  8
0
 10
4597.2950143072412175
 20
295.38498035097399
 30
0.0
 40
0.4298444086102546
 50
89.564108302769597
 51
110.2847254983442014
  0
ARC
  5
B05C
  8
0
 10
4597.3012283300986383
 20
296.1497205703739155
 30
0.0
 40
0.4391251302199485
 50
250.7710068677997981
 51
269.6149818957798061
  0
ARC
  5
B05D
  8
0
 10
4596.9649412366115939
 20
295.6610905871272053
 30
0.0
 40
1.9563745068865059
 50
340.7704145217085738
 51
346.2241182971116018
  0
ARC
  5
B05E
  8
0
 10
4599.6269107524076389
 20
295.3148590932319735
 30
0.0
 40
0.867573248505267
 50
187.9928929092131114
 51
200.097102428687208
  0
ARC
  5
B05F
  8
0
 10
4598.6371754531392071
 20
295.2383633265682761
 30
0.0
 40
0.231910981198762
 50
349.280992548729273
 51
359.5203128886710147
  0
ARC
  5
B060
  8
0
 10
4595.284540226786703
 20
295.0188893552686977
 30
0.0
 40
3.4876355157901711
 50
2.8816379856484069
 51
3.7264702857671042
  0
LINE
  5
B061
  8
0
 10
4598.8690783067886514
 20
295.2364217628085044
 30
0.0
 11
4598.8690783059118985
 21
295.7110528544794192
 31
0.0
  0
LINE
  5
B062
  8
0
 10
4598.8690783057199951
 20
295.814400848334401
 30
0.0
 11
4598.86907830299333
 21
297.2902141919756787
 31
0.0
  0
LINE
  5
B063
  8
0
 10
4598.7648018287391096
 20
295.2455624083085013
 30
0.0
 11
4598.7651162397060034
 21
295.7110232371022107
 31
0.0
  0
LINE
  5
B064
  8
0
 10
4598.7651860879295782
 20
295.8144280630747858
 30
0.0
 11
4598.7661759199763765
 21
297.2797969323632969
 31
0.0
  0
ARC
  5
B065
  8
0
 10
4598.3865007866388623
 20
297.2569734532726784
 30
0.0
 40
0.4837210001650283
 50
3.9404040783423699
 51
20.1827005278601703
  0
ARC
  5
B066
  8
0
 10
4599.0427816470255493
 20
297.3018001537960231
 30
0.0
 40
0.2774794947204015
 50
156.9523701718383109
 51
184.5481439162122967
  0
ARC
  5
B067
  8
0
 10
4587.3917186415219476
 20
307.9088151576049768
 30
0.0
 40
0.8886932265664524
 50
158.7005313381534961
 51
171.0177486850487014
  0
ARC
  5
B068
  8
0
 10
4585.7130409051287643
 20
307.9000718590623933
 30
0.0
 40
0.9130152673278267
 50
9.2920730802295122
 51
21.2933056187524592
  0
ARC
  5
B069
  8
0
 10
4586.9021292142051607
 20
308.0144667921472887
 30
0.0
 40
0.3896139897145329
 50
175.1267033170865943
 51
182.2096874624226075
  0
ARC
  5
B06A
  8
0
 10
4586.0540559071096141
 20
308.0022033836655169
 30
0.0
 40
0.5618481497789515
 50
359.7227087861659811
 51
4.6236288386973117
  0
LINE
  5
B06B
  8
0
 10
4586.5128049369386645
 20
307.9994445382628214
 30
0.0
 11
4586.5126825724273658
 21
307.5323182596096103
 31
0.0
  0
LINE
  5
B06C
  8
0
 10
4586.5126553576883452
 20
307.4284260418182271
 30
0.0
 11
4586.5122711003386939
 21
305.9615243763640251
 31
0.0
  0
LINE
  5
B06D
  8
0
 10
4586.615897477053295
 20
307.9994842488777067
 30
0.0
 11
4586.6160305662815517
 21
307.5323182598006042
 31
0.0
  0
LINE
  5
B06E
  8
0
 10
4586.6160601836600108
 20
307.4283561935957891
 30
0.0
 11
4586.6164780660419638
 21
305.9615174583921089
 31
0.0
  0
ARC
  5
B06F
  8
0
 10
4586.9421030697867536
 20
305.9582542611296958
 30
0.0
 40
0.4298444086102546
 50
179.5641083027500997
 51
199.9450943490948873
  0
ARC
  5
B070
  8
0
 10
4586.1773628503879081
 20
305.9644682839877987
 30
0.0
 40
0.4391251302199485
 50
340.4393173799202259
 51
359.6149818957978255
  0
ARC
  5
B071
  8
0
 10
4586.6659928336339362
 20
305.6281811905000723
 30
0.0
 40
1.9563745068865059
 50
70.7704145217268774
 51
76.2241182971332591
  0
ARC
  5
B072
  8
0
 10
4587.0122243275300207
 20
308.2901507062962878
 30
0.0
 40
0.867573248505267
 50
277.9928929092084218
 51
290.0971024287130149
  0
ARC
  5
B073
  8
0
 10
4587.088720094193377
 20
307.3004154070283107
 30
0.0
 40
0.231910981198762
 50
79.2809925487537441
 51
89.5203128886613371
  0
ARC
  5
B074
  8
0
 10
4587.308194065493808
 20
303.9477801806750108
 30
0.0
 40
3.4876355157901711
 50
92.8816379856688883
 51
93.7264702857657852
  0
LINE
  5
B075
  8
0
 10
4587.0906616579532056
 20
307.5323182606778118
 30
0.0
 11
4586.6160305662815517
 21
307.5323182598006042
 31
0.0
  0
LINE
  5
B076
  8
0
 10
4586.5126825724273658
 20
307.5323182596096103
 30
0.0
 11
4585.0368692287856902
 21
307.5323182568823768
 31
0.0
  0
LINE
  5
B077
  8
0
 10
4587.0815210124537771
 20
307.4280417826278153
 30
0.0
 11
4586.6160601836600108
 21
307.4283561935957891
 31
0.0
  0
LINE
  5
B078
  8
0
 10
4586.5126553576883452
 20
307.4284260418182271
 30
0.0
 11
4585.0472864883986404
 21
307.4294158738646274
 31
0.0
  0
ARC
  5
B079
  8
0
 10
4585.0701099674897705
 20
307.0497407405276249
 30
0.0
 40
0.4837210001650283
 50
93.9404040783512215
 51
108.3065120640548997
  0
ARC
  5
B07A
  8
0
 10
4585.0252832669657437
 20
307.7060216009147098
 30
0.0
 40
0.2774794947204015
 50
244.343992588385305
 51
274.5481439162336983
  0
ARC
  5
B07B
  8
0
 10
4588.068539748585863
 20
290.4370840104940044
 30
0.0
 40
0.8047619161885107
 50
23.3956815285692485
 51
38.4205509935221201
  0
ARC
  5
B07C
  8
0
 10
4589.1405802025037701
 20
291.5214147846521087
 30
0.0
 40
0.8343066622695117
 50
232.1365261047621118
 51
246.4428205108941938
  0
LINE
  5
B07D
  8
0
 10
4588.6990470596401792
 20
290.937186272491374
 30
0.0
 11
4587.6797747899281603
 21
291.9567257414732921
 31
0.0
  0
LINE
  5
B07E
  8
0
 10
4587.6065668607261614
 20
292.029952861922709
 30
0.0
 11
4586.6055237045584363
 21
293.0312584386522872
 31
0.0
  0
LINE
  5
B07F
  8
0
 10
4588.6284977627083208
 20
290.8627500888022723
 30
0.0
 11
4587.6067837129157851
 21
291.8836214741576214
 31
0.0
  0
LINE
  5
B080
  8
0
 10
4587.5334762540942393
 20
291.9568684722391936
 30
0.0
 11
4586.5320328334382793
 21
292.9574859467758756
 31
0.0
  0
ARC
  5
B081
  8
0
 10
4586.1479051294891178
 20
292.5362674891200072
 30
0.0
 40
0.6741148272850264
 50
47.2466516717886194
 51
67.6755501536323436
  0
ARC
  5
B082
  8
0
 10
4587.0562549462856623
 20
293.4309324358242179
 30
0.0
 40
0.7063712915967663
 50
202.5667392389792099
 51
222.0864864526132862
  0
ARC
  5
B083
  8
0
 10
4589.1173939750160571
 20
292.4423729795901181
 30
0.0
 40
0.7810626513671521
 50
113.336915052938707
 51
128.8927084402743901
  0
ARC
  5
B084
  8
0
 10
4588.0257688384435824
 20
293.5009896562556264
 30
0.0
 40
0.8534945843435737
 50
322.5051471811389092
 51
336.4178752374775172
  0
LINE
  5
B085
  8
0
 10
4588.626992845107452
 20
293.0502920508022839
 30
0.0
 11
4587.6065668607261614
 21
292.0299528619225953
 31
0.0
  0
LINE
  5
B086
  8
0
 10
4587.5334762540942393
 20
291.9568684722391936
 30
0.0
 11
4586.5240865311288871
 21
290.9475646060523104
 31
0.0
  0
LINE
  5
B087
  8
0
 10
4588.7029382912378423
 20
292.9814759050356088
 30
0.0
 11
4587.6797747899281603
 21
291.9567257414732921
 31
0.0
  0
LINE
  5
B088
  8
0
 10
4587.6067837129157851
 20
291.8836214741576214
 30
0.0
 11
4586.5981795141233306
 21
290.8734531908274903
 31
0.0
  0
ARC
  5
B089
  8
0
 10
4586.9962297724423479
 20
290.4994972799681818
 30
0.0
 40
0.6509098009874906
 50
136.4987153502013086
 51
157.8581335044530931
  0
ARC
  5
B08A
  8
0
 10
4586.1015456580626051
 20
291.4369676234325084
 30
0.0
 40
0.751128286472392
 50
292.858160010899212
 51
311.3902188490753247
  0
ARC
  5
B08B
  8
0
 10
4601.7155491296916807
 20
289.3491265524372125
 30
0.0
 40
0.1769906975210268
 50
274.2078135100323948
 51
1.5243102836254241
  0
LINE
  5
B08C
  8
0
 10
4601.7285356805068659
 20
289.1726129368037164
 30
0.0
 11
4601.5146588473853626
 21
289.1613904489072979
 31
0.0
  0
ARC
  5
B08D
  8
0
 10
4601.5166986393505795
 20
289.1166587468949842
 30
0.0
 40
0.0447781857178553
 50
92.6109125827290711
 51
191.0629320166858065
  0
LINE
  5
B08E
  8
0
 10
4601.4727525661073742
 20
289.1080663920022857
 30
0.0
 11
4601.4727525661373875
 21
288.8099205129881852
 31
0.0
  0
ARC
  5
B08F
  8
0
 10
4601.7368737911438075
 20
288.8098156680156876
 30
0.0
 40
0.2641212458156908
 50
179.977255996318604
 51
201.8284839623896971
  0
LINE
  5
B090
  8
0
 10
4601.4916897505645466
 20
288.7116076299723773
 30
0.0
 11
4601.7864999005496429
 21
288.0091487368720209
 31
0.0
  0
ARC
  5
B091
  8
0
 10
4600.5311064289398928
 20
287.4825392089446154
 30
0.0
 40
1.3613707663482011
 50
359.9993769532101169
 51
22.75696123344607
  0
ARC
  5
B092
  8
0
 10
4601.4908252222021474
 20
288.9167038722387133
 30
0.0
 40
0.0326111239803454
 50
91.9830990871836462
 51
123.6547253249021026
  0
LINE
  5
B093
  8
0
 10
4601.4896967240965751
 20
288.9492954647017768
 30
0.0
 11
4601.7157712984781028
 21
288.9611589629676018
 31
0.0
  0
ARC
  5
B094
  8
0
 10
4601.6841890699133728
 20
289.1566174121899735
 30
0.0
 40
0.1979935416462415
 50
279.1785377307701879
 51
3.7106590753610869
  0
LINE
  5
B095
  8
0
 10
4601.8817675370419238
 20
289.1694311493731107
 30
0.0
 11
4601.8921747177528232
 21
289.3377639536407742
 31
0.0
  0
LINE
  5
B096
  8
0
 10
4604.4737865231072647
 20
312.6626168434023043
 30
0.0
 11
4602.6906399989693455
 21
312.5971761210225282
 31
0.0
  0
LINE
  5
B097
  8
0
 10
4602.6906399989693455
 20
312.5971761210225282
 30
0.0
 11
4602.6149073801670966
 21
312.5985193586157038
 31
0.0
  0
ARC
  5
B098
  8
0
 10
4602.6108207103561654
 20
312.6262585228108719
 30
0.0
 40
0.0280385823531831
 50
186.1440148066610902
 51
278.3808083374898956
  0
ARC
  5
B099
  8
0
 10
4599.5309432872008983
 20
312.7783535300292215
 30
0.0
 40
3.0559381695423031
 50
341.1607148427353877
 51
357.090857099547577
  0
ARC
  5
B09A
  8
0
 10
4602.5354718682610837
 20
312.5129367770085764
 30
0.0
 40
0.085783452892203
 50
276.0837639633650724
 51
291.8061071316237758
  0
ARC
  5
B09B
  8
0
 10
8228.226661566644907
 20
312.8004543531059767
 30
0.0
 40
3625.6437227151559455
 50
179.9971999237191937
 51
180.0028002269638989
  0
LINE
  5
B09C
  8
0
 10
4593.5126131100059865
 20
265.3642331456023271
 30
0.0
 11
4592.8760603486343825
 21
265.3627132386179142
 31
0.0
  0
LINE
  5
B09E
  8
0
 10
4590.8244236854598057
 20
284.458518372502283
 30
0.0
 11
4590.8245267139009229
 21
295.7350943038936748
 31
0.0
  0
LINE
  5
B09F
  8
0
 10
4590.8245271964397034
 20
295.7879088304895845
 30
0.0
 11
4590.824528733207444
 21
295.9561095182089048
 31
0.0
  0
LINE
  5
B0A0
  8
0
 10
4590.8245789839584177
 20
301.4561095182089048
 30
0.0
 11
4590.8245801296152422
 21
301.5815027566151798
 31
0.0
  0
LINE
  5
B0A1
  8
0
 10
4590.8245810616399467
 20
301.683514007652775
 30
0.0
 11
4590.8246541482703833
 21
309.6829257746572921
 31
0.0
  0
ARC
  5
B0A2
  8
0
 10
4590.900784011383621
 20
309.6830339062154849
 30
0.0
 40
0.0761299954355067
 50
90.0440003330870553
 51
180.0813803878442911
  0
ARC
  5
B0A3
  8
0
 10
4590.9106269547592092
 20
309.6827998524018994
 30
0.0
 40
0.076364090205123
 50
0.0156727380827948
 51
89.926166401074525
  0
LINE
  5
B0A4
  8
0
 10
4590.9869909278668274
 20
309.6828738084795987
 30
0.0
 11
4590.9869176120591874
 21
301.6835140076632911
 31
0.0
  0
LINE
  5
B0A5
  8
0
 10
4590.9869166771613891
 20
301.5815089546445051
 30
0.0
 11
4590.9869155278493054
 21
301.4561095182089048
 31
0.0
  0
LINE
  5
B0A6
  8
0
 10
4590.9868651191964091
 20
295.9561095182089048
 30
0.0
 11
4590.9868635776629162
 21
295.7879154451072168
 31
0.0
  0
LINE
  5
B0A7
  8
0
 10
4590.9868630935461624
 20
295.7350943038936748
 30
0.0
 11
4590.9867597413640397
 21
284.458518372502283
 31
0.0
  0
LINE
  5
B0A8
  8
0
 10
4590.8765326807151723
 20
284.458518372502283
 30
0.0
 11
4590.8766392033348893
 21
295.7350943038936748
 31
0.0
  0
LINE
  5
B0A9
  8
0
 10
4590.8766397022600358
 20
295.7879109538848752
 30
0.0
 11
4590.876641291123633
 21
295.9561095182089048
 31
0.0
  0
LINE
  5
B0AA
  8
0
 10
4590.8766932461167016
 20
301.4561095182089048
 30
0.0
 11
4590.8766944306462392
 21
301.5815047463456722
 31
0.0
  0
LINE
  5
B0AB
  8
0
 10
4590.8766953942613327
 20
301.6835140076561856
 30
0.0
 11
4590.8767709122939777
 21
309.6779178000361981
 31
0.0
  0
ARC
  5
B0AC
  8
0
 10
4590.9058315432203017
 20
309.677848687148412
 30
0.0
 40
0.0290606078208267
 50
0.0582795096270125
 51
179.941726797260003
  0
LINE
  5
B0AD
  8
0
 10
4590.9348920881166123
 20
309.6778998510170027
 30
0.0
 11
4590.9348167974903845
 21
301.6835140076599941
 31
0.0
  0
LINE
  5
B0AE
  8
0
 10
4590.934815836794769
 20
301.581506965427991
 30
0.0
 11
4590.9348146558086228
 21
301.4561095182089048
 31
0.0
  0
LINE
  5
B0AF
  8
0
 10
4590.9347628571540554
 20
295.9561095182089048
 30
0.0
 11
4590.9347612730916808
 21
295.7879133221276788
 31
0.0
  0
LINE
  5
B0B0
  8
0
 10
4590.9347607756462821
 20
295.7350943038936748
 30
0.0
 11
4590.9346545735597829
 21
284.458518372502283
 31
0.0
  0
LINE
  5
B0B1
  8
0
 10
4590.9007255473070472
 20
309.7591638792022763
 30
0.0
 11
4590.9107253605070582
 21
309.7591638792022763
 31
0.0
  0
LINE
  5
B0B2
  8
0
 10
4586.5380407921620645
 20
323.0374602728255127
 30
0.0
 11
4586.5380408826022176
 21
318.9060183725022739
 31
0.0
  0
LINE
  5
B0B3
  8
0
 10
4586.5911100092580455
 20
318.9060183725022739
 30
0.0
 11
4586.5911112344792855
 21
323.0389095518845011
 31
0.0
  0
LINE
  5
B0B4
  8
0
 10
4584.9153438273779102
 20
324.7314747931113743
 30
0.0
 11
4574.6056344747639741
 21
324.7316287474072283
 31
0.0
  0
LINE
  5
B0B5
  8
0
 10
4584.9085270351561121
 20
324.6783596401019167
 30
0.0
 11
4574.6058933891436027
 21
324.6795185705117888
 31
0.0
  0
LINE
  5
B0B6
  8
0
 10
4586.5380407538068539
 20
305.8116259541133104
 30
0.0
 11
4586.5380590757777099
 21
301.683518373282709
 31
0.0
  0
LINE
  5
B0B7
  8
0
 10
4586.5911445465717406
 20
301.6835183732861196
 30
0.0
 11
4586.591144938060097
 21
305.8174469797068014
 31
0.0
  0
LINE
  5
B0B8
  8
0
 10
4584.9051437759617329
 20
307.4558988856493897
 30
0.0
 11
4574.6061012945574475
 21
307.4571432673960771
 31
0.0
  0
LINE
  5
B0B9
  8
0
 10
4584.9181730258669631
 20
307.5089805164301993
 30
0.0
 11
4574.6047337743057142
 21
307.5079938604304743
 31
0.0
  0
LINE
  5
B0BA
  8
0
 10
4598.7874506427997403
 20
297.410432323392115
 30
0.0
 11
4598.7874506246153032
 21
301.5818111465436004
 31
0.0
  0
LINE
  5
B0BB
  8
0
 10
4598.8405197582242181
 20
301.5818131727295963
 30
0.0
 11
4598.8405199807821191
 21
297.4238643677938967
 31
0.0
  0
LINE
  5
B0BC
  8
0
 10
4597.145993437477955
 20
295.7881664072663739
 30
0.0
 11
4590.9868635776629162
 21
295.7879154451072168
 31
0.0
  0
LINE
  5
B0BD
  8
0
 10
4590.9347612730916808
 20
295.7879133221276788
 30
0.0
 11
4590.8766397022600358
 21
295.7879109538848752
 31
0.0
  0
LINE
  5
B0BE
  8
0
 10
4590.8245271964397034
 20
295.7879088304895845
 30
0.0
 11
4574.6063498324474494
 21
295.7872479986996836
 31
0.0
  0
LINE
  5
B0BF
  8
0
 10
4597.1566048910053723
 20
295.7350943038936748
 30
0.0
 11
4590.9868630935461624
 21
295.7350943038936748
 31
0.0
  0
LINE
  5
B0C0
  8
0
 10
4590.9347607756462821
 20
295.7350943038936748
 30
0.0
 11
4590.8766392033348893
 21
295.7350943038936748
 31
0.0
  0
LINE
  5
B0C1
  8
0
 10
4590.8245267139009229
 20
295.7350943038936748
 30
0.0
 11
4574.6060742668578314
 21
295.7350943038936748
 31
0.0
  0
LINE
  5
B0C2
  8
0
 10
4574.5971723699076392
 20
295.7476382022023245
 30
0.0
 11
4574.5971723676066176
 21
295.7759288394022974
 31
0.0
  0
ARC
  5
B0C3
  8
0
 10
4574.6073789794518234
 20
295.7770334967689223
 30
0.0
 40
0.0102662161116511
 50
95.753335883050255
 51
186.177054726321586
  0
ARC
  5
B0C4
  8
0
 10
4574.6107020363524498
 20
295.7478090517553824
 30
0.0
 40
0.0135307451265318
 50
180.7234796286981862
 51
250.0000806310920041
  0
LINE
  5
B0C5
  8
0
 10
4574.5971723699076392
 20
307.4684482006023245
 30
0.0
 11
4574.5971723770071549
 21
307.4967390613023213
 31
0.0
  0
ARC
  5
B0C6
  8
0
 10
4574.6070285057303408
 20
307.4982847584722094
 30
0.0
 40
0.0099765952680096
 50
103.2977475060151988
 51
188.9128717510174909
  0
ARC
  5
B0C7
  8
0
 10
4574.607218074173943
 20
307.4672039412693039
 30
0.0
 40
0.0101224678558911
 50
172.9393139308311902
 51
263.6658447704031119
  0
LINE
  5
B0C8
  8
0
 10
4574.5971723676066176
 20
324.6909482273022718
 30
0.0
 11
4574.5971723676066176
 21
324.7192389097023124
 31
0.0
  0
ARC
  5
B0C9
  8
0
 10
4574.6092880592168513
 20
324.7200487175060175
 30
0.0
 40
0.0121427250593846
 50
107.5108680625753976
 51
183.8239383946066994
  0
ARC
  5
B0CA
  8
0
 10
4574.6092230937965724
 20
324.6911011634031752
 30
0.0
 40
0.0120516966094759
 50
180.7271032953372867
 51
253.9613853961525933
  0
LINE
  5
B0CB
  8
0
 10
4598.1489636247279122
 20
327.4705491560195014
 30
0.0
 11
4600.4076686320286171
 21
327.4700803923151966
 31
0.0
  0
LINE
  5
B0CC
  8
0
 10
4600.5094745956876068
 20
327.4700592638631065
 30
0.0
 11
4601.2400783511811824
 21
327.4699076369257114
 31
0.0
  0
LINE
  5
B0CD
  8
0
 10
4605.3418591476447546
 20
298.874398086272322
 30
0.0
 11
4605.6726599883713789
 21
298.879307213746813
 31
0.0
  0
LINE
  5
B0CE
  8
0
 10
4605.2971983395573261
 20
327.0085343770023201
 30
0.0
 11
4605.6721736938707181
 21
327.0162981058354035
 31
0.0
  0
ARC
  5
B0CF
  8
0
 10
4574.6411973037538701
 20
283.920058963274073
 30
0.0
 40
0.703016553139504
 50
250.4179415990753057
 51
265.8370518783918897
  0
LINE
  5
B0D0
  8
0
 10
4574.4350951538490335
 20
266.9600490226699208
 30
0.0
 11
4574.4883320969356646
 21
263.9088973297979805
 31
0.0
  0
LINE
  5
B0D1
  8
0
 10
4574.2488619181067406
 20
263.458518372502283
 30
0.0
 11
4574.3743897655376713
 21
263.5083545869611044
 31
0.0
  0
ARC
  5
B0D2
  8
0
 10
4574.2896227970441032
 20
264.0277304247188113
 30
0.0
 40
0.0307891863280066
 50
90.5139203246265254
 51
172.5023480121271859
  0
LINE
  5
B0D3
  8
0
 10
4574.2893466340074156
 20
264.0585183725023057
 30
0.0
 11
4574.3579327382058182
 21
264.0585183725023057
 31
0.0
  0
ARC
  5
B0D4
  8
0
 10
4574.3579327382058182
 20
264.0885183725022785
 30
0.0
 40
0.0300000000000154
 50
270.0000000000521254
 51
359.9999999999723173
  0
LINE
  5
B0D5
  8
0
 10
4574.3879327382073825
 20
264.0885183725022785
 30
0.0
 11
4574.3247478813673297
 21
267.7086758604124839
 31
0.0
  0
ARC
  5
B0D6
  8
0
 10
4574.290525574453568
 20
263.8742785499895263
 30
0.0
 40
0.0343596454815199
 50
94.786406966664785
 51
174.0925329171678868
  0
LINE
  5
B0D7
  8
0
 10
4574.2876585565072673
 20
263.9085183725022716
 30
0.0
 11
4574.9418563189074121
 21
263.9097537771023099
 31
0.0
  0
ARC
  5
B0D8
  8
0
 10
4574.8438702823950734
 20
267.7295937373042989
 30
0.0
 40
3.8210965160418571
 50
271.4694216184599895
 51
276.5604637806197843
  0
ARC
  5
B0D9
  8
0
 10
4575.7132692309842241
 20
260.1924665417840856
 30
0.0
 40
3.7660075184205528
 50
89.6184346783236379
 51
96.5996655027181248
  0
LINE
  5
B0DA
  8
0
 10
4575.7383490407082718
 20
263.9583905494295095
 30
0.0
 11
4582.6629952588700689
 21
263.9584732473624058
 31
0.0
  0
ARC
  5
B0DB
  8
0
 10
4582.6437088305883663
 20
260.1290936366813185
 30
0.0
 40
3.8294281778113288
 50
83.4654909371003839
 51
89.7114358690873246
  0
ARC
  5
B0DC
  8
0
 10
4583.5139476032818493
 20
267.6770324056852246
 30
0.0
 40
3.768514125854336
 50
263.3800817593569832
 51
269.8890471199712806
  0
LINE
  5
B0DD
  8
0
 10
4583.5066499063532319
 20
263.9085253458027864
 30
0.0
 11
4584.3312273640858621
 21
263.9085183725022716
 31
0.0
  0
ARC
  5
B0DE
  8
0
 10
4584.3312399732039921
 20
263.8772683706105227
 30
0.0
 40
0.0312500044356014
 50
1.000003324934186
 51
90.0231183725820756
  0
LINE
  5
B0DF
  8
0
 10
4584.3624852180073503
 20
263.8778137602022866
 30
0.0
 11
4584.3624852180810194
 21
263.5392229848022794
 31
0.0
  0
ARC
  5
B0E0
  8
0
 10
4574.2949919241236785
 20
263.5525131269166081
 30
0.0
 40
0.0446017566534507
 50
183.7874201556537912
 51
260.5365265443065255
  0
LINE
  5
B0E1
  8
0
 10
4574.2876585565072673
 20
263.5085183725022944
 30
0.0
 11
4574.9418563189074121
 21
263.507282967902313
 31
0.0
  0
ARC
  5
B0E2
  8
0
 10
4574.8438702823950734
 20
259.687443007700324
 30
0.0
 40
3.8210965160418571
 50
83.4395362193802015
 51
88.5305783815399963
  0
ARC
  5
B0E3
  8
0
 10
4575.7159474043282898
 20
267.2561048979247857
 30
0.0
 40
3.7976411748780321
 50
263.4148770334603
 51
269.692621061110799
  0
LINE
  5
B0E4
  8
0
 10
4575.6955740133907966
 20
263.458518372502283
 30
0.0
 11
4582.6629952588700689
 21
263.458518372502283
 31
0.0
  0
ARC
  5
B0E5
  8
0
 10
4582.6423861153989492
 20
267.3031442433209008
 30
0.0
 40
3.8446811081495951
 50
270.3071314790656743
 51
276.5283126831815252
  0
ARC
  5
B0E6
  8
0
 10
4583.5139476032818493
 20
259.7400043393193982
 30
0.0
 40
3.768514125854336
 50
90.1109528800286625
 51
96.6199182406430737
  0
LINE
  5
B0E7
  8
0
 10
4583.5066499063532319
 20
263.5085113992017227
 30
0.0
 11
4584.3312273640858621
 21
263.5085183725022944
 31
0.0
  0
ARC
  5
B0E8
  8
0
 10
4584.3312399732039921
 20
263.5397683743939865
 30
0.0
 40
0.0312500044356014
 50
269.9768816274179244
 51
358.9999966750675071
  0
LINE
  5
B0E9
  8
0
 10
4584.8183718632071759
 20
265.4837189763023275
 30
0.0
 11
4593.3623107197408899
 21
265.4641113583263063
 31
0.0
  0
LINE
  5
B0EA
  8
0
 10
4597.5089981304708999
 20
317.2638504056433248
 30
0.0
 11
4600.4072980415839993
 21
317.2638501170935115
 31
0.0
  0
LINE
  5
B0EB
  8
0
 10
4600.4073113383792588
 20
314.7303132762868927
 30
0.0
 11
4597.5089853419203791
 21
314.7303081705751993
 31
0.0
  0
LINE
  5
B0EC
  8
0
 10
4597.5089724069121075
 20
312.1677517082512168
 30
0.0
 11
4600.4073247875048764
 21
312.167751419696117
 31
0.0
  0
LINE
  5
B0ED
  8
0
 10
4600.4073380842992265
 20
309.6342145789856772
 30
0.0
 11
4597.5089596183606773
 21
309.6342094731813859
 31
0.0
  0
LINE
  5
B0EE
  8
0
 10
4597.5089466833469487
 20
307.0716517082400969
 30
0.0
 11
4600.4073515334330295
 21
307.0716514196797107
 31
0.0
  0
LINE
  5
B0EF
  8
0
 10
4600.4073648302273796
 20
304.5381145790191226
 30
0.0
 11
4597.5089338947936994
 21
304.5381094731224039
 31
0.0
  0
LINE
  5
B0F0
  8
0
 10
4597.5089209597736044
 20
301.9755504056510063
 30
0.0
 11
4600.4073782793657301
 21
301.9755501170853904
 31
0.0
  0
LINE
  5
B0F1
  8
0
 10
4597.5090059060248677
 20
318.8042666130243106
 30
0.0
 11
4597.5089194857027906
 21
301.6835218692231138
 31
0.0
  0
LINE
  5
B0F2
  8
0
 10
4600.4072899564198451
 20
318.8043766697139745
 30
0.0
 11
4600.4073798120216452
 21
301.6835218694114928
 31
0.0
  0
LINE
  5
B0F3
  8
0
 10
4600.4073798120216452
 20
301.6835218694114928
 30
0.0
 11
4597.5089194857027906
 21
301.6835218692231138
 31
0.0
  0
LINE
  5
B0F4
  8
0
 10
4600.4072899564198451
 20
318.8043766697139745
 30
0.0
 11
4598.0787924382311758
 21
318.8042882495573167
 31
0.0
  0
LINE
  5
B0F5
  8
0
 10
4598.0787924382311758
 20
318.8042882495576009
 30
0.0
 11
4597.5090059060248677
 21
318.8042666130243106
 31
0.0
  0
LINE
  5
B0F6
  8
0
 10
4598.0788111678830319
 20
317.3493349429332966
 30
0.0
 11
4598.0787924382311758
 21
318.8042882495573167
 31
0.0
  0
LINE
  5
B0F7
  8
0
 10
4600.4072979654565643
 20
317.2783552067245978
 30
0.0
 11
4598.1489673160831444
 21
317.2783512284332801
 31
0.0
  0
ARC
  5
B0F8
  8
0
 10
4598.1487422667041756
 20
317.3482897751069913
 30
0.0
 40
0.0699389087564662
 50
179.143739364404496
 51
270.1843666436164995
  0
LINE
  5
B0F9
  8
0
 10
4598.0650595566721677
 20
318.8042877280781795
 30
0.0
 11
4598.0650404394837096
 21
317.349335491942611
 31
0.0
  0
ARC
  5
B0FA
  8
0
 10
4597.9951190588471945
 20
317.3482909968707872
 30
0.0
 40
0.0699291816069565
 50
269.8186353982289916
 51
0.8558284741055247
  0
LINE
  5
B0FB
  8
0
 10
4597.9948977047242806
 20
317.2783621656024025
 30
0.0
 11
4597.5089982037179652
 21
317.2783613096382851
 31
0.0
  0
LINE
  5
B0FC
  8
0
 10
4598.0788111564779683
 20
312.2532391048437717
 30
0.0
 11
4598.0787803702778547
 21
314.6447669552437105
 31
0.0
  0
ARC
  5
B0FD
  8
0
 10
4598.1487499397399006
 20
314.6458256718618145
 30
0.0
 40
0.0699775787764331
 50
89.8713110402284769
 51
180.8668820694859107
  0
LINE
  5
B0FE
  8
0
 10
4598.1489071124733528
 20
314.7158030741294965
 30
0.0
 11
4600.4073114145339787
 21
314.7158028492864901
 31
0.0
  0
LINE
  5
B0FF
  8
0
 10
4600.4073247113628895
 20
312.1822593686823097
 30
0.0
 11
4598.1489673046789903
 21
312.182255390343812
 31
0.0
  0
ARC
  5
B100
  8
0
 10
4598.1487422553000215
 20
312.2521939370175232
 30
0.0
 40
0.0699389087564662
 50
179.143739364404496
 51
270.1843666436164995
  0
LINE
  5
B101
  8
0
 10
4597.5089852686905942
 20
314.7158010675278206
 30
0.0
 11
4597.9948778607813438
 21
314.7158010191532185
 31
0.0
  0
ARC
  5
B102
  8
0
 10
4597.9951092529408925
 20
314.6458308135751167
 30
0.0
 40
0.0699705881849908
 50
359.13413443658402
 51
90.1894770176523508
  0
LINE
  5
B103
  8
0
 10
4598.0650718513807078
 20
314.6447734439531132
 30
0.0
 11
4598.0650404280813746
 21
312.2532396538530861
 31
0.0
  0
ARC
  5
B104
  8
0
 10
4597.9951190474430405
 20
312.2521951587813192
 30
0.0
 40
0.0699291816069565
 50
269.8186353982289916
 51
0.8558284741055247
  0
LINE
  5
B105
  8
0
 10
4597.9948976933210361
 20
312.1822663275128775
 30
0.0
 11
4597.5089724801737248
 21
312.1822654715035128
 31
0.0
  0
LINE
  5
B106
  8
0
 10
4598.0788111677293273
 20
307.1571349430138866
 30
0.0
 11
4598.0787803815301231
 21
309.5486627934138824
 31
0.0
  0
ARC
  5
B107
  8
0
 10
4598.14874995099035
 20
309.5497215100319863
 30
0.0
 40
0.0699775787764331
 50
89.8713110402284769
 51
180.8668820694859107
  0
LINE
  5
B108
  8
0
 10
4598.1489071237219832
 20
309.6196989122997252
 30
0.0
 11
4600.4073381604830502
 21
309.6196986874541039
 31
0.0
  0
LINE
  5
B109
  8
0
 10
4600.407351457311961
 20
307.0861552068996048
 30
0.0
 11
4598.1489673159294398
 21
307.086151228513927
 31
0.0
  0
ARC
  5
B10A
  8
0
 10
4598.1487422665495615
 20
307.1560897751875814
 30
0.0
 40
0.0699389087564662
 50
179.143739364404496
 51
270.1843666436164995
  0
LINE
  5
B10B
  8
0
 10
4597.5089595451054265
 20
309.6196969057003798
 30
0.0
 11
4597.9948778720308837
 21
309.6196968573233903
 31
0.0
  0
ARC
  5
B10C
  8
0
 10
4597.9951092641922514
 20
309.5497266517451749
 30
0.0
 40
0.0699705881849908
 50
359.13413443658402
 51
90.1894770176523508
  0
LINE
  5
B10D
  8
0
 10
4598.0650718626320668
 20
309.548669282123285
 30
0.0
 11
4598.0650404393309145
 21
307.1571354920233148
 31
0.0
  0
ARC
  5
B10E
  8
0
 10
4597.9951190586943994
 20
307.1560909969513773
 30
0.0
 40
0.0699291816069565
 50
269.8186353982289916
 51
0.8558284741055247
  0
LINE
  5
B10F
  8
0
 10
4597.994897704570576
 20
307.0861621656831062
 30
0.0
 11
4597.5089467565858286
 21
307.0861613096283236
 31
0.0
  0
LINE
  5
B110
  8
0
 10
4598.0788111564779683
 20
302.0610391048438146
 30
0.0
 11
4598.0787803702778547
 21
304.4525669552436966
 31
0.0
  0
ARC
  5
B111
  8
0
 10
4598.1487499397399006
 20
304.4536256718618006
 30
0.0
 40
0.0699775787764331
 50
89.8713110402284769
 51
180.8668820694859107
  0
LINE
  5
B112
  8
0
 10
4598.1489071124733528
 20
304.5236030741294826
 30
0.0
 11
4600.4073649063875564
 21
304.5236028492813034
 31
0.0
  0
LINE
  5
B113
  8
0
 10
4600.4073782032173767
 20
301.9900593687764854
 30
0.0
 11
4598.1489673046789903
 21
301.9900553903437981
 31
0.0
  0
ARC
  5
B114
  8
0
 10
4598.1487422553000215
 20
302.0599939370175093
 30
0.0
 40
0.0699389087564662
 50
179.143739364404496
 51
270.1843666436164995
  0
LINE
  5
B115
  8
0
 10
4597.5089338215602766
 20
304.5236010675329226
 30
0.0
 11
4597.9948778607813438
 21
304.5236010191532046
 31
0.0
  0
ARC
  5
B116
  8
0
 10
4597.9951092529408925
 20
304.4536308135751028
 30
0.0
 40
0.0699705881849908
 50
359.13413443658402
 51
90.1894770176523508
  0
LINE
  5
B117
  8
0
 10
4598.0650718513807078
 20
304.4525734439530993
 30
0.0
 11
4598.0650404280813746
 21
302.0610396538530722
 31
0.0
  0
ARC
  5
B118
  8
0
 10
4597.9951190474430405
 20
302.0599951587811915
 30
0.0
 40
0.0699291816069565
 50
269.8186353982289916
 51
0.8558284741055247
  0
LINE
  5
B119
  8
0
 10
4597.9948976933210361
 20
301.9900663275129205
 30
0.0
 11
4597.5089210330415881
 21
301.9900654714128905
 31
0.0
  0
LINE
  5
B11A
  8
0
 10
4574.6009326883067843
 20
301.4561095182089048
 30
0.0
 11
4574.6009326883067843
 21
295.9561095182089048
 31
0.0
  0
LINE
  5
B11B
  8
0
 10
4574.6009326883067843
 20
295.9561095182089048
 30
0.0
 11
4598.6055766959070752
 21
295.9561095182089048
 31
0.0
  0
LINE
  5
B11C
  8
0
 10
4598.6055766959070752
 20
295.9561095182089048
 30
0.0
 11
4598.6055766959070752
 21
301.4561095182089048
 31
0.0
  0
LINE
  5
B11D
  8
0
 10
4598.6055766959070752
 20
301.4561095182089048
 30
0.0
 11
4574.6009326883067843
 21
301.4561095182089048
 31
0.0
  0
LINE
  5
B11E
  8
0
 10
4574.600882459805689
 20
307.2811095182088934
 30
0.0
 11
4574.600882459805689
 21
301.7811095182088934
 31
0.0
  0
LINE
  5
B11F
  8
0
 10
4574.600882459805689
 20
301.7811095182088934
 30
0.0
 11
4586.3558239537069312
 21
301.7811095182088934
 31
0.0
  0
LINE
  5
B120
  8
0
 10
4586.3558239537069312
 20
301.7811095182088934
 30
0.0
 11
4586.3558239537069312
 21
307.2811095182088934
 31
0.0
  0
LINE
  5
B121
  8
0
 10
4586.3558239537069312
 20
307.2811095182088934
 30
0.0
 11
4574.600882459805689
 21
307.2811095182088934
 31
0.0
  0
LINE
  5
B122
  8
0
 10
4574.600882459805689
 20
324.5311095182088934
 30
0.0
 11
4574.600882459805689
 21
319.0311095182088934
 31
0.0
  0
LINE
  5
B123
  8
0
 10
4574.600882459805689
 20
319.0311095182088934
 30
0.0
 11
4586.3558239537069312
 21
319.0311095182088934
 31
0.0
  0
LINE
  5
B124
  8
0
 10
4586.3558239537069312
 20
319.0311095182088934
 30
0.0
 11
4586.3558239537069312
 21
324.5311095182088934
 31
0.0
  0
LINE
  5
B125
  8
0
 10
4586.3558239537069312
 20
324.5311095182088934
 30
0.0
 11
4574.600882459805689
 21
324.5311095182088934
 31
0.0
  0
ENDSEC
  0
EOF
