  0
SECTION
  2
HEADER
  9
$ACADVER
  1
AC1009
  9
$INSBASE
 10
4592.4055238738455955
 20
300.4644947580202938
 30
0.0
  9
$EXTMIN
 10
4562.4055225124648132
 20
267.1310947580204243
 30
0.0
  9
$EXTMAX
 10
4622.4055252352272873
 20
300.4702445854488815
 30
0.0
  9
$LIMMIN
 10
0.0
 20
0.0
  9
$LIMMAX
 10
11.6929133858000007
 20
8.2677165353999982
  9
$ORTHOMODE
 70
     1
  9
$REGENMODE
 70
     1
  9
$FILLMODE
 70
     1
  9
$QTEXTMODE
 70
     0
  9
$MIRRTEXT
 70
     0
  9
$DRAGMODE
 70
     2
  9
$LTSCALE
 40
0.6431102362
  9
$OSMODE
 70
  4095
  9
$ATTMODE
 70
     1
  9
$TEXTSIZE
 40
0.2
  9
$TRACEWID
 40
0.05
  9
$TEXTSTYLE
  7
STANDARD
  9
$CLAYER
  8
0
  9
$CELTYPE
  6
BYLAYER
  9
$CECOLOR
 62
   256
  9
$DIMSCALE
 40
1.0
  9
$DIMASZ
 40
0.1875
  9
$DIMEXO
 40
0.0625
  9
$DIMDLI
 40
0.4443307087
  9
$DIMRND
 40
0.0
  9
$DIMDLE
 40
0.0
  9
$DIMEXE
 40
0.125
  9
$DIMTP
 40
0.01
  9
$DIMTM
 40
0.01
  9
$DIMTXT
 40
2.0
  9
$DIMCEN
 40
0.1052362205
  9
$DIMTSZ
 40
0.0
  9
$DIMTOL
 70
     1
  9
$DIMLIM
 70
     0
  9
$DIMTIH
 70
     1
  9
$DIMTOH
 70
     1
  9
$DIMSE1
 70
     0
  9
$DIMSE2
 70
     0
  9
$DIMTAD
 70
     0
  9
$DIMZIN
 70
     0
  9
$DIMBLK
  1

  9
$DIMASO
 70
     1
  9
$DIMSHO
 70
     1
  9
$DIMPOST
  1
\X
  9
$DIMAPOST
  1

  9
$DIMALT
 70
     1
  9
$DIMALTD
 70
     2
  9
$DIMALTF
 40
25.3999999999999986
  9
$DIMLFAC
 40
1.0
  9
$DIMTOFL
 70
     0
  9
$DIMTVP
 40
0.0
  9
$DIMTIX
 70
     0
  9
$DIMSOXD
 70
     0
  9
$DIMSAH
 70
     0
  9
$DIMBLK1
  1

  9
$DIMBLK2
  1

  9
$DIMSTYLE
  2
STANDARD
  9
$DIMCLRD
 70
     0
  9
$DIMCLRE
 70
     0
  9
$DIMCLRT
 70
     0
  9
$DIMTFAC
 40
1.0
  9
$DIMGAP
 40
0.09
  9
$LUNITS
 70
     2
  9
$LUPREC
 70
     4
  9
$SKETCHINC
 40
0.1
  9
$FILLETRAD
 40
0.0
  9
$AUNITS
 70
     0
  9
$AUPREC
 70
     0
  9
$MENU
  1
.
  9
$ELEVATION
 40
0.0
  9
$PELEVATION
 40
0.0
  9
$THICKNESS
 40
0.0
  9
$LIMCHECK
 70
     0
  9
$BLIPMODE
 70
     0
  9
$CHAMFERA
 40
0.0
  9
$CHAMFERB
 40
0.0
  9
$SKPOLY
 70
     0
  9
$TDCREATE
 40
2458060.468368056230247
  9
$TDUPDATE
 40
2459115.9844791670329869
  9
$TDINDWG
 40
0.3250765046
  9
$TDUSRTIMER
 40
0.3250765046
  9
$USRTIMER
 70
     1
  9
$ANGBASE
 50
0.0
  9
$ANGDIR
 70
     0
  9
$PDMODE
 70
     0
  9
$PDSIZE
 40
0.3125
  9
$PLINEWID
 40
0.0
  9
$COORDS
 70
     1
  9
$SPLFRAME
 70
     0
  9
$SPLINETYPE
 70
     6
  9
$SPLINESEGS
 70
     8
  9
$ATTDIA
 70
     1
  9
$ATTREQ
 70
     1
  9
$HANDLING
 70
     1
  9
$HANDSEED
  5
A7D8
  9
$SURFTAB1
 70
     6
  9
$SURFTAB2
 70
     6
  9
$SURFTYPE
 70
     6
  9
$SURFU
 70
     6
  9
$SURFV
 70
     6
  9
$UCSNAME
  2

  9
$UCSORG
 10
0.0
 20
0.0
 30
0.0
  9
$UCSXDIR
 10
1.0
 20
0.0
 30
0.0
  9
$UCSYDIR
 10
0.0
 20
1.0
 30
0.0
  9
$PUCSNAME
  2

  9
$PUCSORG
 10
0.0
 20
0.0
 30
0.0
  9
$PUCSXDIR
 10
1.0
 20
0.0
 30
0.0
  9
$PUCSYDIR
 10
0.0
 20
1.0
 30
0.0
  9
$USERI1
 70
     0
  9
$USERI2
 70
     0
  9
$USERI3
 70
     0
  9
$USERI4
 70
     0
  9
$USERI5
 70
     0
  9
$USERR1
 40
0.0
  9
$USERR2
 40
0.0
  9
$USERR3
 40
0.0
  9
$USERR4
 40
0.0
  9
$USERR5
 40
0.0
  9
$WORLDVIEW
 70
     1
  9
$SHADEDGE
 70
     3
  9
$SHADEDIF
 70
    70
  9
$TILEMODE
 70
     1
  9
$MAXACTVP
 70
    64
  9
$PLIMCHECK
 70
     0
  9
$PEXTMIN
 10
1.0000000000000000E+20
 20
1.0000000000000000E+20
 30
1.0000000000000000E+20
  9
$PEXTMAX
 10
-1.0000000000000000E+20
 20
-1.0000000000000000E+20
 30
-1.0000000000000000E+20
  9
$PLIMMIN
 10
0.0
 20
0.0
  9
$PLIMMAX
 10
12.0
 20
9.0
  9
$UNITMODE
 70
     0
  9
$VISRETAIN
 70
     1
  9
$PLINEGEN
 70
     0
  9
$PSLTSCALE
 70
     1
  0
ENDSEC
  0
SECTION
  2
TABLES
  0
TABLE
  2
VPORT
 70
     1
  0
VPORT
  2
*ACTIVE
 70
     0
 10
0.0
 20
0.0
 11
1.0
 21
1.0
 12
0.0
 22
0.0
 13
0.0
 23
0.0
 14
1.0
 24
1.0
 15
0.0
 25
0.0
 16
0.0
 26
0.0
 36
194.4908432167081003
 17
4592.40576171875
 27
283.8006740505368839
 37
0.0
 40
68.6478893218531425
 41
2.1186252771618621
 42
50.0
 43
0.0
 44
0.0
 50
0.0
 51
0.0
 71
     0
 72
   100
 73
     1
 74
     1
 75
     0
 76
     0
 77
     0
 78
     0
  0
ENDTAB
  0
TABLE
  2
LTYPE
 70
     2
  0
LTYPE
  2
CONTINUOUS
 70
     0
  3
Solid line
 72
    65
 73
     0
 40
0.0
  0
LTYPE
  2
PHANTOM2
 70
     0
  3
___ _ _ ___ _ _ ___ _ _ ___ _ _
 72
    65
 73
     6
 40
1.25
 49
0.625
 49
-0.125
 49
0.125
 49
-0.125
 49
0.125
 49
-0.125
  0
ENDTAB
  0
TABLE
  2
LAYER
 70
     2
  0
LAYER
  2
0
 70
     0
 62
   255
  6
CONTINUOUS
  0
LAYER
  2
DEFPOINTS
 70
     0
 62
     7
  6
CONTINUOUS
  0
ENDTAB
  0
TABLE
  2
STYLE
 70
     1
  0
STYLE
  2
STANDARD
 70
     0
 40
0.0
 41
0.8
 50
0.0
 71
     0
 42
0.2
  3
txt
  4

  0
ENDTAB
  0
TABLE
  2
VIEW
 70
     0
  0
ENDTAB
  0
TABLE
  2
UCS
 70
     0
  0
ENDTAB
  0
TABLE
  2
APPID
 70
     9
  0
APPID
  2
ACAD
 70
     0
  0
APPID
  2
ACAD_MLEADERVER
 70
     0
  0
APPID
  2
ACAD_EXEMPT_FROM_CAD_STANDARDS
 70
     0
  0
APPID
  2
ACAD_NAV_VCDISPLAY
 70
     0
  0
APPID
  2
ACAECLAYERSTANDARD
 70
     0
  0
APPID
  2
ACCMTRANSPARENCY
 70
     0
  0
APPID
  2
ACAD_DSTYLE_DIMJAG
 70
     0
  0
APPID
  2
ACAD_DSTYLE_DIMTALN
 70
     0
  0
APPID
  2
ACDBATTR
 70
     0
  0
ENDTAB
  0
TABLE
  2
DIMSTYLE
 70
     1
  0
DIMSTYLE
  2
STANDARD
 70
     0
  3

  4

  5

  6

  7

 40
1.0
 41
0.1875
 42
0.0625
 43
0.38
 44
0.125
 45
0.0
 46
0.0
 47
0.01
 48
0.01
140
0.15625
141
0.09
142
0.0
143
25.3999999999999986
144
1.0
145
0.0
146
1.0
147
0.09
 71
     1
 72
     0
 73
     1
 74
     1
 75
     0
 76
     0
 77
     0
 78
     4
170
     0
171
     2
172
     0
173
     0
174
     0
175
     0
176
     0
177
     0
178
     0
  0
ENDTAB
  0
ENDSEC
  0
SECTION
  2
BLOCKS
  0
BLOCK
  8
0
  2
$MODEL_SPACE
 70
     0
 10
0.0
 20
0.0
 30
0.0
  3
$MODEL_SPACE
  1

  0
ENDBLK
  5
21
  8
0
  0
BLOCK
 67
     1
  8
0
  2
$PAPER_SPACE
 70
     0
 10
0.0
 20
0.0
 30
0.0
  3
$PAPER_SPACE
  1

  0
ENDBLK
  5
1D
 67
     1
  8
0
  0
ENDSEC
  0
SECTION
  2
ENTITIES
  0
ATTDEF
  5
3930
  8
DEFPOINTS
 10
4592.4028568471867402
 20
300.4692445854490188
 30
0.0
 40
0.001
  1
71520115
  3

  2
MODELNUMBER
 70
     0
1001
ACDBATTR
1070
     0
1070
     1
  0
ATTDEF
  5
3931
  8
DEFPOINTS
 10
4592.4028568471867402
 20
300.4675779187822968
 30
0.0
 40
0.001
  1
TRAVERSE
  3

  2
TRADENAME
 70
     0
1001
ACDBATTR
1070
     0
1070
     1
  0
ATTDEF
  5
3932
  8
DEFPOINTS
 10
4592.4028568471867402
 20
300.4659112521156885
 30
0.0
 40
0.001
  1
BATH AND WALL SURROUND
  3

  2
PRODUCT
 70
     0
1001
ACDBATTR
1070
     0
1070
     1
  0
LINE
  5
A609
  8
0
 10
4564.1820056583646874
 20
273.1587406180203743
 30
0.0
 11
4564.1242721184653419
 21
273.9091225796203162
 31
0.0
  0
LINE
  5
A60A
  8
0
 10
4564.25189523766403
 20
284.1585185906204174
 30
0.0
 11
4564.1941616977646845
 21
284.9089005522204161
 31
0.0
  0
LINE
  5
A60B
  8
0
 10
4564.1147225124641409
 20
269.0400065417204019
 30
0.0
 11
4564.1147225124641409
 21
271.7889829742202892
 31
0.0
  0
LINE
  5
A60C
  8
0
 10
4564.111044842416959
 20
271.8259985250625164
 30
0.0
 11
4564.1242721184653419
 21
273.9091225796203162
 31
0.0
  0
LINE
  5
A60D
  8
0
 10
4564.1751009033650917
 20
281.9089611051202837
 30
0.0
 11
4564.1941616977646845
 21
284.9089005522204161
 31
0.0
  0
LINE
  5
A60E
  8
0
 10
4564.1250976654646365
 20
272.629091497920399
 30
0.0
 11
4564.1223020822662875
 21
272.189100379020374
 31
0.0
  0
LINE
  5
A60F
  8
0
 10
4564.206187328564738
 20
283.6287983082203255
 30
0.0
 11
4564.2033917453645699
 21
283.1888071893203005
 31
0.0
  0
LINE
  5
A610
  8
0
 10
4564.25189523766403
 20
284.1585185906204174
 30
0.0
 11
4564.2485278306648979
 21
283.6285292883204079
 31
0.0
  0
LINE
  5
A611
  8
0
 10
4564.2457322474647299
 20
283.1885381694203261
 30
0.0
 11
4564.2423648404655978
 21
282.6585488670203858
 31
0.0
  0
LINE
  5
A612
  8
0
 10
4564.1820056583646874
 20
273.1587406180203743
 30
0.0
 11
4564.1786382513646458
 21
272.628751315720308
 31
0.0
  0
LINE
  5
A613
  8
0
 10
4564.1758426682654317
 20
272.1887601967202954
 30
0.0
 11
4564.1724752612653901
 21
271.6587708944202859
 31
0.0
  0
LINE
  5
A614
  8
0
 10
4564.2944892184650598
 20
272.2180069546204209
 30
0.0
 11
4564.2969035857649942
 21
272.5979992845203128
 31
0.0
  0
LINE
  5
A615
  8
0
 10
4564.3755788816652057
 20
283.2177137649202905
 30
0.0
 11
4564.3779932489651401
 21
283.5977060949203974
 31
0.0
  0
LINE
  5
A616
  8
0
 10
4565.2409675314638662
 20
292.2723981958204149
 30
0.0
 11
4565.189376314864603
 21
284.1525620923202951
 31
0.0
  0
LINE
  5
A617
  8
0
 10
4565.1798459176652614
 20
282.6525923688204216
 30
0.0
 11
4565.1194867355652605
 21
273.1527841197204225
 31
0.0
  0
LINE
  5
A618
  8
0
 10
4565.1099563384650537
 20
271.6528143962203785
 30
0.0
 11
4565.1068536890652467
 21
271.1644947580202825
 31
0.0
  0
LINE
  5
A619
  8
0
 10
4565.0973230995650738
 20
269.6644947580202825
 30
0.0
 11
4565.090133112365038
 21
268.5328773712204224
 31
0.0
  0
LINE
  5
A61A
  8
0
 10
4564.2423648404655978
 20
282.6585488670203858
 30
0.0
 11
4564.1751009033650917
 21
281.9089611051202837
 31
0.0
  0
LINE
  5
A61B
  8
0
 10
4564.2670947992646688
 20
272.6281892870204047
 30
0.0
 11
4564.2969035857649942
 21
272.5979992845203128
 31
0.0
  0
LINE
  5
A61C
  8
0
 10
4566.7409372550646367
 20
292.2628677986202774
 30
0.0
 11
4566.6029472821655872
 21
270.5449081049204096
 31
0.0
  0
LINE
  5
A61D
  8
0
 10
4566.6012368268648061
 20
270.2757030469203983
 30
0.0
 11
4566.5901028358639451
 21
268.5233469741202725
 31
0.0
  0
LINE
  5
A61E
  8
0
 10
4564.1724752612653901
 20
271.6587708944202859
 30
0.0
 11
4564.1281216036650221
 21
271.1644947580202825
 31
0.0
  0
LINE
  5
A61F
  8
0
 10
4565.1194867355652605
 20
273.1527841197204225
 30
0.0
 11
4565.8647063987646106
 21
272.3980340594204108
 31
0.0
  0
LINE
  5
A620
  8
0
 10
4564.3453888792646467
 20
283.1879049784204199
 30
0.0
 11
4564.3755788816652057
 21
283.2177137649202905
 31
0.0
  0
LINE
  5
A621
  8
0
 10
4565.1798459176652614
 20
282.6525923688204216
 30
0.0
 11
4565.9345959780648627
 21
283.3978120320202834
 31
0.0
  0
LINE
  5
A622
  8
0
 10
4564.3481844623647703
 20
283.6278960973202743
 30
0.0
 11
4564.3779932489651401
 21
283.5977060949203974
 31
0.0
  0
LINE
  5
A623
  8
0
 10
4565.189376314864603
 20
284.1525620923202951
 30
0.0
 11
4565.9345959780648627
 21
283.3978120320202834
 31
0.0
  0
LINE
  5
A624
  8
0
 10
4563.9267225124649485
 20
268.8519947580202825
 30
0.0
 11
4563.6147225124650504
 21
268.8519947580202825
 31
0.0
  0
LINE
  5
A625
  8
0
 10
4565.8647225124650504
 20
269.6644947580202825
 30
0.0
 11
4564.1147225124641409
 21
269.6644947580202825
 31
0.0
  0
LINE
  5
A626
  8
0
 10
4565.2193082533640336
 20
268.4020540037203091
 30
0.0
 11
4566.4592757593645729
 21
268.3941755895202732
 31
0.0
  0
LINE
  5
A627
  8
0
 10
4564.2642992160654103
 20
272.1881981680203921
 30
0.0
 11
4564.2944892184650598
 21
272.2180069546204209
 31
0.0
  0
LINE
  5
A628
  8
0
 10
4565.8647225124650504
 20
271.1644947580202825
 30
0.0
 11
4564.1147225124641409
 21
271.1644947580202825
 31
0.0
  0
LINE
  5
A629
  8
0
 10
4563.9267225124649485
 20
271.9769947580202825
 30
0.0
 11
4563.6276502398377488
 21
271.9782374886499952
 31
0.0
  0
LINE
  5
A62A
  8
0
 10
4565.1099563384650537
 20
271.6528143962203785
 30
0.0
 11
4564.1724752612653901
 21
271.6587708944202859
 31
0.0
  0
LINE
  5
A62B
  8
0
 10
4564.2642992160654103
 20
272.1881981680203921
 30
0.0
 11
4564.1223020822662875
 21
272.189100379020374
 31
0.0
  0
LINE
  5
A62C
  8
0
 10
4564.2316635761653743
 20
272.4084099666204111
 30
0.0
 11
4564.1236998738650072
 21
272.4090959384203074
 31
0.0
  0
LINE
  5
A62D
  8
0
 10
4564.2670947992646688
 20
272.6281892870204047
 30
0.0
 11
4564.1250976654646365
 21
272.629091497920399
 31
0.0
  0
LINE
  5
A62E
  8
0
 10
4565.1099563384650537
 20
271.6528143962203785
 30
0.0
 11
4565.8647063987646106
 21
272.3980340594204108
 31
0.0
  0
LINE
  5
A62F
  8
0
 10
4565.1194867355652605
 20
273.1527841197204225
 30
0.0
 11
4564.1820056583646874
 21
273.1587406180203743
 31
0.0
  0
LINE
  5
A630
  8
0
 10
4564.1242721184653419
 20
273.9091225796203162
 30
0.0
 11
4563.6359293462282949
 21
273.9122253760070862
 31
0.0
  0
LINE
  5
A631
  8
0
 10
4564.1751009033650917
 20
281.9089611051202837
 30
0.0
 11
4563.6751109955639549
 21
281.9121379042202875
 31
0.0
  0
LINE
  5
A632
  8
0
 10
4565.1798459176652614
 20
282.6525923688204216
 30
0.0
 11
4564.2423648404655978
 21
282.6585488670203858
 31
0.0
  0
LINE
  5
A633
  8
0
 10
4564.3453888792646467
 20
283.1879049784204199
 30
0.0
 11
4564.2033917453645699
 21
283.1888071893203005
 31
0.0
  0
LINE
  5
A634
  8
0
 10
4564.3127532393664296
 20
283.4081167770203251
 30
0.0
 11
4564.2047895369641992
 21
283.4088027488202783
 31
0.0
  0
LINE
  5
A635
  8
0
 10
4564.3481844623647703
 20
283.6278960973202743
 30
0.0
 11
4564.206187328564738
 21
283.6287983082203255
 31
0.0
  0
LINE
  5
A636
  8
0
 10
4565.189376314864603
 20
284.1525620923202951
 30
0.0
 11
4564.25189523766403
 21
284.1585185906204174
 31
0.0
  0
LINE
  5
A637
  8
0
 10
4564.1941616977646845
 20
284.9089005522204161
 30
0.0
 11
4563.6941717898644129
 21
284.9120773513204199
 31
0.0
  0
LINE
  5
A638
  8
0
 10
4566.6117619829647083
 20
292.3936911669202914
 30
0.0
 11
4565.3717947390650806
 21
292.4015695795202987
 31
0.0
  0
ARC
  5
A639
  8
0
 10
4563.9267225122039235
 20
269.039994758650721
 30
0.0
 40
0.1880000006303675
 50
270.0000000795723167
 51
0.0035910646690603
  0
ARC
  5
A63A
  8
0
 10
4565.2201304883647026
 20
268.5320514035204269
 30
0.0
 40
0.13
 50
179.6359631942993076
 51
269.6359631943026898
  0
ARC
  5
A63B
  8
0
 10
4566.4601054598651899
 20
268.5241729418203249
 30
0.0
 40
0.13
 50
269.6359631943026898
 51
359.6359631941983821
  0
ARC
  5
A63C
  8
0
 10
4565.8647225124650504
 20
270.4144947580202825
 30
0.0
 40
0.75
 50
270.0
 51
90.0
  0
ARC
  5
A63D
  8
0
 10
4563.9267225122039235
 20
271.7889947573900145
 30
0.0
 40
0.1880000006303903
 50
359.9964089048594928
 51
89.9999999204277259
  0
ARC
  5
A63E
  8
0
 10
4565.3709649076790811
 20
292.2715722279725128
 30
0.0
 40
0.1300000001137682
 50
89.6342603153198638
 51
179.6359631735396931
  0
ARC
  5
A63F
  8
0
 10
4566.6109398788476028
 20
292.2636937662728087
 30
0.0
 40
0.1300000001165041
 50
359.6359632154728843
 51
89.6376660759344475
  0
ARC
  5
A640
  8
0
 10
4562.4431333826387345
 20
267.194838158333198
 30
0.0
 40
0.0623919399948382
 50
271.9043985032823798
 51
0.0959059062183008
  0
LINE
  5
A641
  8
0
 10
4562.4452067856282156
 20
267.1324806794203823
 30
0.0
 11
4562.4055225124648132
 21
267.1310947580204243
 31
0.0
  0
ARC
  5
A642
  8
0
 10
4562.6559858741638891
 20
300.1633605097492818
 30
0.0
 40
0.2511066490101692
 50
90.5258958853992937
 51
175.8979233155567954
  0
LINE
  5
A643
  8
0
 10
4562.6536810953411987
 20
300.4144565813468262
 30
0.0
 11
4622.1573666523509019
 21
300.4144947593076722
 31
0.0
  0
ARC
  5
A644
  8
0
 10
4622.1554350217784304
 20
300.1644119752107827
 30
0.0
 40
0.25009024390872
 50
0.0282784178246681
 51
89.5574582274959567
  0
LINE
  5
A645
  8
0
 10
4622.4055252352272873
 20
267.1310947580204243
 30
0.0
 11
4622.3658436771256675
 21
267.1324806796203006
 31
0.0
  0
ARC
  5
A646
  8
0
 10
4622.3680223156143256
 20
267.1949397716957151
 30
0.0
 40
0.062497077119952
 50
180.0650822646715028
 51
268.0022731972219958
  0
LINE
  5
A647
  8
0
 10
4622.3055252788135476
 20
267.1948687812932803
 30
0.0
 11
4622.305525235226014
 21
268.3249711890309186
 31
0.0
  0
LINE
  5
A648
  8
0
 10
4562.5055252352258321
 20
268.1177586542203812
 30
0.0
 11
4562.5055252352258321
 21
267.1949425945203984
 31
0.0
  0
ARC
  5
A649
  8
0
 10
4566.7389191124475474
 20
299.4748460451897927
 30
0.0
 40
0.9896500954870472
 50
89.9042245938315006
 51
108.2974289094319005
  0
ARC
  5
A64A
  8
0
 10
4618.0721306871519118
 20
299.4748419405443087
 30
0.0
 40
0.9896542035588959
 50
71.7087568815219356
 51
90.0958938033840866
  0
LINE
  5
A64B
  8
0
 10
4562.4055225124648132
 20
295.7942796279576783
 30
0.0
 11
4562.8837694404282956
 21
295.7776276123203729
 31
0.0
  0
ARC
  5
A64C
  8
0
 10
4562.8860413552929458
 20
295.839846027475005
 30
0.0
 40
0.0622598809950957
 50
267.9087650448611271
 51
357.9947586445330217
  0
LINE
  5
A64D
  8
0
 10
4562.948263110220978
 20
295.8376674969762234
 30
0.0
 11
4562.9601812083419645
 21
296.1748015380184142
 31
0.0
  0
ARC
  5
A64E
  8
0
 10
4563.0226230791831767
 20
296.1720886665419243
 30
0.0
 40
0.0625007752430817
 50
87.9888470066109392
 51
177.5122718964389037
  0
LINE
  5
A64F
  8
0
 10
4563.0248164835102216
 20
296.2345509422244731
 30
0.0
 11
4563.1841539022670986
 21
296.228986308409219
 31
0.0
  0
ARC
  5
A650
  8
0
 10
4563.1819724704091641
 20
296.1665238911206757
 30
0.0
 40
0.0625004977458447
 50
1.8326931301235929
 51
87.999820264786166
  0
LINE
  5
A651
  8
0
 10
4563.244440997563288
 20
296.1685227242336964
 30
0.0
 11
4563.2565168268256457
 21
295.8227863573202967
 31
0.0
  0
ARC
  5
A652
  8
0
 10
4563.3189757705185912
 20
295.8249659522958268
 30
0.0
 40
0.062496962176527
 50
181.9986078974758925
 51
268.0264049439621772
  0
ARC
  5
A653
  8
0
 10
4563.7132787284726874
 20
295.8109143303046267
 30
0.0
 40
0.0624332369463601
 50
272.786672349313676
 51
349.8557727515066063
  0
ARC
  5
A654
  8
0
 10
4566.8448213508318076
 20
296.2348977456946955
 30
0.0
 40
2.9479192619347181
 50
89.8766782478239037
 51
169.8596235304650861
  0
LINE
  5
A655
  8
0
 10
4566.8511663607259834
 20
299.1828101792203825
 30
0.0
 11
4617.959884109869563
 21
299.1828090840392065
 31
0.0
  0
ARC
  5
A656
  8
0
 10
4617.9662465486344445
 20
296.2349232947580049
 30
0.0
 40
2.9478926553171241
 50
10.0918672235746794
 51
90.1236616166793851
  0
ARC
  5
A657
  8
0
 10
4669.6188674391469249
 20
304.856903278008474
 30
0.0
 40
49.419565255796762
 50
189.4398771698141957
 51
190.5601228308333077
  0
ARC
  5
A658
  8
0
 10
4621.097559450220615
 20
295.8107932742587991
 30
0.0
 40
0.0622029963824397
 50
190.068904984662197
 51
268.3679240588737116
  0
LINE
  5
A659
  8
0
 10
4563.3168234426038907
 20
295.7625060630400071
 30
0.0
 11
4563.9797594240271792
 21
295.7393547987202851
 31
0.0
  0
ARC
  5
A65A
  8
0
 10
4563.9818919783883757
 20
295.8011671063666768
 30
0.0
 40
0.0618490837818379
 50
268.0240517639957716
 51
301.9740057914909812
  0
LINE
  5
A65B
  8
0
 10
4563.7163140722996104
 20
295.748554922325809
 30
0.0
 11
4621.095787831326561
 21
295.7486155119522095
 31
0.0
  0
ARC
  5
A65C
  8
0
 10
4620.8291586013274355
 20
295.8011655925196237
 30
0.0
 40
0.0618475659991241
 50
238.1751144121940058
 51
269.9260145971903739
  0
LINE
  5
A65D
  8
0
 10
4620.8290787382748022
 20
295.7393180780834996
 30
0.0
 11
4621.4942535565696744
 21
295.7625059597316977
 31
0.0
  0
ARC
  5
A65E
  8
0
 10
4621.4920723380273557
 20
295.8249678864206089
 30
0.0
 40
0.0625000000001787
 50
272.0000000001078888
 51
357.999695590830413
  0
LINE
  5
A65F
  8
0
 10
4621.5545342531249844
 20
295.8227863360201013
 30
0.0
 11
4621.5666132122469207
 21
296.1686297890440187
 31
0.0
  0
ARC
  5
A660
  8
0
 10
4621.6290778237544146
 20
296.1665242966535061
 30
0.0
 40
0.0625000863106415
 50
92.0058132840269849
 51
178.0694641524372059
  0
LINE
  5
A661
  8
0
 10
4621.6268902647525465
 20
296.2289860879699859
 30
0.0
 11
4621.7862407516176972
 21
296.2345508382794037
 31
0.0
  0
ARC
  5
A662
  8
0
 10
4621.7884279681911721
 20
296.1720889339611062
 30
0.0
 40
0.0625001872590989
 50
2.4876774337571979
 51
92.0054959371433938
  0
LINE
  5
A663
  8
0
 10
4621.8508692540026459
 20
296.174801724695385
 30
0.0
 11
4621.862637896427259
 21
295.8379079885203851
 31
0.0
  0
ARC
  5
A664
  8
0
 10
4621.9250998115194307
 20
295.8400895390225855
 30
0.0
 40
0.0624999999955698
 50
182.0003045026265056
 51
271.9999998250672775
  0
LINE
  5
A665
  8
0
 10
4621.9272810300699348
 20
295.7776276123316848
 30
0.0
 11
4622.4055252352272873
 21
295.7943282683629036
 31
0.0
  0
LINE
  5
A666
  8
0
 10
4562.4055225124648132
 20
295.7643100767023725
 30
0.0
 11
4563.9608401150271675
 21
295.709997189220303
 31
0.0
  0
ARC
  5
A667
  8
0
 10
4563.9583605763091327
 20
295.6470655998465986
 30
0.0
 40
0.0629804180150544
 50
0.061862624957533
 51
87.7436823325834041
  0
ARC
  5
A668
  8
0
 10
4563.3642398628644514
 20
268.6648484459573751
 30
0.0
 40
0.2503540826582317
 50
270.1017534163942173
 51
359.9271090731177196
  0
LINE
  5
A669
  8
0
 10
4563.3646844744916962
 20
268.4144947580992948
 30
0.0
 11
4562.5658436848270867
 21
268.3874331017195232
 31
0.0
  0
ARC
  5
A66A
  8
0
 10
4563.6997977522059955
 20
295.6565165097516115
 30
0.0
 40
0.062641669753593
 50
359.6856518633284736
 51
85.0444762321920251
  0
LINE
  5
A66B
  8
0
 10
4611.264322355827062
 20
273.4501747502202988
 30
0.0
 11
4608.3356143602031807
 21
273.454435476604317
 31
0.0
  0
LINE
  5
A66C
  8
0
 10
4592.4688191983395882
 20
273.4775187177041857
 30
0.0
 11
4570.7795337304260102
 21
273.5090726011845277
 31
0.0
  0
ARC
  5
A66D
  8
0
 10
4594.5549194369978068
 20
285.0137975342594814
 30
0.0
 40
30.1674252023120388
 50
159.1550985158023082
 51
165.8646474394955135
  0
ARC
  5
A66E
  8
0
 10
4594.5549194369978068
 20
285.0137975342594814
 30
0.0
 40
30.1674252023120388
 50
166.3456888120767019
 51
180.2103986608757111
  0
ARC
  5
A66F
  8
0
 10
4594.2357818031587158
 20
284.7753289893828992
 30
0.0
 40
29.8483572949571716
 50
179.754891305700113
 51
181.1858215345079088
  0
ARC
  5
A670
  8
0
 10
4594.2357818031587158
 20
284.7753289893828992
 30
0.0
 40
29.8483572949571716
 50
184.0693986629142103
 51
192.9853397204400096
  0
ARC
  5
A671
  8
0
 10
4571.8260886311163631
 20
277.5919585046418092
 30
0.0
 40
6.3176792265106823
 50
214.5865700901424873
 51
233.5438806710374138
  0
LINE
  5
A672
  8
0
 10
4571.7439183256292381
 20
271.4525254279278101
 30
0.0
 11
4592.9041829838533886
 21
271.4525975278452847
 31
0.0
  0
LINE
  5
A673
  8
0
 10
4607.9041402163984458
 20
271.4526486375877994
 30
0.0
 11
4612.4709991541258205
 21
271.4526641983645163
 31
0.0
  0
LINE
  5
A674
  8
0
 10
4570.8353087851273813
 20
273.8861565878203805
 30
0.0
 11
4592.4026674068672946
 21
274.4305560095759233
 31
0.0
  0
LINE
  5
A675
  8
0
 10
4608.4001286132779569
 20
274.8343610736577034
 30
0.0
 11
4610.0827279517261559
 21
274.8768329462204179
 31
0.0
  0
ARC
  5
A676
  8
0
 10
4612.4983770574153823
 20
277.7938884037267826
 30
0.0
 40
6.3412833064185321
 50
269.7526300107161887
 51
333.6324278917160768
  0
CIRCLE
  5
A677
  8
0
 10
4570.9055252352272873
 20
284.9144947580202825
 30
0.0
 40
1.387500000000002
  0
ARC
  5
A678
  8
0
 10
4595.2805252344423934
 20
284.9144947581665974
 30
0.0
 40
29.2251010103123683
 50
160.2116725052484867
 51
167.6287810123419035
  0
ARC
  5
A679
  8
0
 10
4595.2805252344423934
 20
284.9144947581665974
 30
0.0
 40
29.2251010103123683
 50
191.6431453762182002
 51
196.8455994115952024
  0
ARC
  5
A67A
  8
0
 10
4570.3670711265658611
 20
293.8788748156752035
 30
0.0
 40
2.7479353660786479
 50
137.1253824093994922
 51
160.2257506651725123
  0
ARC
  5
A67B
  8
0
 10
4595.790429121244415
 20
284.9066987009559853
 30
0.0
 40
28.6694196874470997
 50
161.5693018151291938
 51
193.8221778266029105
  0
ARC
  5
A67C
  8
0
 10
4570.8820186553521125
 20
278.8090616481192114
 30
0.0
 40
3.0256742531079559
 50
194.3863259906827921
 51
271.5487216529162993
  0
LINE
  5
A67D
  8
0
 10
4570.963793555227312
 20
275.7844926620202841
 30
0.0
 11
4592.4026674074375478
 21
276.311355275354174
 31
0.0
  0
ARC
  5
A67E
  8
0
 10
4606.9097863556689845
 20
279.6957724690649911
 30
0.0
 40
3.0275144870409321
 50
299.502013456202576
 51
348.0915760012388773
  0
ARC
  5
A67F
  8
0
 10
4580.3426908075407482
 20
284.9145714149345849
 30
0.0
 40
30.1020826320906885
 50
348.8064764469108923
 51
14.8577073470274907
  0
ARC
  5
A680
  8
0
 10
4606.5376386509724398
 20
291.8754660258838953
 30
0.0
 40
2.9980594745814688
 50
14.6423515751299806
 51
51.4727540111489219
  0
CIRCLE
  5
A681
  8
0
 10
4570.9055252352272873
 20
284.9144947580202825
 30
0.0
 40
1.0
  0
LINE
  5
A682
  8
0
 10
4562.4055225124648132
 20
300.1813230714599854
 30
0.0
 11
4562.4055225124648132
 21
267.1310947580204243
 31
0.0
  0
LINE
  5
A683
  8
0
 10
4622.4055252352272873
 20
300.1645354076205194
 30
0.0
 11
4622.4055252352272873
 21
267.1310947580204243
 31
0.0
  0
LINE
  5
A684
  8
0
 10
4622.3055252432186535
 20
268.1177586542203812
 30
0.0
 11
4562.5055252352258321
 21
268.1177586542203812
 31
0.0
  0
LINE
  5
A685
  8
0
 10
4566.7405734069961909
 20
300.4644947580202938
 30
0.0
 11
4618.0704743406959096
 21
300.4644947580202938
 31
0.0
  0
ARC
  5
A686
  8
0
 10
4562.6594825568990927
 20
300.1637390144500728
 30
0.0
 40
0.1268612541668516
 50
139.7627924635503973
 51
179.6586729858929914
  0
ARC
  5
A687
  8
0
 10
4562.7254330279401984
 20
300.2520060670155999
 30
0.0
 40
0.0624886917360162
 50
89.9912347670629771
 51
178.0094732947707996
  0
LINE
  5
A688
  8
0
 10
4562.532623553826852
 20
300.1644947580202825
 30
0.0
 11
4562.532623551425786
 21
299.386867125120375
 31
0.0
  0
ARC
  5
A689
  8
0
 10
4562.7253896813426763
 20
300.252050513320512
 30
0.0
 40
0.1624430908602707
 50
91.2225682602853425
 51
177.2281383844598963
  0
LINE
  5
A68A
  8
0
 10
4562.5631366477009578
 20
300.2599061381927754
 30
0.0
 11
4562.532623551425786
 21
299.386867125120375
 31
0.0
  0
LINE
  5
A68B
  8
0
 10
4562.532623551425786
 20
299.3868671248902729
 30
0.0
 11
4562.4055225124648132
 21
295.7942796279576783
 31
0.0
  0
ARC
  5
A68C
  8
0
 10
-278075.3218197660753503
 20
50133.206076861199108
 30
0.0
 40
286999.3483520019217394
 50
349.999900197162674
 51
350.0000935875228265
  0
LINE
  5
A68D
  8
0
 10
4562.6629820429016036
 20
300.2541765652791241
 30
0.0
 11
4562.5121163426738349
 21
295.9354285973575998
 31
0.0
  0
LINE
  5
A68E
  8
0
 10
4562.7254425875962625
 20
300.3144947580203734
 30
0.0
 11
4622.0856051600958381
 21
300.3144947580203734
 31
0.0
  0
ARC
  5
A68F
  8
0
 10
4622.0856065215029957
 20
300.2519947580148028
 30
0.0
 40
0.0625000000203269
 50
2.0006850314208231
 51
90.001248046201539
  0
LINE
  5
A690
  8
0
 10
4622.1480684221296542
 20
300.2541767233574888
 30
0.0
 11
4622.2989343601011569
 21
295.9354219508596202
 31
0.0
  0
ARC
  5
A691
  8
0
 10
4562.568120288830869
 20
268.3247179487972858
 30
0.0
 40
0.0627564604727758
 50
92.0789594173701431
 51
175.8898039066833121
  0
LINE
  5
A692
  8
0
 10
4562.5055252352258321
 20
268.1177586542203812
 30
0.0
 11
4562.5055252352258321
 21
268.3292160145354046
 31
0.0
  0
ARC
  5
A693
  8
0
 10
4571.5824105261754084
 20
277.7924160687109065
 30
0.0
 40
6.3419475010735562
 50
236.3918563200093104
 51
271.4592860952103024
  0
ARC
  5
A694
  8
0
 10
4594.0563869593570416
 20
284.8724281678943271
 30
0.0
 40
26.0941927721979816
 50
348.7527576524125266
 51
355.1258946411678039
  0
ARC
  5
A695
  8
0
 10
4594.0563869593570416
 20
284.8724281678943271
 30
0.0
 40
26.0941927721979816
 50
358.4264128475821281
 51
11.9753159591253695
  0
ARC
  5
A696
  8
0
 10
45835.2425220741788507
 20
27.4713859519121684
 30
0.0
 40
41272.092459824110847
 50
179.6277037165550041
 51
179.6426091906174918
  0
ARC
  5
A697
  8
0
 10
45835.2425220741788507
 20
27.4713859519121684
 30
0.0
 40
41272.092459824110847
 50
179.6467739259227869
 51
179.6578798870733067
  0
ARC
  5
A698
  8
0
 10
12265.1111521696802811
 20
239.9763760290940127
 30
0.0
 40
7701.5499900756640272
 50
179.5857658319355892
 51
179.7865736189484949
  0
ARC
  5
A699
  8
0
 10
4570.7589154695633624
 20
277.4488904694371172
 30
0.0
 40
3.9398718186870001
 50
197.3745037348597862
 51
270.2998434403299939
  0
ARC
  5
A69A
  8
0
 10
4594.9055519600242405
 20
284.9144987864149812
 30
0.0
 40
29.2142535759969206
 50
159.6530707064883075
 51
165.1877524561404869
  0
ARC
  5
A69B
  8
0
 10
4594.9055519600242405
 20
284.9144987864149812
 30
0.0
 40
29.2142535759969206
 50
194.6969721375726863
 51
197.2066266005967918
  0
ARC
  5
A69C
  8
0
 10
4570.3167863500266321
 20
294.032153049820181
 30
0.0
 40
2.9894750947003339
 50
144.9598924324454003
 51
159.6367352762991061
  0
ARC
  5
A69D
  8
0
 10
4570.7399826562914313
 20
277.4632249148281744
 30
0.0
 40
3.578338285702122
 50
196.5279626385841993
 51
271.5265273005715017
  0
ARC
  5
A69E
  8
0
 10
4571.3700649473757949
 20
293.0242951115582173
 30
0.0
 40
2.935281677527231
 50
111.857781544496504
 51
161.1894476116005137
  0
ARC
  5
A69F
  8
0
 10
4611.2430441205160605
 20
277.3039132415647146
 30
0.0
 40
3.853797234282923
 50
270.3163527293082211
 51
343.3243483707159953
  0
ARC
  5
A6A0
  8
0
 10
4586.0997036488788581
 20
284.8371663647416199
 30
0.0
 40
30.101415648414541
 50
343.3215501845917856
 51
0.1471803705633859
  0
ARC
  5
A6A1
  8
0
 10
4586.2634070207695913
 20
284.985763171650774
 30
0.0
 40
29.9376978024751992
 50
359.8635953528478808
 51
14.7904045253231704
  0
ARC
  5
A6A2
  8
0
 10
4609.970001364120435
 20
281.6066072555889832
 30
0.0
 40
6.7307183523448018
 50
270.9596389796112135
 51
313.0524039194647798
  0
ARC
  5
A6A3
  8
0
 10
4609.4907785510868052
 20
280.6782952491022911
 30
0.0
 40
6.4549509173561628
 50
321.8200181304907233
 51
337.9006012882122718
  0
ARC
  5
A6A4
  8
0
 10
4601.7317501338238799
 20
289.594985591380123
 30
0.0
 40
13.8145521801497306
 50
12.6843171388837899
 51
26.4518101819274101
  0
ARC
  5
A6A5
  8
0
 10
4609.9053404469968882
 20
288.7578987614058974
 30
0.0
 40
6.844539168819697
 50
49.9510508721610975
 51
88.7345536995153452
  0
ARC
  5
A6A6
  8
0
 10
4611.1396930293030891
 20
290.9339345085589912
 30
0.0
 40
4.4081327800704022
 50
22.6058322476042513
 51
44.0231063086361871
  0
LINE
  5
A6A7
  8
0
 10
4610.056498049027141
 20
295.6007686135204153
 30
0.0
 11
4608.4054528222595764
 21
295.6382346265164074
 31
0.0
  0
ARC
  5
A6A8
  8
0
 10
4581.7968433922505938
 20
281.0869628871790269
 30
0.0
 40
38.8932821748200581
 50
16.9084824358700985
 51
22.1462005805034288
  0
ARC
  5
A6A9
  8
0
 10
6317.713332062936388
 20
56510.3791592250927351
 30
0.0
 40
56241.5419887176612974
 50
268.2274663780792139
 51
268.2420729047299801
  0
LINE
  5
A6AA
  8
0
 10
4622.4055252352272873
 20
295.7643100767023725
 30
0.0
 11
4620.850207632664933
 21
295.709997189220303
 31
0.0
  0
ARC
  5
A6AB
  8
0
 10
4620.8526871713829678
 20
295.6470655998465986
 30
0.0
 40
0.0629804180150544
 50
92.2563176674165817
 51
179.9381373750424871
  0
ARC
  5
A6AC
  8
0
 10
4621.4468078848276491
 20
268.6648484459573183
 30
0.0
 40
0.2503540826581924
 50
180.0728909268790972
 51
269.8979431795696087
  0
ARC
  5
A6AD
  8
0
 10
4621.111105971644065
 20
295.6565718462492214
 30
0.0
 40
0.0624979768778426
 50
94.8319737030762866
 51
180.3658021843118888
  0
ARC
  5
A6AE
  8
0
 10
-36650.4314743264621939
 20
27.4713859519121684
 30
0.0
 40
41272.092459824110847
 50
0.3421201129495262
 51
0.3532260741000053
  0
ARC
  5
A6AF
  8
0
 10
-36650.4314743264621939
 20
27.4713859519121684
 30
0.0
 40
41272.092459824110847
 50
0.3573908094052824
 51
0.3722962834450065
  0
ARC
  5
A6B0
  8
0
 10
-3080.30010442198909
 20
239.9763760290940127
 30
0.0
 40
7701.5499900756640272
 50
0.2134263810514683
 51
0.4142341680643605
  0
ARC
  5
A6B1
  8
0
 10
4622.2430252351141462
 20
268.3249711865681206
 30
0.0
 40
0.0625000001127409
 50
0.0000000479023086
 51
87.9996377026787968
  0
ARC
  5
A6B2
  8
0
 10
4615.9068573135346014
 20
93.0872002793371962
 30
0.0
 40
175.4147835892368903
 50
87.9292523581662664
 51
88.1903291907683382
  0
ARC
  5
A6B3
  8
0
 10
4622.0856065215803028
 20
300.2519947581517954
 30
0.0
 40
0.1624999998685013
 50
2.000684990543641
 51
89.9575132375663884
  0
LINE
  5
A6B4
  8
0
 10
4622.2480074630229865
 20
300.2576678680284772
 30
0.0
 11
4622.4055252352272873
 21
295.7943282683629036
 31
0.0
  0
ARC
  5
A6B5
  8
0
 10
4562.3236022603050515
 20
295.9374912890388032
 30
0.0
 40
0.1885253668546367
 50
309.9273621053835086
 51
359.3731035360415262
  0
ARC
  5
A6B6
  8
0
 10
4622.1515651907930078
 20
300.1637390144500728
 30
0.0
 40
0.1268612541668789
 50
0.3413270141135394
 51
40.2209920141281998
  0
LINE
  5
A6B7
  8
0
 10
4622.2784241938652485
 20
300.1644947580202825
 30
0.0
 11
4622.2784241962372107
 21
299.3957955348319047
 31
0.0
  0
ARC
  5
A6B8
  8
0
 10
4622.4874327541201637
 20
295.937481443675324
 30
0.0
 40
0.1885096444704082
 50
180.6259764274767861
 51
230.053387349874896
  0
LINE
  5
A6BA
  8
0
 10
4563.0200832352247744
 20
295.7428491433656177
 30
0.0
 11
4563.0328762390254269
 21
296.109192840720425
 31
0.0
  0
LINE
  5
A6BB
  8
0
 10
4563.0328762390254269
 20
296.109192840720425
 30
0.0
 11
4563.1584805847269308
 21
296.1048066403204189
 31
0.0
  0
ARC
  5
A6BC
  8
0
 10
4563.1562993662091685
 20
296.0423447136125219
 30
0.0
 40
0.0625000000182289
 50
2.0000000066024071
 51
88.000000024398787
  0
LINE
  5
A6BD
  8
0
 10
4563.218761292927411
 20
296.0445259321203935
 30
0.0
 11
4563.2295515167279518
 21
295.7355343497919193
 31
0.0
  0
LINE
  5
A6BE
  8
0
 10
4621.7909645124673261
 20
295.7428491433656177
 30
0.0
 11
4621.7781715086657641
 21
296.109192840720425
 31
0.0
  0
LINE
  5
A6BF
  8
0
 10
4621.7781715086657641
 20
296.109192840720425
 30
0.0
 11
4621.6525671629651697
 21
296.1048066403204189
 31
0.0
  0
ARC
  5
A6C0
  8
0
 10
4621.654748381482932
 20
296.0423447136125219
 30
0.0
 40
0.0625000000182289
 50
91.9999999756012272
 51
177.9999999933976085
  0
LINE
  5
A6C1
  8
0
 10
4621.592286454765599
 20
296.0445259321203935
 30
0.0
 11
4621.5814962309641487
 21
295.7355343497919193
 31
0.0
  0
LINE
  5
A6C2
  8
0
 10
4592.4026674133392589
 20
295.748585213566173
 30
0.0
 11
4592.4026674068154534
 21
274.2576485927702947
 31
0.0
  0
ARC
  5
A6C3
  8
0
 10
4597.8931222257378977
 20
274.3303468493422201
 30
0.0
 40
5.4909360909726566
 50
180.7586001564951061
 51
201.7182437393551879
  0
ARC
  5
A6C4
  8
0
 10
4591.3702127312935772
 20
271.7222660293377885
 30
0.0
 40
1.5340718253229979
 50
0.7450805678646263
 51
22.0615322362581807
  0
LINE
  5
A6C5
  8
0
 10
4592.9041548474151568
 20
271.7422147044704275
 30
0.0
 11
4592.9043530301150895
 21
269.7022580788703863
 31
0.0
  0
ARC
  5
A6C6
  8
0
 10
4593.9028563193842274
 20
269.7162119912799767
 30
0.0
 40
0.9986007862771596
 50
180.8006465848417861
 51
269.7800127070664189
  0
LINE
  5
A6C7
  8
0
 10
4593.8990221985150129
 20
268.7176185655703193
 30
0.0
 11
4606.9120226457143872
 21
268.7176347120703213
 31
0.0
  0
ARC
  5
A6C8
  8
0
 10
4606.9046263141326563
 20
269.7156030625188237
 30
0.0
 40
0.9979957586170657
 50
270.4246335311062808
 51
358.9389238763370145
  0
LINE
  5
A6C9
  8
0
 10
4607.9024509396140274
 20
269.697121964070277
 30
0.0
 11
4607.904470804207449
 21
271.7962014067704217
 31
0.0
  0
ARC
  5
A6CA
  8
0
 10
4609.2962256071477896
 20
271.7687738393962036
 30
0.0
 40
1.3920250367567311
 50
157.263177166464601
 51
178.87100769744589
  0
ARC
  5
A6CB
  8
0
 10
4603.0768892901351137
 20
274.3162346207207065
 30
0.0
 40
5.3288729697153201
 50
337.8466857234772078
 51
2.6510430870125301
  0
LINE
  5
A6CC
  8
0
 10
4608.4000590914138229
 20
274.5627105710703972
 30
0.0
 11
4608.4054810679390357
 21
295.7486021116733923
 31
0.0
  0
ARC
  5
A6CD
  8
0
 10
4564.152330194676324
 20
283.5191382813782752
 30
0.0
 40
0.1950931257047997
 50
325.3146507898874233
 51
33.9572756423847295
  0
ARC
  5
A6CE
  8
0
 10
4564.1505346889362045
 20
283.2991452489682729
 30
0.0
 40
0.1954217286521052
 50
325.3803984341494129
 51
33.8915279463408865
  0
ARC
  5
A6CF
  8
0
 10
4564.0716266305453246
 20
272.5194290179338168
 30
0.0
 40
0.1947743661720503
 50
325.2506110786914064
 51
34.0213153027732673
  0
ARC
  5
A6D0
  8
0
 10
4564.0702213748090799
 20
272.2994335059033801
 30
0.0
 40
0.1947805261544733
 50
325.2518510806356744
 51
34.0200752776238389
  0
LINE
  5
A6D1
  8
0
 10
4620.629039366564939
 20
273.1587406180203743
 30
0.0
 11
4620.6867729064661034
 21
273.9091225796203162
 31
0.0
  0
LINE
  5
A6D2
  8
0
 10
4620.5591497872637774
 20
284.1585185906204174
 30
0.0
 11
4620.6168833271649419
 21
284.9089005522204161
 31
0.0
  0
LINE
  5
A6D3
  8
0
 10
4620.696322512464576
 20
269.0400065417204019
 30
0.0
 11
4620.696322512464576
 21
271.7889829742202892
 31
0.0
  0
LINE
  5
A6D4
  8
0
 10
4620.7000001825126674
 20
271.8259985250625164
 30
0.0
 11
4620.6867729064661034
 21
273.9091225796203162
 31
0.0
  0
LINE
  5
A6D5
  8
0
 10
4620.6359441215654442
 20
281.9089611051202837
 30
0.0
 11
4620.6168833271649419
 21
284.9089005522204161
 31
0.0
  0
LINE
  5
A6D6
  8
0
 10
4620.6859473594640804
 20
272.629091497920399
 30
0.0
 11
4620.6887429426651579
 21
272.189100379020374
 31
0.0
  0
LINE
  5
A6D7
  8
0
 10
4620.6048576963648884
 20
283.6287983082203255
 30
0.0
 11
4620.6076532795650564
 21
283.1888071893203005
 31
0.0
  0
LINE
  5
A6D8
  8
0
 10
4620.5591497872637774
 20
284.1585185906204174
 30
0.0
 11
4620.562517194263819
 21
283.6285292883204079
 31
0.0
  0
LINE
  5
A6D9
  8
0
 10
4620.5653127774648965
 20
283.1885381694203261
 30
0.0
 11
4620.5686801844640286
 21
282.6585488670203858
 31
0.0
  0
LINE
  5
A6DA
  8
0
 10
4620.629039366564939
 20
273.1587406180203743
 30
0.0
 11
4620.6324067735649805
 21
272.628751315720308
 31
0.0
  0
LINE
  5
A6DB
  8
0
 10
4620.6352023566651042
 20
272.1887601967202954
 30
0.0
 11
4620.6385697636660552
 21
271.6587708944202859
 31
0.0
  0
LINE
  5
A6DC
  8
0
 10
4620.5165558064663855
 20
272.2180069546204209
 30
0.0
 11
4620.5141414391646322
 21
272.5979992845203128
 31
0.0
  0
LINE
  5
A6DD
  8
0
 10
4620.4354661432653302
 20
283.2177137649202905
 30
0.0
 11
4620.4330517759653958
 21
283.5977060949203974
 31
0.0
  0
LINE
  5
A6DE
  8
0
 10
4619.5700774934648507
 20
292.2723981958204149
 30
0.0
 11
4619.6216687100650233
 21
284.1525620923202951
 31
0.0
  0
LINE
  5
A6DF
  8
0
 10
4619.6311991072652745
 20
282.6525923688204216
 30
0.0
 11
4619.6915582893652754
 21
273.1527841197204225
 31
0.0
  0
LINE
  5
A6E0
  8
0
 10
4619.7010886864645727
 20
271.6528143962203785
 30
0.0
 11
4619.7041913358652891
 21
271.1644947580202825
 31
0.0
  0
LINE
  5
A6E1
  8
0
 10
4619.7137219253645526
 20
269.6644947580202825
 30
0.0
 11
4619.7209119125645884
 21
268.5328773712204224
 31
0.0
  0
LINE
  5
A6E2
  8
0
 10
4620.5686801844640286
 20
282.6585488670203858
 30
0.0
 11
4620.6359441215654442
 21
281.9089611051202837
 31
0.0
  0
LINE
  5
A6E3
  8
0
 10
4620.5439502256649575
 20
272.6281892870204047
 30
0.0
 11
4620.5141414391646322
 21
272.5979992845203128
 31
0.0
  0
LINE
  5
A6E4
  8
0
 10
4618.0701077698649897
 20
292.2628677986202774
 30
0.0
 11
4618.2080977427649486
 21
270.5449081049204096
 31
0.0
  0
LINE
  5
A6E5
  8
0
 10
4618.2098081980648203
 20
270.2757030469203983
 30
0.0
 11
4618.2209421890638623
 21
268.5233469741202725
 31
0.0
  0
LINE
  5
A6E6
  8
0
 10
4620.6385697636660552
 20
271.6587708944202859
 30
0.0
 11
4620.6829234212664232
 21
271.1644947580202825
 31
0.0
  0
LINE
  5
A6E7
  8
0
 10
4619.6915582893652754
 20
273.1527841197204225
 30
0.0
 11
4618.9463386261650157
 21
272.3980340594204108
 31
0.0
  0
LINE
  5
A6E8
  8
0
 10
4620.4656561456649797
 20
283.1879049784204199
 30
0.0
 11
4620.4354661432653302
 21
283.2177137649202905
 31
0.0
  0
LINE
  5
A6E9
  8
0
 10
4619.6311991072652745
 20
282.6525923688204216
 30
0.0
 11
4618.8764490468638542
 21
283.3978120320202834
 31
0.0
  0
LINE
  5
A6EA
  8
0
 10
4620.4628605625648561
 20
283.6278960973202743
 30
0.0
 11
4620.4330517759653958
 21
283.5977060949203974
 31
0.0
  0
LINE
  5
A6EB
  8
0
 10
4619.6216687100650233
 20
284.1525620923202951
 30
0.0
 11
4618.8764490468638542
 21
283.3978120320202834
 31
0.0
  0
LINE
  5
A6EC
  8
0
 10
4620.8843225124646779
 20
268.8519947580202825
 30
0.0
 11
4621.1957534148159539
 21
268.8519947580202825
 31
0.0
  0
LINE
  5
A6ED
  8
0
 10
4618.946322512464576
 20
269.6644947580202825
 30
0.0
 11
4620.696322512464576
 21
269.6644947580202825
 31
0.0
  0
LINE
  5
A6EE
  8
0
 10
4619.5917367715637738
 20
268.4020540037203091
 30
0.0
 11
4618.351769265564144
 21
268.3941755895202732
 31
0.0
  0
LINE
  5
A6EF
  8
0
 10
4620.5467458088651256
 20
272.1881981680203921
 30
0.0
 11
4620.5165558064663855
 21
272.2180069546204209
 31
0.0
  0
LINE
  5
A6F0
  8
0
 10
4618.946322512464576
 20
271.1644947580202825
 30
0.0
 11
4620.696322512464576
 21
271.1644947580202825
 31
0.0
  0
LINE
  5
A6F1
  8
0
 10
4620.8843225124646779
 20
271.9769947580202825
 30
0.0
 11
4621.1833975078079675
 21
271.9782374999637113
 31
0.0
  0
LINE
  5
A6F2
  8
0
 10
4619.7010886864645727
 20
271.6528143962203785
 30
0.0
 11
4620.6385697636660552
 21
271.6587708944202859
 31
0.0
  0
LINE
  5
A6F3
  8
0
 10
4620.5467458088651256
 20
272.1881981680203921
 30
0.0
 11
4620.6887429426651579
 21
272.189100379020374
 31
0.0
  0
LINE
  5
A6F4
  8
0
 10
4620.5793814487660711
 20
272.4084099666204111
 30
0.0
 11
4620.6873451510646191
 21
272.4090959384203074
 31
0.0
  0
LINE
  5
A6F5
  8
0
 10
4620.5439502256649575
 20
272.6281892870204047
 30
0.0
 11
4620.6859473594640804
 21
272.629091497920399
 31
0.0
  0
LINE
  5
A6F6
  8
0
 10
4619.7010886864645727
 20
271.6528143962203785
 30
0.0
 11
4618.9463386261650157
 21
272.3980340594204108
 31
0.0
  0
LINE
  5
A6F7
  8
0
 10
4619.6915582893652754
 20
273.1527841197204225
 30
0.0
 11
4620.629039366564939
 21
273.1587406180203743
 31
0.0
  0
LINE
  5
A6F8
  8
0
 10
4620.6867729064661034
 20
273.9091225796203162
 30
0.0
 11
4621.1751184013883176
 21
273.9122253933063007
 31
0.0
  0
LINE
  5
A6F9
  8
0
 10
4620.6359441215654442
 20
281.9089611051202837
 30
0.0
 11
4621.1359340293638525
 21
281.9121379042202875
 31
0.0
  0
LINE
  5
A6FA
  8
0
 10
4619.6311991072652745
 20
282.6525923688204216
 30
0.0
 11
4620.5686801844640286
 21
282.6585488670203858
 31
0.0
  0
LINE
  5
A6FB
  8
0
 10
4620.4656561456649797
 20
283.1879049784204199
 30
0.0
 11
4620.6076532795650564
 21
283.1888071893203005
 31
0.0
  0
LINE
  5
A6FC
  8
0
 10
4620.4982917855650157
 20
283.4081167770203251
 30
0.0
 11
4620.6062554879663367
 21
283.4088027488202783
 31
0.0
  0
LINE
  5
A6FD
  8
0
 10
4620.4628605625648561
 20
283.6278960973202743
 30
0.0
 11
4620.6048576963648884
 21
283.6287983082203255
 31
0.0
  0
LINE
  5
A6FE
  8
0
 10
4619.6216687100650233
 20
284.1525620923202951
 30
0.0
 11
4620.5591497872637774
 21
284.1585185906204174
 31
0.0
  0
LINE
  5
A6FF
  8
0
 10
4620.6168833271649419
 20
284.9089005522204161
 30
0.0
 11
4621.118792851744729
 21
284.912089548039603
 31
0.0
  0
LINE
  5
A700
  8
0
 10
4618.1992830419649181
 20
292.3936911669202914
 30
0.0
 11
4619.4392502858645457
 21
292.4015695795202987
 31
0.0
  0
ARC
  5
A701
  8
0
 10
4620.8843225127257028
 20
269.039994758650721
 30
0.0
 40
0.1880000006303675
 50
179.9964089353308907
 51
269.9999999204276833
  0
ARC
  5
A702
  8
0
 10
4619.5909145365649238
 20
268.5320514035204269
 30
0.0
 40
0.13
 50
270.3640368056971965
 51
0.3640368057006574
  0
ARC
  5
A703
  8
0
 10
4618.350939565065346
 20
268.5241729418203249
 30
0.0
 40
0.13
 50
180.3640368057982926
 51
270.3640368056971965
  0
ARC
  5
A704
  8
0
 10
4618.946322512464576
 20
270.4144947580202825
 30
0.0
 40
0.75
 50
90.0
 51
270.0
  0
ARC
  5
A705
  8
0
 10
4620.8843225127257028
 20
271.7889947573900145
 30
0.0
 40
0.1880000006303903
 50
90.0000000795722883
 51
180.0035910951405072
  0
ARC
  5
A706
  8
0
 10
4619.4400801172505453
 20
292.2715722279725128
 30
0.0
 40
0.1300000001137682
 50
0.3640368264603046
 51
90.3657396846801504
  0
ARC
  5
A707
  8
0
 10
4618.2001051460820236
 20
292.2636937662728087
 30
0.0
 40
0.1300000001165041
 50
90.3623339240655667
 51
180.3640367845270021
  0
ARC
  5
A708
  8
0
 10
4620.6587148302551213
 20
283.5191382813782752
 30
0.0
 40
0.1950931257047997
 50
146.0427243576152989
 51
214.6853492101126051
  0
ARC
  5
A709
  8
0
 10
4620.6605103359934219
 20
283.2991452489682729
 30
0.0
 40
0.1954217286521052
 50
146.1084720536591135
 51
214.6196015658505871
  0
ARC
  5
A70A
  8
0
 10
4620.7394183943843018
 20
272.5194290179338168
 30
0.0
 40
0.1947743661720503
 50
145.9786846972266972
 51
214.7493889213085936
  0
ARC
  5
A70B
  8
0
 10
4620.7408236501205465
 20
272.2994335059033801
 30
0.0
 40
0.1947805261544733
 50
145.9799247223760972
 51
214.7481489193642119
  0
ENDSEC
  0
EOF
