  0
SECTION
  2
HEADER
  9
$ACADVER
  1
AC1009
  9
$INSBASE
 10
4497.5984786208864534
 20
246.8797243596740998
 30
0.0
  9
$EXTMIN
 10
4467.5984772595056711
 20
246.8742660457261024
 30
0.0
  9
$EXTMAX
 10
4527.5984799822681452
 20
325.2014155053809077
 30
0.0
  9
$LIMMIN
 10
0.0
 20
0.0
  9
$LIMMAX
 10
11.6929133858000007
 20
8.2677165353999982
  9
$ORTHOMODE
 70
     1
  9
$REGENMODE
 70
     1
  9
$FILLMODE
 70
     1
  9
$QTEXTMODE
 70
     0
  9
$MIRRTEXT
 70
     0
  9
$DRAGMODE
 70
     2
  9
$LTSCALE
 40
0.6431102362
  9
$OSMODE
 70
  4095
  9
$ATTMODE
 70
     1
  9
$TEXTSIZE
 40
0.2
  9
$TRACEWID
 40
0.05
  9
$TEXTSTYLE
  7
STANDARD
  9
$CLAYER
  8
0
  9
$CELTYPE
  6
BYLAYER
  9
$CECOLOR
 62
   256
  9
$DIMSCALE
 40
1.0
  9
$DIMASZ
 40
0.1875
  9
$DIMEXO
 40
0.0625
  9
$DIMDLI
 40
0.4443307087
  9
$DIMRND
 40
0.0
  9
$DIMDLE
 40
0.0
  9
$DIMEXE
 40
0.125
  9
$DIMTP
 40
0.01
  9
$DIMTM
 40
0.01
  9
$DIMTXT
 40
2.0
  9
$DIMCEN
 40
0.1052362205
  9
$DIMTSZ
 40
0.0
  9
$DIMTOL
 70
     1
  9
$DIMLIM
 70
     0
  9
$DIMTIH
 70
     1
  9
$DIMTOH
 70
     1
  9
$DIMSE1
 70
     0
  9
$DIMSE2
 70
     0
  9
$DIMTAD
 70
     0
  9
$DIMZIN
 70
     0
  9
$DIMBLK
  1

  9
$DIMASO
 70
     1
  9
$DIMSHO
 70
     1
  9
$DIMPOST
  1
\X
  9
$DIMAPOST
  1

  9
$DIMALT
 70
     1
  9
$DIMALTD
 70
     2
  9
$DIMALTF
 40
25.3999999999999986
  9
$DIMLFAC
 40
1.0
  9
$DIMTOFL
 70
     0
  9
$DIMTVP
 40
0.0
  9
$DIMTIX
 70
     0
  9
$DIMSOXD
 70
     0
  9
$DIMSAH
 70
     0
  9
$DIMBLK1
  1

  9
$DIMBLK2
  1

  9
$DIMSTYLE
  2
STANDARD
  9
$DIMCLRD
 70
     0
  9
$DIMCLRE
 70
     0
  9
$DIMCLRT
 70
     0
  9
$DIMTFAC
 40
1.0
  9
$DIMGAP
 40
0.09
  9
$LUNITS
 70
     2
  9
$LUPREC
 70
     4
  9
$SKETCHINC
 40
0.1
  9
$FILLETRAD
 40
0.0
  9
$AUNITS
 70
     0
  9
$AUPREC
 70
     0
  9
$MENU
  1
.
  9
$ELEVATION
 40
0.0
  9
$PELEVATION
 40
0.0
  9
$THICKNESS
 40
0.0
  9
$LIMCHECK
 70
     0
  9
$BLIPMODE
 70
     0
  9
$CHAMFERA
 40
0.0
  9
$CHAMFERB
 40
0.0
  9
$SKPOLY
 70
     0
  9
$TDCREATE
 40
2458060.468368056230247
  9
$TDUPDATE
 40
2459115.984375
  9
$TDINDWG
 40
0.3249028935
  9
$TDUSRTIMER
 40
0.3249028935
  9
$USRTIMER
 70
     1
  9
$ANGBASE
 50
0.0
  9
$ANGDIR
 70
     0
  9
$PDMODE
 70
     0
  9
$PDSIZE
 40
0.3125
  9
$PLINEWID
 40
0.0
  9
$COORDS
 70
     1
  9
$SPLFRAME
 70
     0
  9
$SPLINETYPE
 70
     6
  9
$SPLINESEGS
 70
     8
  9
$ATTDIA
 70
     1
  9
$ATTREQ
 70
     1
  9
$HANDLING
 70
     1
  9
$HANDSEED
  5
A609
  9
$SURFTAB1
 70
     6
  9
$SURFTAB2
 70
     6
  9
$SURFTYPE
 70
     6
  9
$SURFU
 70
     6
  9
$SURFV
 70
     6
  9
$UCSNAME
  2

  9
$UCSORG
 10
0.0
 20
0.0
 30
0.0
  9
$UCSXDIR
 10
1.0
 20
0.0
 30
0.0
  9
$UCSYDIR
 10
0.0
 20
1.0
 30
0.0
  9
$PUCSNAME
  2

  9
$PUCSORG
 10
0.0
 20
0.0
 30
0.0
  9
$PUCSXDIR
 10
1.0
 20
0.0
 30
0.0
  9
$PUCSYDIR
 10
0.0
 20
1.0
 30
0.0
  9
$USERI1
 70
     0
  9
$USERI2
 70
     0
  9
$USERI3
 70
     0
  9
$USERI4
 70
     0
  9
$USERI5
 70
     0
  9
$USERR1
 40
0.0
  9
$USERR2
 40
0.0
  9
$USERR3
 40
0.0
  9
$USERR4
 40
0.0
  9
$USERR5
 40
0.0
  9
$WORLDVIEW
 70
     1
  9
$SHADEDGE
 70
     3
  9
$SHADEDIF
 70
    70
  9
$TILEMODE
 70
     1
  9
$MAXACTVP
 70
    64
  9
$PLIMCHECK
 70
     0
  9
$PEXTMIN
 10
1.0000000000000000E+20
 20
1.0000000000000000E+20
 30
1.0000000000000000E+20
  9
$PEXTMAX
 10
-1.0000000000000000E+20
 20
-1.0000000000000000E+20
 30
-1.0000000000000000E+20
  9
$PLIMMIN
 10
0.0
 20
0.0
  9
$PLIMMAX
 10
12.0
 20
9.0
  9
$UNITMODE
 70
     0
  9
$VISRETAIN
 70
     1
  9
$PLINEGEN
 70
     0
  9
$PSLTSCALE
 70
     1
  0
ENDSEC
  0
SECTION
  2
TABLES
  0
TABLE
  2
VPORT
 70
     1
  0
VPORT
  2
*ACTIVE
 70
     0
 10
0.0
 20
0.0
 11
1.0
 21
1.0
 12
0.0
 22
0.0
 13
0.0
 23
0.0
 14
1.0
 24
1.0
 15
0.0
 25
0.0
 16
0.0
 26
0.0
 36
279.5701460518158115
 17
4497.5986328125
 27
286.0378410306755086
 37
0.0
 40
98.668221898134675
 41
2.1186252771618621
 42
50.0
 43
0.0
 44
0.0
 50
0.0
 51
0.0
 71
     0
 72
   100
 73
     1
 74
     1
 75
     0
 76
     0
 77
     0
 78
     0
  0
ENDTAB
  0
TABLE
  2
LTYPE
 70
     2
  0
LTYPE
  2
CONTINUOUS
 70
     0
  3
Solid line
 72
    65
 73
     0
 40
0.0
  0
LTYPE
  2
PHANTOM2
 70
     0
  3
___ _ _ ___ _ _ ___ _ _ ___ _ _
 72
    65
 73
     6
 40
1.25
 49
0.625
 49
-0.125
 49
0.125
 49
-0.125
 49
0.125
 49
-0.125
  0
ENDTAB
  0
TABLE
  2
LAYER
 70
     2
  0
LAYER
  2
0
 70
     0
 62
   255
  6
CONTINUOUS
  0
LAYER
  2
DEFPOINTS
 70
     0
 62
     7
  6
CONTINUOUS
  0
ENDTAB
  0
TABLE
  2
STYLE
 70
     1
  0
STYLE
  2
STANDARD
 70
     0
 40
0.0
 41
0.8
 50
0.0
 71
     0
 42
0.2
  3
txt
  4

  0
ENDTAB
  0
TABLE
  2
VIEW
 70
     0
  0
ENDTAB
  0
TABLE
  2
UCS
 70
     0
  0
ENDTAB
  0
TABLE
  2
APPID
 70
     9
  0
APPID
  2
ACAD
 70
     0
  0
APPID
  2
ACAD_MLEADERVER
 70
     0
  0
APPID
  2
ACAD_EXEMPT_FROM_CAD_STANDARDS
 70
     0
  0
APPID
  2
ACAD_NAV_VCDISPLAY
 70
     0
  0
APPID
  2
ACAECLAYERSTANDARD
 70
     0
  0
APPID
  2
ACCMTRANSPARENCY
 70
     0
  0
APPID
  2
ACAD_DSTYLE_DIMJAG
 70
     0
  0
APPID
  2
ACAD_DSTYLE_DIMTALN
 70
     0
  0
APPID
  2
ACDBATTR
 70
     0
  0
ENDTAB
  0
TABLE
  2
DIMSTYLE
 70
     1
  0
DIMSTYLE
  2
STANDARD
 70
     0
  3

  4

  5

  6

  7

 40
1.0
 41
0.1875
 42
0.0625
 43
0.38
 44
0.125
 45
0.0
 46
0.0
 47
0.01
 48
0.01
140
0.15625
141
0.09
142
0.0
143
25.3999999999999986
144
1.0
145
0.0
146
1.0
147
0.09
 71
     1
 72
     0
 73
     1
 74
     1
 75
     0
 76
     0
 77
     0
 78
     4
170
     0
171
     2
172
     0
173
     0
174
     0
175
     0
176
     0
177
     0
178
     0
  0
ENDTAB
  0
ENDSEC
  0
SECTION
  2
BLOCKS
  0
BLOCK
  8
0
  2
$MODEL_SPACE
 70
     0
 10
0.0
 20
0.0
 30
0.0
  3
$MODEL_SPACE
  1

  0
ENDBLK
  5
21
  8
0
  0
BLOCK
 67
     1
  8
0
  2
$PAPER_SPACE
 70
     0
 10
0.0
 20
0.0
 30
0.0
  3
$PAPER_SPACE
  1

  0
ENDBLK
  5
1D
 67
     1
  8
0
  0
ENDSEC
  0
SECTION
  2
ENTITIES
  0
ATTDEF
  5
3930
  8
DEFPOINTS
 10
4497.5929895945619137
 20
246.8775993790594043
 30
0.0
 40
0.001
  1
71520115
  3

  2
MODELNUMBER
 70
     0
1001
ACDBATTR
1070
     0
1070
     1
  0
ATTDEF
  5
3931
  8
DEFPOINTS
 10
4497.5929895945619137
 20
246.8759327123927108
 30
0.0
 40
0.001
  1
TRAVERSE
  3

  2
TRADENAME
 70
     0
1001
ACDBATTR
1070
     0
1070
     1
  0
ATTDEF
  5
3932
  8
DEFPOINTS
 10
4497.5929895945619137
 20
246.8742660457261024
 30
0.0
 40
0.001
  1
BATH AND WALL SURROUND
  3

  2
PRODUCT
 70
     0
1001
ACDBATTR
1070
     0
1070
     1
  0
LINE
  5
9DAD
  8
0
 10
4468.1274500161680407
 20
266.8797243596741282
 30
0.0
 11
4527.0695099429667607
 21
266.8797243596741282
 31
0.0
  0
LINE
  5
9DAE
  8
0
 10
4469.4307438479681878
 20
264.8623477105739994
 30
0.0
 11
4525.7657527725632463
 21
264.8623228816404094
 31
0.0
  0
ARC
  5
9DAF
  8
0
 10
4525.757314939148273
 20
265.4946823955427249
 30
0.0
 40
0.6324158061398889
 50
270.7644758131962135
 51
358.175825906192415
  0
LINE
  5
9DB0
  8
0
 10
4527.0534799822680725
 20
266.8797243596741282
 30
0.0
 11
4527.0631297531672317
 21
267.1560576415740798
 31
0.0
  0
LINE
  5
9DB1
  8
0
 10
4527.313935080189367
 20
267.4067878298947107
 30
0.0
 11
4527.5695269671696224
 21
267.4157132981636096
 31
0.0
  0
ARC
  5
9DB2
  8
0
 10
4526.5593358597780025
 20
266.7546504990739891
 30
0.0
 40
0.125154397011138
 50
92.0555785455047442
 51
178.6114574736182021
  0
LINE
  5
9DB3
  8
0
 10
4526.4342182136642805
 20
266.7576832738034796
 30
0.0
 11
4526.3894102487538476
 21
265.4745510411427745
 31
0.0
  0
LINE
  5
9DB4
  8
0
 10
4467.6441377290047967
 20
246.8797243596740998
 30
0.0
 11
4527.5528195127681101
 21
246.8797243596740998
 31
0.0
  0
ARC
  5
9DB5
  8
0
 10
4527.5684799822665809
 20
267.445695022974121
 30
0.0
 40
0.0300000000000208
 50
272.0000000030278784
 51
359.9999999999250804
  0
ARC
  5
9DB6
  8
0
 10
4527.5609799822213972
 20
325.1278932963926991
 30
0.0
 40
0.0624999999534858
 50
92.9999998997123498
 51
180.0000000170205112
  0
CIRCLE
  5
9DB7
  8
0
 10
4526.8484799822672358
 20
324.7018003596739959
 30
0.0
 40
0.09375
  0
CIRCLE
  5
9DB8
  8
0
 10
4526.0984799822672358
 20
324.7018003596739959
 30
0.0
 40
0.09375
  0
CIRCLE
  5
9DB9
  8
0
 10
4525.3484799822672358
 20
324.7018003596739959
 30
0.0
 40
0.09375
  0
CIRCLE
  5
9DBA
  8
0
 10
4524.5984799822672358
 20
324.7018003596739959
 30
0.0
 40
0.09375
  0
CIRCLE
  5
9DBB
  8
0
 10
4523.8484799822672358
 20
324.7018003596739959
 30
0.0
 40
0.09375
  0
CIRCLE
  5
9DBC
  8
0
 10
4523.0984799822672358
 20
324.7018003596739959
 30
0.0
 40
0.09375
  0
CIRCLE
  5
9DBD
  8
0
 10
4522.3484799822672358
 20
324.7018003596739959
 30
0.0
 40
0.09375
  0
CIRCLE
  5
9DBE
  8
0
 10
4521.5984799822672358
 20
324.7018003596739959
 30
0.0
 40
0.09375
  0
CIRCLE
  5
9DBF
  8
0
 10
4520.8484799822672358
 20
324.7018003596739959
 30
0.0
 40
0.09375
  0
CIRCLE
  5
9DC0
  8
0
 10
4520.0984799822672358
 20
324.7018003596739959
 30
0.0
 40
0.09375
  0
CIRCLE
  5
9DC1
  8
0
 10
4519.3484799822672358
 20
324.7018003596739959
 30
0.0
 40
0.09375
  0
CIRCLE
  5
9DC2
  8
0
 10
4518.5984799822672358
 20
324.7018003596739959
 30
0.0
 40
0.09375
  0
CIRCLE
  5
9DC3
  8
0
 10
4517.8484799822681452
 20
324.7018003596739959
 30
0.0
 40
0.09375
  0
CIRCLE
  5
9DC4
  8
0
 10
4517.0984799822672358
 20
324.7018003596739959
 30
0.0
 40
0.09375
  0
CIRCLE
  5
9DC5
  8
0
 10
4516.3484799822672358
 20
324.7018003596739959
 30
0.0
 40
0.09375
  0
CIRCLE
  5
9DC6
  8
0
 10
4515.5984799822672358
 20
324.7018003596739959
 30
0.0
 40
0.09375
  0
CIRCLE
  5
9DC7
  8
0
 10
4514.8484799822672358
 20
324.7018003596739959
 30
0.0
 40
0.09375
  0
CIRCLE
  5
9DC8
  8
0
 10
4514.0984799822672358
 20
324.7018003596739959
 30
0.0
 40
0.09375
  0
CIRCLE
  5
9DC9
  8
0
 10
4513.3484799822672358
 20
324.7018003596739959
 30
0.0
 40
0.09375
  0
CIRCLE
  5
9DCA
  8
0
 10
4512.5984799822672358
 20
324.7018003596739959
 30
0.0
 40
0.09375
  0
CIRCLE
  5
9DCB
  8
0
 10
4511.8484799822672358
 20
324.7018003596739959
 30
0.0
 40
0.09375
  0
CIRCLE
  5
9DCC
  8
0
 10
4511.0984799822672358
 20
324.7018003596739959
 30
0.0
 40
0.09375
  0
CIRCLE
  5
9DCD
  8
0
 10
4510.3484799822672358
 20
324.7018003596739959
 30
0.0
 40
0.09375
  0
CIRCLE
  5
9DCE
  8
0
 10
4509.5984799822672358
 20
324.7018003596739959
 30
0.0
 40
0.09375
  0
CIRCLE
  5
9DCF
  8
0
 10
4508.8484799822672358
 20
324.7018003596739959
 30
0.0
 40
0.09375
  0
CIRCLE
  5
9DD0
  8
0
 10
4508.0984799822672358
 20
324.7018003596739959
 30
0.0
 40
0.09375
  0
CIRCLE
  5
9DD1
  8
0
 10
4507.3484799822672358
 20
324.7018003596739959
 30
0.0
 40
0.09375
  0
CIRCLE
  5
9DD2
  8
0
 10
4506.5984799822672358
 20
324.7018003596739959
 30
0.0
 40
0.09375
  0
CIRCLE
  5
9DD3
  8
0
 10
4497.5984799823672802
 20
324.7018003596739959
 30
0.0
 40
0.09375
  0
CIRCLE
  5
9DD4
  8
0
 10
4498.3484799823672802
 20
324.7018003596739959
 30
0.0
 40
0.09375
  0
CIRCLE
  5
9DD5
  8
0
 10
4499.0984799823672802
 20
324.7018003596739959
 30
0.0
 40
0.09375
  0
CIRCLE
  5
9DD6
  8
0
 10
4499.8484799823672802
 20
324.7018003596739959
 30
0.0
 40
0.09375
  0
CIRCLE
  5
9DD7
  8
0
 10
4500.5984799823672802
 20
324.7018003596739959
 30
0.0
 40
0.09375
  0
CIRCLE
  5
9DD8
  8
0
 10
4501.3484799823672802
 20
324.7018003596739959
 30
0.0
 40
0.09375
  0
CIRCLE
  5
9DD9
  8
0
 10
4502.0984799823672802
 20
324.7018003596739959
 30
0.0
 40
0.09375
  0
CIRCLE
  5
9DDA
  8
0
 10
4502.8484799823672802
 20
324.7018003596739959
 30
0.0
 40
0.09375
  0
CIRCLE
  5
9DDB
  8
0
 10
4503.5984799823672802
 20
324.7018003596739959
 30
0.0
 40
0.09375
  0
CIRCLE
  5
9DDC
  8
0
 10
4504.3484799823672802
 20
324.7018003596739959
 30
0.0
 40
0.09375
  0
CIRCLE
  5
9DDD
  8
0
 10
4505.0984799823672802
 20
324.7018003596739959
 30
0.0
 40
0.09375
  0
CIRCLE
  5
9DDE
  8
0
 10
4505.8484799823672802
 20
324.7018003596739959
 30
0.0
 40
0.09375
  0
LINE
  5
9DDF
  8
0
 10
4467.9183959732063158
 20
325.2014155053739728
 30
0.0
 11
4527.278561268566591
 21
325.2014155053809077
 31
0.0
  0
ARC
  5
9DE0
  8
0
 10
4527.0583996302475498
 20
311.9107769296618926
 30
0.0
 40
13.2924619577110192
 50
88.4086282997297985
 51
89.0509726832245718
  0
ARC
  5
9DE1
  8
0
 10
4527.4203864186856663
 20
325.1332414256800121
 30
0.0
 40
0.0652645652224314
 50
73.1601983280698818
 51
83.7019390295574652
  0
ARC
  5
9DE2
  8
0
 10
4527.438303828224889
 20
325.1923847775198055
 30
0.0
 40
0.0034667890539801
 50
23.8051489340697415
 51
73.4154948619710552
  0
LINE
  5
9DE3
  8
0
 10
4527.4414756746518833
 20
325.1937840689823815
 30
0.0
 11
4527.4984554584134457
 21
325.0983055657339946
 31
0.0
  0
ARC
  5
9DE4
  8
0
 10
4527.4357366964122775
 20
323.995401737941279
 30
0.0
 40
0.0631070482025065
 50
273.193582506546818
 51
353.8451755204036999
  0
LINE
  5
9DE5
  8
0
 10
4527.439252369427777
 20
323.9323926942560092
 30
0.0
 11
4526.6788615378518443
 21
323.8925318486735137
 31
0.0
  0
ARC
  5
9DE6
  8
0
 10
4526.6924374434101992
 20
323.6347315973454783
 30
0.0
 40
0.2581574612450347
 50
93.0144433970868647
 51
180.0016063375408919
  0
LINE
  5
9DE7
  8
0
 10
4526.4342799822670713
 20
323.6347243596741237
 30
0.0
 11
4526.4342799822670713
 21
267.0047243596741282
 31
0.0
  0
ARC
  5
9DE8
  8
0
 10
4526.5594202242582469
 20
267.0047810121017164
 30
0.0
 40
0.1251402548152468
 50
180.0259384569503993
 51
267.9055372812507017
  0
LINE
  5
9DE9
  8
0
 10
4468.7626799822674002
 20
323.6347243596741237
 30
0.0
 11
4526.4342799822670713
 21
323.6347243596741237
 31
0.0
  0
ARC
  5
9DEA
  8
0
 10
4527.84541826597615
 20
323.2280580340861889
 30
0.0
 40
1.6165649126030699
 50
166.0368440684451912
 51
178.7003171073758097
  0
LINE
  5
9DEB
  8
0
 10
4526.2292692391529272
 20
323.2647246368147762
 30
0.0
 11
4526.2292692384680777
 21
321.436721859674094
 31
0.0
  0
ARC
  5
9DEC
  8
0
 10
4527.8470630450619865
 20
321.4736057788991843
 30
0.0
 40
1.618214208364283
 50
181.3060544878989901
 51
193.9566661938889069
  0
ARC
  5
9DED
  8
0
 10
4515.9404817330851074
 20
323.5333422265567833
 30
0.0
 40
0.082590736034968
 50
98.7086293287313197
 51
176.0578882937601861
  0
LINE
  5
9DEE
  8
0
 10
4515.9279766948666293
 20
323.6149807817740793
 30
0.0
 11
4523.0690866267677848
 21
323.6174633333740189
 31
0.0
  0
ARC
  5
9DEF
  8
0
 10
4523.0598186757179064
 20
323.5320169645917758
 30
0.0
 40
0.0859475238429649
 50
4.6549835224762512
 51
83.8096064398095137
  0
LINE
  5
9DF0
  8
0
 10
4523.1454826979679638
 20
323.5389920736740805
 30
0.0
 11
4523.1454735528677702
 21
321.1624234784632108
 31
0.0
  0
ARC
  5
9DF1
  8
0
 10
4523.0632392417455776
 20
321.1679533439174179
 30
0.0
 40
0.0824200299533133
 50
278.6135839955026086
 51
356.1529236846291155
  0
LINE
  5
9DF2
  8
0
 10
4523.0755832697668666
 20
321.086462937674014
 30
0.0
 11
4515.9344733449679552
 21
321.0839803859740869
 31
0.0
  0
ARC
  5
9DF3
  8
0
 10
4515.9437354184938158
 20
321.1694210396807989
 30
0.0
 40
0.0859412084614658
 50
184.6514972331646902
 51
263.813091192919785
  0
LINE
  5
9DF4
  8
0
 10
4515.8580772665673067
 20
321.1624516551740953
 30
0.0
 11
4515.8580864051673416
 21
323.5390202205741161
 31
0.0
  0
ARC
  5
9DF5
  8
0
 10
4523.239344899486241
 20
323.5384937589051901
 30
0.0
 40
0.0796300539901669
 50
89.0823246575048557
 51
183.0096542621313063
  0
LINE
  5
9DF6
  8
0
 10
4523.240620236229006
 20
323.6181135994895044
 30
0.0
 11
4526.2766210786667216
 21
323.6181317473145782
 31
0.0
  0
LINE
  5
9DF7
  8
0
 10
4526.2766210792824495
 20
321.0833119712742132
 30
0.0
 11
4523.24076847991455
 21
321.0831779938326918
 31
0.0
  0
ARC
  5
9DF8
  8
0
 10
4523.2395290208078222
 20
321.1630478442419871
 30
0.0
 40
0.0798794670943839
 50
177.007755957310394
 51
270.8890723521359973
  0
LINE
  5
9DF9
  8
0
 10
4523.1597584605669908
 20
321.1672176142740227
 30
0.0
 11
4523.159824679067242
 21
323.5343128447739787
 31
0.0
  0
LINE
  5
9DFA
  8
0
 10
4527.498479982266872
 20
325.1278932963741113
 30
0.0
 11
4527.4984799834901423
 21
323.9886356859573198
 31
0.0
  0
LINE
  5
9DFB
  8
0
 10
4469.7121754817771944
 20
297.3980236431452226
 30
0.0
 11
4470.3076799822683824
 21
297.3980236431452226
 31
0.0
  0
LINE
  5
9DFC
  8
0
 10
4471.8076799822683824
 20
297.3980236431452226
 30
0.0
 11
4525.4847817599957125
 21
297.3980236431452226
 31
0.0
  0
LINE
  5
9DFD
  8
0
 10
4468.9553914772059215
 20
296.1144651282947962
 30
0.0
 11
4470.3076799822683824
 21
296.1144651244474062
 31
0.0
  0
LINE
  5
9DFE
  8
0
 10
4471.8076799822683824
 20
296.1144651201797728
 30
0.0
 11
4526.2415657645678948
 21
296.1144649653119245
 31
0.0
  0
LINE
  5
9DFF
  8
0
 10
4474.7763544172221373
 20
249.7237832376642075
 30
0.0
 11
4520.3726777266683712
 21
249.7236382821741074
 31
0.0
  0
ARC
  5
9E00
  8
0
 10
4520.4371061126039422
 20
251.6058543089881994
 30
0.0
 40
1.8833183980703101
 50
268.0395269240614198
 51
337.7286924221446043
  0
ARC
  5
9E01
  8
0
 10
4493.7537794038171342
 20
262.1669851799809976
 30
0.0
 40
30.5805362079422416
 50
338.364834558865482
 51
1.5253091724741801
  0
LINE
  5
9E02
  8
0
 10
4470.8734774043059588
 20
262.9809938790742194
 30
0.0
 11
4524.3234798374678576
 21
262.980993879073992
 31
0.0
  0
LINE
  5
9E03
  8
0
 10
4527.5984799822681452
 20
325.1924443596740275
 30
0.0
 11
4527.5984799822672358
 21
267.445695022974121
 31
0.0
  0
ARC
  5
9E04
  8
0
 10
4525.4233760753313618
 20
298.1841741134833796
 30
0.0
 40
0.7885450019640446
 50
274.4662665479622206
 51
356.3564961187452127
  0
ARC
  5
9E05
  8
0
 10
4525.8640601430834067
 20
292.3533639689051142
 30
0.0
 40
3.3030006539860381
 50
82.7482021411811246
 51
90.2649259233823358
  0
LINE
  5
9E06
  8
0
 10
4527.5577089819680623
 20
325.1903076420741172
 30
0.0
 11
4527.5984799822681452
 21
325.1924443596740275
 31
0.0
  0
LINE
  5
9E07
  8
0
 10
4472.0441216625677043
 20
323.9417859195739879
 30
0.0
 11
4523.1528383020677211
 21
323.9417859195739879
 31
0.0
  0
ARC
  5
9E08
  8
0
 10
4523.4997620375334009
 20
347.820068503893026
 30
0.0
 40
23.8808026509751201
 50
269.1676173799197045
 51
276.0910462949219095
  0
ARC
  5
9E09
  8
0
 10
4527.0625261249879259
 20
319.1867178695404732
 30
0.0
 40
4.9944754097227317
 50
93.0274795321961534
 51
101.8873600633993988
  0
ARC
  5
9E0A
  8
0
 10
13356.3643316617999517
 20
-167832.8087607919005677
 30
0.0
 40
168388.6342796013050247
 50
93.0055546351912596
 51
93.0057192370183543
  0
ARC
  5
9E0B
  8
0
 10
4527.2784750725659251
 20
324.2620459992219253
 30
0.0
 40
0.0625483017807696
 50
273.0767498460432989
 51
359.8532436870136166
  0
LINE
  5
9E0C
  8
0
 10
4527.3410231691668741
 20
324.2618857893741051
 30
0.0
 11
4527.3410231691668741
 21
325.1319608426741183
 31
0.0
  0
ARC
  5
9E0D
  8
0
 10
4527.4118767930885952
 20
325.1282917271852284
 30
0.0
 40
0.0709485618690393
 50
96.6998139987199465
 51
177.0356178381732093
  0
ARC
  5
9E0E
  8
0
 10
4527.3229700122583381
 20
267.1469448519616208
 30
0.0
 40
0.2600000061127105
 50
91.9914142453378645
 51
177.9914179558201113
  0
LINE
  5
9E0F
  8
0
 10
4527.5528195127681101
 20
246.8797243596740998
 30
0.0
 11
4527.5528195127681101
 21
262.980993879073992
 31
0.0
  0
ARC
  5
9E10
  8
0
 10
4695.4229275490315558
 20
264.0878013089314891
 30
0.0
 40
167.8737567185355033
 50
178.8629679233305865
 51
180.3777591872961068
  0
LINE
  5
9E11
  8
0
 10
4527.3815097737679025
 20
267.3797243596741282
 30
0.0
 11
4527.5814504421441598
 21
267.3797243596741282
 31
0.0
  0
LINE
  5
9E12
  8
0
 10
4527.4559454318668941
 20
267.3797243596741282
 30
0.0
 11
4527.4570814900207552
 21
267.4117866143000128
 31
0.0
  0
ARC
  5
9E13
  8
0
 10
4527.3815097737679025
 20
267.1047243596740941
 30
0.0
 40
0.2749999999999932
 50
90.0
 51
177.9987819023006068
  0
LINE
  5
9E14
  8
0
 10
4527.1066775004373994
 20
267.1143275641528021
 30
0.0
 11
4527.0994916320678385
 21
266.9086768851740885
 31
0.0
  0
ARC
  5
9E15
  8
0
 10
4527.06617526061018
 20
266.9131775593529028
 30
0.0
 40
0.0336189927746337
 50
275.6925537693724095
 51
352.3065461366595059
  0
ARC
  5
9E16
  8
0
 10
4508.639381733085429
 20
323.5333422265567833
 30
0.0
 40
0.082590736034968
 50
98.7086293287313197
 51
176.0578882937601861
  0
LINE
  5
9E17
  8
0
 10
4508.6268766948678604
 20
323.6149807817740793
 30
0.0
 11
4515.7679866267690159
 21
323.6174633333740189
 31
0.0
  0
ARC
  5
9E18
  8
0
 10
4515.758718675718228
 20
323.5320169645917758
 30
0.0
 40
0.0859475238429649
 50
4.6549835224762512
 51
83.8096064398095137
  0
LINE
  5
9E19
  8
0
 10
4515.8443826979673759
 20
323.5389920736740805
 30
0.0
 11
4515.8443735528690013
 21
321.1624234784632108
 31
0.0
  0
ARC
  5
9E1A
  8
0
 10
4515.7621392417458992
 20
321.1679533439174179
 30
0.0
 40
0.0824200299533133
 50
278.6135839955026086
 51
356.1529236846291155
  0
LINE
  5
9E1B
  8
0
 10
4515.7744832697680977
 20
321.086462937674014
 30
0.0
 11
4508.6333733449673673
 21
321.0839803859740869
 31
0.0
  0
ARC
  5
9E1C
  8
0
 10
4508.6426354184941374
 20
321.1694210396807989
 30
0.0
 40
0.0859412084614658
 50
184.6514972331646902
 51
263.813091192919785
  0
LINE
  5
9E1D
  8
0
 10
4508.5569772665667188
 20
321.1624516551740953
 30
0.0
 11
4508.5569864051667537
 21
323.5390202205741161
 31
0.0
  0
ARC
  5
9E1E
  8
0
 10
4501.3382817330857506
 20
323.5333422265567833
 30
0.0
 40
0.082590736034968
 50
98.7086293287313197
 51
176.0578882937601861
  0
LINE
  5
9E1F
  8
0
 10
4501.3257766948672725
 20
323.6149807817740793
 30
0.0
 11
4508.466886626766609
 21
323.6174633333740189
 31
0.0
  0
ARC
  5
9E20
  8
0
 10
4508.4576186757185496
 20
323.5320169645917758
 30
0.0
 40
0.0859475238429649
 50
4.6549835224762512
 51
83.8096064398095137
  0
LINE
  5
9E21
  8
0
 10
4508.543282697966788
 20
323.5389920736740805
 30
0.0
 11
4508.5432735528684134
 21
321.1624234784632108
 31
0.0
  0
ARC
  5
9E22
  8
0
 10
4508.4610392417462208
 20
321.1679533439174179
 30
0.0
 40
0.0824200299533133
 50
278.6135839955026086
 51
356.1529236846291155
  0
LINE
  5
9E23
  8
0
 10
4508.4733832697693288
 20
321.086462937674014
 30
0.0
 11
4501.3322733449667794
 21
321.0839803859740869
 31
0.0
  0
ARC
  5
9E24
  8
0
 10
4501.3415354184935495
 20
321.1694210396807989
 30
0.0
 40
0.0859412084614658
 50
184.6514972331646902
 51
263.813091192919785
  0
LINE
  5
9E25
  8
0
 10
4501.2558772665679498
 20
321.1624516551740953
 30
0.0
 11
4501.2558864051679848
 21
323.5390202205741161
 31
0.0
  0
ARC
  5
9E26
  8
0
 10
4497.6877317330845472
 20
320.985292226556794
 30
0.0
 40
0.082590736034968
 50
98.7086293287313197
 51
176.0578882937601861
  0
LINE
  5
9E27
  8
0
 10
4497.675226694867888
 20
321.0669307817740901
 30
0.0
 11
4504.816336626768134
 21
321.0694133333739728
 31
0.0
  0
ARC
  5
9E28
  8
0
 10
4504.8070686757182557
 20
320.9839669645917866
 30
0.0
 40
0.0859475238429649
 50
4.6549835224762512
 51
83.8096064398095137
  0
LINE
  5
9E29
  8
0
 10
4504.8927326979674035
 20
320.9909420736740913
 30
0.0
 11
4504.8927235528681194
 21
318.6143734784631079
 31
0.0
  0
ARC
  5
9E2A
  8
0
 10
4504.8104892417459268
 20
318.6199033439173718
 30
0.0
 40
0.0824200299533133
 50
278.6135839955026086
 51
356.1529236846291155
  0
LINE
  5
9E2B
  8
0
 10
4504.8228332697681253
 20
318.5384129376740248
 30
0.0
 11
4497.681723344967395
 21
318.5359303859740976
 31
0.0
  0
ARC
  5
9E2C
  8
0
 10
4497.6909854184941651
 20
318.621371039680696
 30
0.0
 40
0.0859412084614658
 50
184.6514972331646902
 51
263.813091192919785
  0
LINE
  5
9E2D
  8
0
 10
4497.6053272665676559
 20
318.6144016551739924
 30
0.0
 11
4497.6053364051667813
 21
320.9909702205741269
 31
0.0
  0
ARC
  5
9E2E
  8
0
 10
4504.9888317330851351
 20
320.985292226556794
 30
0.0
 40
0.082590736034968
 50
98.7086293287313197
 51
176.0578882937601861
  0
LINE
  5
9E2F
  8
0
 10
4504.9763266948666569
 20
321.0669307817740901
 30
0.0
 11
4512.1174366267678124
 21
321.0694133333739728
 31
0.0
  0
ARC
  5
9E30
  8
0
 10
4512.1081686757179341
 20
320.9839669645917866
 30
0.0
 40
0.0859475238429649
 50
4.6549835224762512
 51
83.8096064398095137
  0
LINE
  5
9E31
  8
0
 10
4512.1938326979679914
 20
320.9909420736740913
 30
0.0
 11
4512.1938235528677978
 21
318.6143734784631079
 31
0.0
  0
ARC
  5
9E32
  8
0
 10
4512.1115892417456052
 20
318.6199033439173718
 30
0.0
 40
0.0824200299533133
 50
278.6135839955026086
 51
356.1529236846291155
  0
LINE
  5
9E33
  8
0
 10
4512.1239332697678037
 20
318.5384129376740248
 30
0.0
 11
4504.9828233449679828
 21
318.5359303859740976
 31
0.0
  0
ARC
  5
9E34
  8
0
 10
4504.992085418494753
 20
318.621371039680696
 30
0.0
 40
0.0859412084614658
 50
184.6514972331646902
 51
263.813091192919785
  0
LINE
  5
9E35
  8
0
 10
4504.9064272665673343
 20
318.6144016551739924
 30
0.0
 11
4504.9064364051673692
 21
320.9909702205741269
 31
0.0
  0
ARC
  5
9E36
  8
0
 10
4512.2899317330848135
 20
320.985292226556794
 30
0.0
 40
0.082590736034968
 50
98.7086293287313197
 51
176.0578882937601861
  0
LINE
  5
9E37
  8
0
 10
4512.2774266948672448
 20
321.0669307817740901
 30
0.0
 11
4519.4185366267665813
 21
321.0694133333739728
 31
0.0
  0
ARC
  5
9E38
  8
0
 10
4519.4092686757176125
 20
320.9839669645917866
 30
0.0
 40
0.0859475238429649
 50
4.6549835224762512
 51
83.8096064398095137
  0
LINE
  5
9E39
  8
0
 10
4519.4949326979667603
 20
320.9909420736740913
 30
0.0
 11
4519.4949235528683857
 21
318.6143734784631079
 31
0.0
  0
ARC
  5
9E3A
  8
0
 10
4519.4126892417461931
 20
318.6199033439173718
 30
0.0
 40
0.0824200299533133
 50
278.6135839955026086
 51
356.1529236846291155
  0
LINE
  5
9E3B
  8
0
 10
4519.4250332697683916
 20
318.5384129376740248
 30
0.0
 11
4512.2839233449667518
 21
318.5359303859740976
 31
0.0
  0
ARC
  5
9E3C
  8
0
 10
4512.2931854184953409
 20
318.621371039680696
 30
0.0
 40
0.0859412084614658
 50
184.6514972331646902
 51
263.813091192919785
  0
LINE
  5
9E3D
  8
0
 10
4512.2075272665679222
 20
318.6144016551739924
 30
0.0
 11
4512.2075364051679571
 21
320.9909702205741269
 31
0.0
  0
ARC
  5
9E3E
  8
0
 10
4501.3382817330857506
 20
318.4372422265568048
 30
0.0
 40
0.082590736034968
 50
98.7086293287313197
 51
176.0578882937601861
  0
LINE
  5
9E3F
  8
0
 10
4501.3257766948672725
 20
318.5188807817739871
 30
0.0
 11
4508.466886626766609
 21
318.5213633333739836
 31
0.0
  0
ARC
  5
9E40
  8
0
 10
4508.4576186757185496
 20
318.4359169645917973
 30
0.0
 40
0.0859475238429649
 50
4.6549835224762512
 51
83.8096064398095137
  0
LINE
  5
9E41
  8
0
 10
4508.543282697966788
 20
318.442892073674102
 30
0.0
 11
4508.5432735528684134
 21
316.0663234784631186
 31
0.0
  0
ARC
  5
9E42
  8
0
 10
4508.4610392417462208
 20
316.0718533439173825
 30
0.0
 40
0.0824200299533133
 50
278.6135839955026086
 51
356.1529236846291155
  0
LINE
  5
9E43
  8
0
 10
4508.4733832697693288
 20
315.9903629376739786
 30
0.0
 11
4501.3322733449667794
 21
315.9878803859739946
 31
0.0
  0
ARC
  5
9E44
  8
0
 10
4501.3415354184935495
 20
316.0733210396807067
 30
0.0
 40
0.0859412084614658
 50
184.6514972331646902
 51
263.813091192919785
  0
LINE
  5
9E45
  8
0
 10
4501.2558772665679498
 20
316.0663516551740031
 30
0.0
 11
4501.2558864051679848
 21
318.4429202205740239
 31
0.0
  0
ARC
  5
9E46
  8
0
 10
4508.639381733085429
 20
318.4372422265568048
 30
0.0
 40
0.082590736034968
 50
98.7086293287313197
 51
176.0578882937601861
  0
LINE
  5
9E47
  8
0
 10
4508.6268766948678604
 20
318.5188807817739871
 30
0.0
 11
4515.7679866267690159
 21
318.5213633333739836
 31
0.0
  0
ARC
  5
9E48
  8
0
 10
4515.758718675718228
 20
318.4359169645917973
 30
0.0
 40
0.0859475238429649
 50
4.6549835224762512
 51
83.8096064398095137
  0
LINE
  5
9E49
  8
0
 10
4515.8443826979673759
 20
318.442892073674102
 30
0.0
 11
4515.8443735528690013
 21
316.0663234784631186
 31
0.0
  0
ARC
  5
9E4A
  8
0
 10
4515.7621392417458992
 20
316.0718533439173825
 30
0.0
 40
0.0824200299533133
 50
278.6135839955026086
 51
356.1529236846291155
  0
LINE
  5
9E4B
  8
0
 10
4515.7744832697680977
 20
315.9903629376739786
 30
0.0
 11
4508.6333733449673673
 21
315.9878803859739946
 31
0.0
  0
ARC
  5
9E4C
  8
0
 10
4508.6426354184941374
 20
316.0733210396807067
 30
0.0
 40
0.0859412084614658
 50
184.6514972331646902
 51
263.813091192919785
  0
LINE
  5
9E4D
  8
0
 10
4508.5569772665667188
 20
316.0663516551740031
 30
0.0
 11
4508.5569864051667537
 21
318.4429202205740239
 31
0.0
  0
ARC
  5
9E4E
  8
0
 10
4515.9404817330851074
 20
318.4372422265568048
 30
0.0
 40
0.082590736034968
 50
98.7086293287313197
 51
176.0578882937601861
  0
LINE
  5
9E4F
  8
0
 10
4515.9279766948666293
 20
318.5188807817739871
 30
0.0
 11
4523.0690866267677848
 21
318.5213633333739836
 31
0.0
  0
ARC
  5
9E50
  8
0
 10
4523.0598186757179064
 20
318.4359169645917973
 30
0.0
 40
0.0859475238429649
 50
4.6549835224762512
 51
83.8096064398095137
  0
LINE
  5
9E51
  8
0
 10
4523.1454826979679638
 20
318.442892073674102
 30
0.0
 11
4523.1454735528677702
 21
316.0663234784631186
 31
0.0
  0
ARC
  5
9E52
  8
0
 10
4523.0632392417455776
 20
316.0718533439173825
 30
0.0
 40
0.0824200299533133
 50
278.6135839955026086
 51
356.1529236846291155
  0
LINE
  5
9E53
  8
0
 10
4523.0755832697668666
 20
315.9903629376739786
 30
0.0
 11
4515.9344733449679552
 21
315.9878803859739946
 31
0.0
  0
ARC
  5
9E54
  8
0
 10
4515.9437354184938158
 20
316.0733210396807067
 30
0.0
 40
0.0859412084614658
 50
184.6514972331646902
 51
263.813091192919785
  0
LINE
  5
9E55
  8
0
 10
4515.8580772665673067
 20
316.0663516551740031
 30
0.0
 11
4515.8580864051673416
 21
318.4429202205740239
 31
0.0
  0
ARC
  5
9E56
  8
0
 10
4512.2899317330848135
 20
315.8891922265568155
 30
0.0
 40
0.082590736034968
 50
98.7086293287313197
 51
176.0578882937601861
  0
LINE
  5
9E57
  8
0
 10
4512.2774266948672448
 20
315.9708307817741115
 30
0.0
 11
4519.4185366267665813
 21
315.9733133333739943
 31
0.0
  0
ARC
  5
9E58
  8
0
 10
4519.4092686757176125
 20
315.887866964591808
 30
0.0
 40
0.0859475238429649
 50
4.6549835224762512
 51
83.8096064398095137
  0
LINE
  5
9E59
  8
0
 10
4519.4949326979667603
 20
315.8948420736741127
 30
0.0
 11
4519.4949235528683857
 21
313.5182734784630725
 31
0.0
  0
ARC
  5
9E5A
  8
0
 10
4519.4126892417461931
 20
313.5238033439173932
 30
0.0
 40
0.0824200299533133
 50
278.6135839955026086
 51
356.1529236846291155
  0
LINE
  5
9E5B
  8
0
 10
4519.4250332697683916
 20
313.4423129376739894
 30
0.0
 11
4512.2839233449667518
 21
313.4398303859740054
 31
0.0
  0
ARC
  5
9E5C
  8
0
 10
4512.2931854184953409
 20
313.5252710396807174
 30
0.0
 40
0.0859412084614658
 50
184.6514972331646902
 51
263.813091192919785
  0
LINE
  5
9E5D
  8
0
 10
4512.2075272665679222
 20
313.5183016551740138
 30
0.0
 11
4512.2075364051679571
 21
315.8948702205739778
 31
0.0
  0
ARC
  5
9E5E
  8
0
 10
4504.9888317330851351
 20
315.8891922265568155
 30
0.0
 40
0.082590736034968
 50
98.7086293287313197
 51
176.0578882937601861
  0
LINE
  5
9E5F
  8
0
 10
4504.9763266948666569
 20
315.9708307817741115
 30
0.0
 11
4512.1174366267678124
 21
315.9733133333739943
 31
0.0
  0
ARC
  5
9E60
  8
0
 10
4512.1081686757179341
 20
315.887866964591808
 30
0.0
 40
0.0859475238429649
 50
4.6549835224762512
 51
83.8096064398095137
  0
LINE
  5
9E61
  8
0
 10
4512.1938326979679914
 20
315.8948420736741127
 30
0.0
 11
4512.1938235528677978
 21
313.5182734784630725
 31
0.0
  0
ARC
  5
9E62
  8
0
 10
4512.1115892417456052
 20
313.5238033439173932
 30
0.0
 40
0.0824200299533133
 50
278.6135839955026086
 51
356.1529236846291155
  0
LINE
  5
9E63
  8
0
 10
4512.1239332697678037
 20
313.4423129376739894
 30
0.0
 11
4504.9828233449679828
 21
313.4398303859740054
 31
0.0
  0
ARC
  5
9E64
  8
0
 10
4504.992085418494753
 20
313.5252710396807174
 30
0.0
 40
0.0859412084614658
 50
184.6514972331646902
 51
263.813091192919785
  0
LINE
  5
9E65
  8
0
 10
4504.9064272665673343
 20
313.5183016551740138
 30
0.0
 11
4504.9064364051673692
 21
315.8948702205739778
 31
0.0
  0
ARC
  5
9E66
  8
0
 10
4497.6877317330845472
 20
315.8891922265568155
 30
0.0
 40
0.082590736034968
 50
98.7086293287313197
 51
176.0578882937601861
  0
LINE
  5
9E67
  8
0
 10
4497.675226694867888
 20
315.9708307817741115
 30
0.0
 11
4504.816336626768134
 21
315.9733133333739943
 31
0.0
  0
ARC
  5
9E68
  8
0
 10
4504.8070686757182557
 20
315.887866964591808
 30
0.0
 40
0.0859475238429649
 50
4.6549835224762512
 51
83.8096064398095137
  0
LINE
  5
9E69
  8
0
 10
4504.8927326979674035
 20
315.8948420736741127
 30
0.0
 11
4504.8927235528681194
 21
313.5182734784630725
 31
0.0
  0
ARC
  5
9E6A
  8
0
 10
4504.8104892417459268
 20
313.5238033439173932
 30
0.0
 40
0.0824200299533133
 50
278.6135839955026086
 51
356.1529236846291155
  0
LINE
  5
9E6B
  8
0
 10
4504.8228332697681253
 20
313.4423129376739894
 30
0.0
 11
4497.681723344967395
 21
313.4398303859740054
 31
0.0
  0
ARC
  5
9E6C
  8
0
 10
4497.6909854184941651
 20
313.5252710396807174
 30
0.0
 40
0.0859412084614658
 50
184.6514972331646902
 51
263.813091192919785
  0
LINE
  5
9E6D
  8
0
 10
4497.6053272665676559
 20
313.5183016551740138
 30
0.0
 11
4497.6053364051667813
 21
315.8948702205739778
 31
0.0
  0
ARC
  5
9E6E
  8
0
 10
4501.3382817330857506
 20
313.3411422265568262
 30
0.0
 40
0.082590736034968
 50
98.7086293287313197
 51
176.0578882937601861
  0
LINE
  5
9E6F
  8
0
 10
4501.3257766948672725
 20
313.4227807817741223
 30
0.0
 11
4508.466886626766609
 21
313.425263333374005
 31
0.0
  0
ARC
  5
9E70
  8
0
 10
4508.4576186757185496
 20
313.3398169645918188
 30
0.0
 40
0.0859475238429649
 50
4.6549835224762512
 51
83.8096064398095137
  0
LINE
  5
9E71
  8
0
 10
4508.543282697966788
 20
313.3467920736741235
 30
0.0
 11
4508.5432735528684134
 21
310.9702234784630832
 31
0.0
  0
ARC
  5
9E72
  8
0
 10
4508.4610392417462208
 20
310.975753343917404
 30
0.0
 40
0.0824200299533133
 50
278.6135839955026086
 51
356.1529236846291155
  0
LINE
  5
9E73
  8
0
 10
4508.4733832697693288
 20
310.8942629376738864
 30
0.0
 11
4501.3322733449667794
 21
310.8917803859740729
 31
0.0
  0
ARC
  5
9E74
  8
0
 10
4501.3415354184935495
 20
310.9772210396807282
 30
0.0
 40
0.0859412084614658
 50
184.6514972331646902
 51
263.813091192919785
  0
LINE
  5
9E75
  8
0
 10
4501.2558772665679498
 20
310.9702516551740246
 30
0.0
 11
4501.2558864051679848
 21
313.3468202205741022
 31
0.0
  0
ARC
  5
9E76
  8
0
 10
4508.639381733085429
 20
313.3411422265568262
 30
0.0
 40
0.082590736034968
 50
98.7086293287313197
 51
176.0578882937601861
  0
LINE
  5
9E77
  8
0
 10
4508.6268766948678604
 20
313.4227807817741223
 30
0.0
 11
4515.7679866267690159
 21
313.425263333374005
 31
0.0
  0
ARC
  5
9E78
  8
0
 10
4515.758718675718228
 20
313.3398169645918188
 30
0.0
 40
0.0859475238429649
 50
4.6549835224762512
 51
83.8096064398095137
  0
LINE
  5
9E79
  8
0
 10
4515.8443826979673759
 20
313.3467920736741235
 30
0.0
 11
4515.8443735528690013
 21
310.9702234784630832
 31
0.0
  0
ARC
  5
9E7A
  8
0
 10
4515.7621392417458992
 20
310.975753343917404
 30
0.0
 40
0.0824200299533133
 50
278.6135839955026086
 51
356.1529236846291155
  0
LINE
  5
9E7B
  8
0
 10
4515.7744832697680977
 20
310.8942629376738864
 30
0.0
 11
4508.6333733449673673
 21
310.8917803859740729
 31
0.0
  0
ARC
  5
9E7C
  8
0
 10
4508.6426354184941374
 20
310.9772210396807282
 30
0.0
 40
0.0859412084614658
 50
184.6514972331646902
 51
263.813091192919785
  0
LINE
  5
9E7D
  8
0
 10
4508.5569772665667188
 20
310.9702516551740246
 30
0.0
 11
4508.5569864051667537
 21
313.3468202205741022
 31
0.0
  0
ARC
  5
9E7E
  8
0
 10
4515.9404817330851074
 20
313.3411422265568262
 30
0.0
 40
0.082590736034968
 50
98.7086293287313197
 51
176.0578882937601861
  0
LINE
  5
9E7F
  8
0
 10
4515.9279766948666293
 20
313.4227807817741223
 30
0.0
 11
4523.0690866267677848
 21
313.425263333374005
 31
0.0
  0
ARC
  5
9E80
  8
0
 10
4523.0598186757179064
 20
313.3398169645918188
 30
0.0
 40
0.0859475238429649
 50
4.6549835224762512
 51
83.8096064398095137
  0
LINE
  5
9E81
  8
0
 10
4523.1454826979679638
 20
313.3467920736741235
 30
0.0
 11
4523.1454735528677702
 21
310.9702234784630832
 31
0.0
  0
ARC
  5
9E82
  8
0
 10
4523.0632392417455776
 20
310.975753343917404
 30
0.0
 40
0.0824200299533133
 50
278.6135839955026086
 51
356.1529236846291155
  0
LINE
  5
9E83
  8
0
 10
4523.0755832697668666
 20
310.8942629376738864
 30
0.0
 11
4515.9344733449679552
 21
310.8917803859740729
 31
0.0
  0
ARC
  5
9E84
  8
0
 10
4515.9437354184938158
 20
310.9772210396807282
 30
0.0
 40
0.0859412084614658
 50
184.6514972331646902
 51
263.813091192919785
  0
LINE
  5
9E85
  8
0
 10
4515.8580772665673067
 20
310.9702516551740246
 30
0.0
 11
4515.8580864051673416
 21
313.3468202205741022
 31
0.0
  0
ARC
  5
9E86
  8
0
 10
4512.2899317330848135
 20
310.7930922265567801
 30
0.0
 40
0.082590736034968
 50
98.7086293287313197
 51
176.0578882937601861
  0
LINE
  5
9E87
  8
0
 10
4512.2774266948672448
 20
310.8747307817740193
 30
0.0
 11
4519.4185366267665813
 21
310.8772133333740157
 31
0.0
  0
ARC
  5
9E88
  8
0
 10
4519.4092686757176125
 20
310.7917669645917726
 30
0.0
 40
0.0859475238429649
 50
4.6549835224762512
 51
83.8096064398095137
  0
LINE
  5
9E89
  8
0
 10
4519.4949326979667603
 20
310.7987420736740773
 30
0.0
 11
4519.4949235528683857
 21
308.4221734784632076
 31
0.0
  0
ARC
  5
9E8A
  8
0
 10
4519.4126892417461931
 20
308.4277033439174147
 30
0.0
 40
0.0824200299533133
 50
278.6135839955026086
 51
356.1529236846291155
  0
LINE
  5
9E8B
  8
0
 10
4519.4250332697683916
 20
308.3462129376738972
 30
0.0
 11
4512.2839233449667518
 21
308.3437303859740268
 31
0.0
  0
ARC
  5
9E8C
  8
0
 10
4512.2931854184953409
 20
308.429171039680682
 30
0.0
 40
0.0859412084614658
 50
184.6514972331646902
 51
263.813091192919785
  0
LINE
  5
9E8D
  8
0
 10
4512.2075272665679222
 20
308.4222016551739785
 30
0.0
 11
4512.2075364051679571
 21
310.798770220574113
 31
0.0
  0
ARC
  5
9E8E
  8
0
 10
4504.9888317330851351
 20
310.7930922265567801
 30
0.0
 40
0.082590736034968
 50
98.7086293287313197
 51
176.0578882937601861
  0
LINE
  5
9E8F
  8
0
 10
4504.9763266948666569
 20
310.8747307817740193
 30
0.0
 11
4512.1174366267678124
 21
310.8772133333740157
 31
0.0
  0
ARC
  5
9E90
  8
0
 10
4512.1081686757179341
 20
310.7917669645917726
 30
0.0
 40
0.0859475238429649
 50
4.6549835224762512
 51
83.8096064398095137
  0
LINE
  5
9E91
  8
0
 10
4512.1938326979679914
 20
310.7987420736740773
 30
0.0
 11
4512.1938235528677978
 21
308.4221734784632076
 31
0.0
  0
ARC
  5
9E92
  8
0
 10
4512.1115892417456052
 20
308.4277033439174147
 30
0.0
 40
0.0824200299533133
 50
278.6135839955026086
 51
356.1529236846291155
  0
LINE
  5
9E93
  8
0
 10
4512.1239332697678037
 20
308.3462129376738972
 30
0.0
 11
4504.9828233449679828
 21
308.3437303859740268
 31
0.0
  0
ARC
  5
9E94
  8
0
 10
4504.992085418494753
 20
308.429171039680682
 30
0.0
 40
0.0859412084614658
 50
184.6514972331646902
 51
263.813091192919785
  0
LINE
  5
9E95
  8
0
 10
4504.9064272665673343
 20
308.4222016551739785
 30
0.0
 11
4504.9064364051673692
 21
310.798770220574113
 31
0.0
  0
ARC
  5
9E96
  8
0
 10
4497.6877317330845472
 20
310.7930922265567801
 30
0.0
 40
0.082590736034968
 50
98.7086293287313197
 51
176.0578882937601861
  0
LINE
  5
9E97
  8
0
 10
4497.675226694867888
 20
310.8747307817740193
 30
0.0
 11
4504.816336626768134
 21
310.8772133333740157
 31
0.0
  0
ARC
  5
9E98
  8
0
 10
4504.8070686757182557
 20
310.7917669645917726
 30
0.0
 40
0.0859475238429649
 50
4.6549835224762512
 51
83.8096064398095137
  0
LINE
  5
9E99
  8
0
 10
4504.8927326979674035
 20
310.7987420736740773
 30
0.0
 11
4504.8927235528681194
 21
308.4221734784632076
 31
0.0
  0
ARC
  5
9E9A
  8
0
 10
4504.8104892417459268
 20
308.4277033439174147
 30
0.0
 40
0.0824200299533133
 50
278.6135839955026086
 51
356.1529236846291155
  0
LINE
  5
9E9B
  8
0
 10
4504.8228332697681253
 20
308.3462129376738972
 30
0.0
 11
4497.681723344967395
 21
308.3437303859740268
 31
0.0
  0
ARC
  5
9E9C
  8
0
 10
4497.6909854184941651
 20
308.429171039680682
 30
0.0
 40
0.0859412084614658
 50
184.6514972331646902
 51
263.813091192919785
  0
LINE
  5
9E9D
  8
0
 10
4497.6053272665676559
 20
308.4222016551739785
 30
0.0
 11
4497.6053364051667813
 21
310.798770220574113
 31
0.0
  0
ARC
  5
9E9E
  8
0
 10
4501.3382817330857506
 20
308.2450422265567909
 30
0.0
 40
0.082590736034968
 50
98.7086293287313197
 51
176.0578882937601861
  0
LINE
  5
9E9F
  8
0
 10
4501.3257766948672725
 20
308.3266807817739732
 30
0.0
 11
4508.466886626766609
 21
308.3291633333740265
 31
0.0
  0
ARC
  5
9EA0
  8
0
 10
4508.4576186757185496
 20
308.2437169645917834
 30
0.0
 40
0.0859475238429649
 50
4.6549835224762512
 51
83.8096064398095137
  0
LINE
  5
9EA1
  8
0
 10
4508.543282697966788
 20
308.2506920736740881
 30
0.0
 11
4508.5432735528684134
 21
305.8741234784632184
 31
0.0
  0
ARC
  5
9EA2
  8
0
 10
4508.4610392417462208
 20
305.8796533439174254
 30
0.0
 40
0.0824200299533133
 50
278.6135839955026086
 51
356.1529236846291155
  0
LINE
  5
9EA3
  8
0
 10
4508.4733832697693288
 20
305.7981629376740216
 30
0.0
 11
4501.3322733449667794
 21
305.7956803859739807
 31
0.0
  0
ARC
  5
9EA4
  8
0
 10
4501.3415354184935495
 20
305.8811210396806928
 30
0.0
 40
0.0859412084614658
 50
184.6514972331646902
 51
263.813091192919785
  0
LINE
  5
9EA5
  8
0
 10
4501.2558772665679498
 20
305.8741516551739892
 30
0.0
 11
4501.2558864051679848
 21
308.2507202205741237
 31
0.0
  0
ARC
  5
9EA6
  8
0
 10
4508.639381733085429
 20
308.2450422265567909
 30
0.0
 40
0.082590736034968
 50
98.7086293287313197
 51
176.0578882937601861
  0
LINE
  5
9EA7
  8
0
 10
4508.6268766948678604
 20
308.3266807817739732
 30
0.0
 11
4515.7679866267690159
 21
308.3291633333740265
 31
0.0
  0
ARC
  5
9EA8
  8
0
 10
4515.758718675718228
 20
308.2437169645917834
 30
0.0
 40
0.0859475238429649
 50
4.6549835224762512
 51
83.8096064398095137
  0
LINE
  5
9EA9
  8
0
 10
4515.8443826979673759
 20
308.2506920736740881
 30
0.0
 11
4515.8443735528690013
 21
305.8741234784632184
 31
0.0
  0
ARC
  5
9EAA
  8
0
 10
4515.7621392417458992
 20
305.8796533439174254
 30
0.0
 40
0.0824200299533133
 50
278.6135839955026086
 51
356.1529236846291155
  0
LINE
  5
9EAB
  8
0
 10
4515.7744832697680977
 20
305.7981629376740216
 30
0.0
 11
4508.6333733449673673
 21
305.7956803859739807
 31
0.0
  0
ARC
  5
9EAC
  8
0
 10
4508.6426354184941374
 20
305.8811210396806928
 30
0.0
 40
0.0859412084614658
 50
184.6514972331646902
 51
263.813091192919785
  0
LINE
  5
9EAD
  8
0
 10
4508.5569772665667188
 20
305.8741516551739892
 30
0.0
 11
4508.5569864051667537
 21
308.2507202205741237
 31
0.0
  0
ARC
  5
9EAE
  8
0
 10
4515.9404817330851074
 20
308.2450422265567909
 30
0.0
 40
0.082590736034968
 50
98.7086293287313197
 51
176.0578882937601861
  0
LINE
  5
9EAF
  8
0
 10
4515.9279766948666293
 20
308.3266807817739732
 30
0.0
 11
4523.0690866267677848
 21
308.3291633333740265
 31
0.0
  0
ARC
  5
9EB0
  8
0
 10
4523.0598186757179064
 20
308.2437169645917834
 30
0.0
 40
0.0859475238429649
 50
4.6549835224762512
 51
83.8096064398095137
  0
LINE
  5
9EB1
  8
0
 10
4523.1454826979679638
 20
308.2506920736740881
 30
0.0
 11
4523.1454735528677702
 21
305.8741234784632184
 31
0.0
  0
ARC
  5
9EB2
  8
0
 10
4523.0632392417455776
 20
305.8796533439174254
 30
0.0
 40
0.0824200299533133
 50
278.6135839955026086
 51
356.1529236846291155
  0
LINE
  5
9EB3
  8
0
 10
4523.0755832697668666
 20
305.7981629376740216
 30
0.0
 11
4515.9344733449679552
 21
305.7956803859739807
 31
0.0
  0
ARC
  5
9EB4
  8
0
 10
4515.9437354184938158
 20
305.8811210396806928
 30
0.0
 40
0.0859412084614658
 50
184.6514972331646902
 51
263.813091192919785
  0
LINE
  5
9EB5
  8
0
 10
4515.8580772665673067
 20
305.8741516551739892
 30
0.0
 11
4515.8580864051673416
 21
308.2507202205741237
 31
0.0
  0
ARC
  5
9EB6
  8
0
 10
4512.2902558253617826
 20
305.6969263821018785
 30
0.0
 40
0.082590736034968
 50
98.7086293287313197
 51
176.0578882937601861
  0
LINE
  5
9EB7
  8
0
 10
4512.277750787144214
 20
305.7785649373191177
 30
0.0
 11
4519.4188607190453695
 21
305.7810474889190004
 31
0.0
  0
ARC
  5
9EB8
  8
0
 10
4519.4095927679945817
 20
305.6956011201368142
 30
0.0
 40
0.0859475238429649
 50
4.6549835224762512
 51
83.8096064398095137
  0
LINE
  5
9EB9
  8
0
 10
4519.4952567902437295
 20
305.7025762292191189
 30
0.0
 11
4519.4952476451453549
 21
303.3260076340081923
 31
0.0
  0
ARC
  5
9EBA
  8
0
 10
4519.4130133340222528
 20
303.3315374994623994
 30
0.0
 40
0.0824200299533133
 50
278.6135839955026086
 51
356.1529236846291155
  0
LINE
  5
9EBB
  8
0
 10
4519.4253573620444513
 20
303.2500470932189955
 30
0.0
 11
4512.2842474372446304
 21
303.2475645415191252
 31
0.0
  0
ARC
  5
9EBC
  8
0
 10
4512.2935095107714005
 20
303.3330051952257236
 30
0.0
 40
0.0859412084614658
 50
184.6514972331646902
 51
263.813091192919785
  0
LINE
  5
9EBD
  8
0
 10
4512.2078513588430724
 20
303.3260358107190768
 30
0.0
 11
4512.2078604974440168
 21
305.7026043761190977
 31
0.0
  0
ARC
  5
9EBE
  8
0
 10
4504.9888317330851351
 20
305.6969922265569153
 30
0.0
 40
0.082590736034968
 50
98.7086293287313197
 51
176.0578882937601861
  0
LINE
  5
9EBF
  8
0
 10
4504.9763266948666569
 20
305.7786307817739839
 30
0.0
 11
4512.1174366267678124
 21
305.7811133333739804
 31
0.0
  0
ARC
  5
9EC0
  8
0
 10
4512.1081686757179341
 20
305.6956669645916804
 30
0.0
 40
0.0859475238429649
 50
4.6549835224762512
 51
83.8096064398095137
  0
LINE
  5
9EC1
  8
0
 10
4512.1938326979679914
 20
305.7026420736740988
 30
0.0
 11
4512.1938235528677978
 21
303.3260734784631723
 31
0.0
  0
ARC
  5
9EC2
  8
0
 10
4512.1115892417456052
 20
303.3316033439173793
 30
0.0
 40
0.0824200299533133
 50
278.6135839955026086
 51
356.1529236846291155
  0
LINE
  5
9EC3
  8
0
 10
4512.1239332697678037
 20
303.2501129376739755
 30
0.0
 11
4504.9828233449679828
 21
303.2476303859739915
 31
0.0
  0
ARC
  5
9EC4
  8
0
 10
4504.992085418494753
 20
303.3330710396807035
 30
0.0
 40
0.0859412084614658
 50
184.6514972331646902
 51
263.813091192919785
  0
LINE
  5
9EC5
  8
0
 10
4504.9064272665673343
 20
303.3261016551741136
 30
0.0
 11
4504.9064364051673692
 21
305.7026702205740776
 31
0.0
  0
ARC
  5
9EC6
  8
0
 10
4497.6877317330845472
 20
305.6969922265569153
 30
0.0
 40
0.082590736034968
 50
98.7086293287313197
 51
176.0578882937601861
  0
LINE
  5
9EC7
  8
0
 10
4497.675226694867888
 20
305.7786307817739839
 30
0.0
 11
4504.816336626768134
 21
305.7811133333739804
 31
0.0
  0
ARC
  5
9EC8
  8
0
 10
4504.8070686757182557
 20
305.6956669645916804
 30
0.0
 40
0.0859475238429649
 50
4.6549835224762512
 51
83.8096064398095137
  0
LINE
  5
9EC9
  8
0
 10
4504.8927326979674035
 20
305.7026420736740988
 30
0.0
 11
4504.8927235528681194
 21
303.3260734784631723
 31
0.0
  0
ARC
  5
9ECA
  8
0
 10
4504.8104892417459268
 20
303.3316033439173793
 30
0.0
 40
0.0824200299533133
 50
278.6135839955026086
 51
356.1529236846291155
  0
LINE
  5
9ECB
  8
0
 10
4504.8228332697681253
 20
303.2501129376739755
 30
0.0
 11
4497.681723344967395
 21
303.2476303859739915
 31
0.0
  0
ARC
  5
9ECC
  8
0
 10
4497.6909854184941651
 20
303.3330710396807035
 30
0.0
 40
0.0859412084614658
 50
184.6514972331646902
 51
263.813091192919785
  0
LINE
  5
9ECD
  8
0
 10
4497.6053272665676559
 20
303.3261016551741136
 30
0.0
 11
4497.6053364051667813
 21
305.7026702205740776
 31
0.0
  0
ARC
  5
9ECE
  8
0
 10
4501.3382817330857506
 20
303.1489422265568123
 30
0.0
 40
0.082590736034968
 50
98.7086293287313197
 51
176.0578882937601861
  0
LINE
  5
9ECF
  8
0
 10
4501.3257766948672725
 20
303.2305807817741083
 30
0.0
 11
4508.466886626766609
 21
303.2330633333739911
 31
0.0
  0
ARC
  5
9ED0
  8
0
 10
4508.4576186757185496
 20
303.1476169645916912
 30
0.0
 40
0.0859475238429649
 50
4.6549835224762512
 51
83.8096064398095137
  0
LINE
  5
9ED1
  8
0
 10
4508.543282697966788
 20
303.1545920736741095
 30
0.0
 11
4508.5432735528684134
 21
300.778023478463183
 31
0.0
  0
ARC
  5
9ED2
  8
0
 10
4508.4610392417462208
 20
300.7835533439173901
 30
0.0
 40
0.0824200299533133
 50
278.6135839955026086
 51
356.1529236846291155
  0
LINE
  5
9ED3
  8
0
 10
4508.4733832697693288
 20
300.7020629376739862
 30
0.0
 11
4501.3322733449667794
 21
300.6995803859741159
 31
0.0
  0
ARC
  5
9ED4
  8
0
 10
4501.3415354184935495
 20
300.7850210396807142
 30
0.0
 40
0.0859412084614658
 50
184.6514972331646902
 51
263.813091192919785
  0
LINE
  5
9ED5
  8
0
 10
4501.2558772665679498
 20
300.7780516551741243
 30
0.0
 11
4501.2558864051679848
 21
303.1546202205740883
 31
0.0
  0
ARC
  5
9ED6
  8
0
 10
4508.639381733085429
 20
303.1489422265568123
 30
0.0
 40
0.082590736034968
 50
98.7086293287313197
 51
176.0578882937601861
  0
LINE
  5
9ED7
  8
0
 10
4508.6268766948678604
 20
303.2305807817741083
 30
0.0
 11
4515.7679866267690159
 21
303.2330633333739911
 31
0.0
  0
ARC
  5
9ED8
  8
0
 10
4515.758718675718228
 20
303.1476169645916912
 30
0.0
 40
0.0859475238429649
 50
4.6549835224762512
 51
83.8096064398095137
  0
LINE
  5
9ED9
  8
0
 10
4515.8443826979673759
 20
303.1545920736741095
 30
0.0
 11
4515.8443735528690013
 21
300.778023478463183
 31
0.0
  0
ARC
  5
9EDA
  8
0
 10
4515.7621392417458992
 20
300.7835533439173901
 30
0.0
 40
0.0824200299533133
 50
278.6135839955026086
 51
356.1529236846291155
  0
LINE
  5
9EDB
  8
0
 10
4515.7744832697680977
 20
300.7020629376739862
 30
0.0
 11
4508.6333733449673673
 21
300.6995803859741159
 31
0.0
  0
ARC
  5
9EDC
  8
0
 10
4508.6426354184941374
 20
300.7850210396807142
 30
0.0
 40
0.0859412084614658
 50
184.6514972331646902
 51
263.813091192919785
  0
LINE
  5
9EDD
  8
0
 10
4508.5569772665667188
 20
300.7780516551741243
 30
0.0
 11
4508.5569864051667537
 21
303.1546202205740883
 31
0.0
  0
ARC
  5
9EDE
  8
0
 10
4515.9404817330851074
 20
303.1489422265568123
 30
0.0
 40
0.082590736034968
 50
98.7086293287313197
 51
176.0578882937601861
  0
LINE
  5
9EDF
  8
0
 10
4515.9279766948666293
 20
303.2305807817741083
 30
0.0
 11
4523.0690866267677848
 21
303.2330633333739911
 31
0.0
  0
ARC
  5
9EE0
  8
0
 10
4523.0598186757179064
 20
303.1476169645916912
 30
0.0
 40
0.0859475238429649
 50
4.6549835224762512
 51
83.8096064398095137
  0
LINE
  5
9EE1
  8
0
 10
4523.1454826979679638
 20
303.1545920736741095
 30
0.0
 11
4523.1454735528677702
 21
300.778023478463183
 31
0.0
  0
ARC
  5
9EE2
  8
0
 10
4523.0632392417455776
 20
300.7835533439173901
 30
0.0
 40
0.0824200299533133
 50
278.6135839955026086
 51
356.1529236846291155
  0
LINE
  5
9EE3
  8
0
 10
4523.0755832697668666
 20
300.7020629376739862
 30
0.0
 11
4515.9344733449679552
 21
300.6995803859741159
 31
0.0
  0
ARC
  5
9EE4
  8
0
 10
4515.9437354184938158
 20
300.7850210396807142
 30
0.0
 40
0.0859412084614658
 50
184.6514972331646902
 51
263.813091192919785
  0
LINE
  5
9EE5
  8
0
 10
4515.8580772665673067
 20
300.7780516551741243
 30
0.0
 11
4515.8580864051673416
 21
303.1546202205740883
 31
0.0
  0
ARC
  5
9EE6
  8
0
 10
4512.2899317330848135
 20
300.6008922265568231
 30
0.0
 40
0.082590736034968
 50
98.7086293287313197
 51
176.0578882937601861
  0
LINE
  5
9EE7
  8
0
 10
4512.2774266948672448
 20
300.6825307817741191
 30
0.0
 11
4519.4185366267665813
 21
300.6850133333740018
 31
0.0
  0
ARC
  5
9EE8
  8
0
 10
4519.4092686757176125
 20
300.5995669645918156
 30
0.0
 40
0.0859475238429649
 50
4.6549835224762512
 51
83.8096064398095137
  0
LINE
  5
9EE9
  8
0
 10
4519.4949326979667603
 20
300.6065420736740066
 30
0.0
 11
4519.4949235528683857
 21
298.2299734784631937
 31
0.0
  0
ARC
  5
9EEA
  8
0
 10
4519.4126892417461931
 20
298.2355033439172871
 30
0.0
 40
0.0824200299533133
 50
278.6135839955026086
 51
356.1529236846291155
  0
LINE
  5
9EEB
  8
0
 10
4519.4250332697683916
 20
298.1540129376739969
 30
0.0
 11
4512.2839233449667518
 21
298.1515303859741266
 31
0.0
  0
ARC
  5
9EEC
  8
0
 10
4512.2931854184953409
 20
298.236971039680725
 30
0.0
 40
0.0859412084614658
 50
184.6514972331646902
 51
263.813091192919785
  0
LINE
  5
9EED
  8
0
 10
4512.2075272665679222
 20
298.2300016551740782
 30
0.0
 11
4512.2075364051679571
 21
300.606570220574099
 31
0.0
  0
ARC
  5
9EEE
  8
0
 10
4504.9888317330851351
 20
300.6008922265568231
 30
0.0
 40
0.082590736034968
 50
98.7086293287313197
 51
176.0578882937601861
  0
LINE
  5
9EEF
  8
0
 10
4504.9763266948666569
 20
300.6825307817741191
 30
0.0
 11
4512.1174366267678124
 21
300.6850133333740018
 31
0.0
  0
ARC
  5
9EF0
  8
0
 10
4512.1081686757179341
 20
300.5995669645918156
 30
0.0
 40
0.0859475238429649
 50
4.6549835224762512
 51
83.8096064398095137
  0
LINE
  5
9EF1
  8
0
 10
4512.1938326979679914
 20
300.6065420736740066
 30
0.0
 11
4512.1938235528677978
 21
298.2299734784631937
 31
0.0
  0
ARC
  5
9EF2
  8
0
 10
4512.1115892417456052
 20
298.2355033439172871
 30
0.0
 40
0.0824200299533133
 50
278.6135839955026086
 51
356.1529236846291155
  0
LINE
  5
9EF3
  8
0
 10
4512.1239332697678037
 20
298.1540129376739969
 30
0.0
 11
4504.9828233449679828
 21
298.1515303859741266
 31
0.0
  0
ARC
  5
9EF4
  8
0
 10
4504.992085418494753
 20
298.236971039680725
 30
0.0
 40
0.0859412084614658
 50
184.6514972331646902
 51
263.813091192919785
  0
LINE
  5
9EF5
  8
0
 10
4504.9064272665673343
 20
298.2300016551740782
 30
0.0
 11
4504.9064364051673692
 21
300.606570220574099
 31
0.0
  0
ARC
  5
9EF6
  8
0
 10
4497.6877317330845472
 20
300.6008922265568231
 30
0.0
 40
0.082590736034968
 50
98.7086293287313197
 51
176.0578882937601861
  0
LINE
  5
9EF7
  8
0
 10
4497.675226694867888
 20
300.6825307817741191
 30
0.0
 11
4504.816336626768134
 21
300.6850133333740018
 31
0.0
  0
ARC
  5
9EF8
  8
0
 10
4504.8070686757182557
 20
300.5995669645918156
 30
0.0
 40
0.0859475238429649
 50
4.6549835224762512
 51
83.8096064398095137
  0
LINE
  5
9EF9
  8
0
 10
4504.8927326979674035
 20
300.6065420736740066
 30
0.0
 11
4504.8927235528681194
 21
298.2299734784631937
 31
0.0
  0
ARC
  5
9EFA
  8
0
 10
4504.8104892417459268
 20
298.2355033439172871
 30
0.0
 40
0.0824200299533133
 50
278.6135839955026086
 51
356.1529236846291155
  0
LINE
  5
9EFB
  8
0
 10
4504.8228332697681253
 20
298.1540129376739969
 30
0.0
 11
4497.681723344967395
 21
298.1515303859741266
 31
0.0
  0
ARC
  5
9EFC
  8
0
 10
4497.6909854184941651
 20
298.236971039680725
 30
0.0
 40
0.0859412084614658
 50
184.6514972331646902
 51
263.813091192919785
  0
LINE
  5
9EFD
  8
0
 10
4497.6053272665676559
 20
298.2300016551740782
 30
0.0
 11
4497.6053364051667813
 21
300.606570220574099
 31
0.0
  0
ARC
  5
9EFE
  8
0
 10
4527.84541826597615
 20
318.1319580340870061
 30
0.0
 40
1.6165649126030699
 50
166.0368440684451912
 51
178.7003171073758097
  0
LINE
  5
9EFF
  8
0
 10
4526.2292692391529272
 20
318.1686246368155935
 30
0.0
 11
4526.2292692384680777
 21
316.3406218596747976
 31
0.0
  0
ARC
  5
9F00
  8
0
 10
4527.8470630450619865
 20
316.3775057789000016
 30
0.0
 40
1.618214208364283
 50
181.3060544878989901
 51
193.9566661938889069
  0
ARC
  5
9F01
  8
0
 10
4523.239344899486241
 20
318.4423937589060074
 30
0.0
 40
0.0796300539901669
 50
89.0823246575048557
 51
183.0096542621313063
  0
LINE
  5
9F02
  8
0
 10
4523.240620236229006
 20
318.5220135994903217
 30
0.0
 11
4526.2766210786667216
 21
318.5220317473153955
 31
0.0
  0
LINE
  5
9F03
  8
0
 10
4526.2766210792824495
 20
315.9872119712749736
 30
0.0
 11
4523.24076847991455
 21
315.987077993833509
 31
0.0
  0
ARC
  5
9F04
  8
0
 10
4523.2395290208078222
 20
316.0669478442428044
 30
0.0
 40
0.0798794670943839
 50
177.007755957310394
 51
270.8890723521359973
  0
LINE
  5
9F05
  8
0
 10
4523.1597584605669908
 20
316.0711176142747831
 30
0.0
 11
4523.159824679067242
 21
318.4382128447749096
 31
0.0
  0
ARC
  5
9F06
  8
0
 10
4523.239344899486241
 20
313.3462937589061994
 30
0.0
 40
0.0796300539901669
 50
89.0823246575048557
 51
183.0096542621313063
  0
LINE
  5
9F07
  8
0
 10
4523.240620236229006
 20
313.4259135994905137
 30
0.0
 11
4526.2766210786667216
 21
313.4259317473154738
 31
0.0
  0
LINE
  5
9F08
  8
0
 10
4526.2766210792824495
 20
310.8911119712752225
 30
0.0
 11
4523.24076847991455
 21
310.890977993833701
 31
0.0
  0
ARC
  5
9F09
  8
0
 10
4523.2395290208078222
 20
310.9708478442429964
 30
0.0
 40
0.0798794670943839
 50
177.007755957310394
 51
270.8890723521359973
  0
LINE
  5
9F0A
  8
0
 10
4523.1597584605669908
 20
310.9750176142749751
 30
0.0
 11
4523.159824679067242
 21
313.3421128447749879
 31
0.0
  0
ARC
  5
9F0B
  8
0
 10
4527.845406372758589
 20
307.9397580331959716
 30
0.0
 40
1.6165649126030699
 50
166.0368440684451912
 51
178.7003171073758097
  0
LINE
  5
9F0C
  8
0
 10
4526.2292573459353662
 20
307.9764246359246158
 30
0.0
 11
4526.2292573452496072
 21
306.1484218587838768
 31
0.0
  0
ARC
  5
9F0D
  8
0
 10
4527.847051151845335
 20
306.1853057780090239
 30
0.0
 40
1.618214208364283
 50
181.3060544878989901
 51
193.9566661938889069
  0
ARC
  5
9F0E
  8
0
 10
4523.23933300626868
 20
308.2501937580149729
 30
0.0
 40
0.0796300539901669
 50
89.0823246575048557
 51
183.0096542621313063
  0
LINE
  5
9F0F
  8
0
 10
4523.2406083430132639
 20
308.3298135985992872
 30
0.0
 11
4526.2766091854500701
 21
308.3298317464244178
 31
0.0
  0
LINE
  5
9F10
  8
0
 10
4526.276609186065798
 20
305.795011970383996
 30
0.0
 11
4523.240756586696989
 21
305.7948779929424745
 31
0.0
  0
ARC
  5
9F11
  8
0
 10
4523.2395171275911707
 20
305.8747478433518268
 30
0.0
 40
0.0798794670943839
 50
177.007755957310394
 51
270.8890723521359973
  0
LINE
  5
9F12
  8
0
 10
4523.1597465673503393
 20
305.8789176133838055
 30
0.0
 11
4523.1598127858496809
 21
308.2460128438838183
 31
0.0
  0
ARC
  5
9F13
  8
0
 10
4527.8454185912523826
 20
302.8436579916236724
 30
0.0
 40
1.616565238696688
 50
166.0368453636465915
 51
178.7003164681044041
  0
LINE
  5
9F14
  8
0
 10
4526.2292692388273281
 20
302.8803246197805947
 30
0.0
 11
4526.2292692381415691
 21
301.0523218426399126
 31
0.0
  0
ARC
  5
9F15
  8
0
 10
4527.8470626806520158
 20
301.0892057334110063
 30
0.0
 40
1.6182138437253071
 50
181.3060537745205067
 51
193.9566677405130974
  0
ARC
  5
9F16
  8
0
 10
4523.239344929795152
 20
303.1540937316448776
 30
0.0
 40
0.0796300831407492
 50
89.0823468040049704
 51
183.0096337336011914
  0
LINE
  5
9F17
  8
0
 10
4523.240620236229006
 20
303.2337136018689989
 30
0.0
 11
4526.2766210786667216
 21
303.2337317480740921
 31
0.0
  0
LINE
  5
9F18
  8
0
 10
4526.2766210792824495
 20
300.6989119713406922
 30
0.0
 11
4523.2407709269436964
 21
300.6987779551307085
 31
0.0
  0
ARC
  5
9F19
  8
0
 10
4523.2395285158700062
 20
300.778646418643973
 30
0.0
 40
0.0798781262253188
 50
177.0066720221043113
 51
270.8912049506047879
  0
LINE
  5
9F1A
  8
0
 10
4523.1597593735668852
 20
300.7828176277740795
 30
0.0
 11
4523.1598246787680182
 21
303.1499128444746134
 31
0.0
  0
ARC
  5
9F1B
  8
0
 10
4519.5910317330863109
 20
320.985292226556794
 30
0.0
 40
0.082590736034968
 50
98.7086293287313197
 51
176.0578882937601861
  0
LINE
  5
9F1C
  8
0
 10
4519.5785266948678327
 20
321.0669307817740901
 30
0.0
 11
4526.2766210762929404
 21
321.0692593224464986
 31
0.0
  0
LINE
  5
9F1D
  8
0
 10
4526.2766210786667216
 20
318.5382566682333163
 30
0.0
 11
4519.5850233449682491
 21
318.5359303859740976
 31
0.0
  0
ARC
  5
9F1E
  8
0
 10
4519.5942854184941098
 20
318.6213710396808096
 30
0.0
 40
0.0859412084614658
 50
184.6514972331646902
 51
263.813091192919785
  0
LINE
  5
9F1F
  8
0
 10
4519.5086272665666911
 20
318.6144016551741061
 30
0.0
 11
4519.508636405166726
 21
320.9909702205741269
 31
0.0
  0
ARC
  5
9F20
  8
0
 10
4527.7428425526250066
 20
318.9080410499802269
 30
0.0
 40
1.4985765344588109
 50
180.7402684163818947
 51
191.0635674596531999
  0
LINE
  5
9F21
  8
0
 10
4526.2443910947658878
 20
318.8886797981771792
 30
0.0
 11
4526.2444020285347506
 21
320.7166862787274226
 31
0.0
  0
ARC
  5
9F22
  8
0
 10
4527.7706180559025597
 20
320.6946364918997006
 30
0.0
 40
1.526360408779335
 50
169.0840592185888056
 51
179.1728408020861139
  0
ARC
  5
9F23
  8
0
 10
4519.5910317330863109
 20
315.8891922265568155
 30
0.0
 40
0.082590736034968
 50
98.7086293287313197
 51
176.0578882937601861
  0
LINE
  5
9F24
  8
0
 10
4519.5785266948678327
 20
315.9708307817741115
 30
0.0
 11
4526.2766210791678532
 21
315.9731593224476001
 31
0.0
  0
LINE
  5
9F25
  8
0
 10
4526.2766210791469348
 20
313.4421566682333946
 30
0.0
 11
4519.5850233449682491
 21
313.4398303859741191
 31
0.0
  0
ARC
  5
9F26
  8
0
 10
4519.5942854184941098
 20
313.5252710396807174
 30
0.0
 40
0.0859412084614658
 50
184.6514972331646902
 51
263.813091192919785
  0
LINE
  5
9F27
  8
0
 10
4519.5086272665666911
 20
313.5183016551741275
 30
0.0
 11
4519.508636405166726
 21
315.8948702205739778
 31
0.0
  0
ARC
  5
9F28
  8
0
 10
4527.7428425526250066
 20
313.8119410499801916
 30
0.0
 40
1.4985765344588109
 50
180.7402684163818947
 51
191.0635674596531999
  0
LINE
  5
9F29
  8
0
 10
4526.2443910947658878
 20
313.7925797981773144
 30
0.0
 11
4526.2444020285347506
 21
315.6205862787272736
 31
0.0
  0
ARC
  5
9F2A
  8
0
 10
4527.7706180559025597
 20
315.598536491899722
 30
0.0
 40
1.526360408779335
 50
169.0840592185888056
 51
179.1728408020861139
  0
ARC
  5
9F2B
  8
0
 10
4519.5910317330863109
 20
310.7930922265567801
 30
0.0
 40
0.082590736034968
 50
98.7086293287313197
 51
176.0578882937601861
  0
LINE
  5
9F2C
  8
0
 10
4519.5785266948678327
 20
310.8747307817740761
 30
0.0
 11
4526.2766210791660342
 21
310.8770593224476215
 31
0.0
  0
LINE
  5
9F2D
  8
0
 10
4526.2766117731007398
 20
308.3460566649982866
 30
0.0
 11
4519.5850233449682491
 21
308.3437303859740837
 31
0.0
  0
ARC
  5
9F2E
  8
0
 10
4519.5942854184941098
 20
308.429171039680682
 30
0.0
 40
0.0859412084614658
 50
184.6514972331646902
 51
263.813091192919785
  0
LINE
  5
9F2F
  8
0
 10
4519.5086272665666911
 20
308.4222016551739785
 30
0.0
 11
4519.508636405166726
 21
310.798770220574113
 31
0.0
  0
ARC
  5
9F30
  8
0
 10
4527.7428425526250066
 20
308.715841049980213
 30
0.0
 40
1.4985765344588109
 50
180.7402684163818947
 51
191.0635674596531999
  0
LINE
  5
9F31
  8
0
 10
4526.2443910947658878
 20
308.6964797981772222
 30
0.0
 11
4526.2444020285347506
 21
310.524486278727295
 31
0.0
  0
ARC
  5
9F32
  8
0
 10
4527.7706180559025597
 20
310.5024364918996866
 30
0.0
 40
1.526360408779335
 50
169.0840592185888056
 51
179.1728408020861139
  0
ARC
  5
9F33
  8
0
 10
4519.5910317330863109
 20
305.6969922265569153
 30
0.0
 40
0.082590736034968
 50
98.7086293287313197
 51
176.0578882937601861
  0
LINE
  5
9F34
  8
0
 10
4519.5785266948678327
 20
305.7786307817739839
 30
0.0
 11
4526.2766114307860335
 21
305.7809593190934265
 31
0.0
  0
LINE
  5
9F35
  8
0
 10
4526.2766210786667216
 20
303.2499566682333239
 30
0.0
 11
4519.5850233449682491
 21
303.2476303859739915
 31
0.0
  0
ARC
  5
9F36
  8
0
 10
4519.5942854184941098
 20
303.3330710396807035
 30
0.0
 40
0.0859412084614658
 50
184.6514972331646902
 51
263.813091192919785
  0
LINE
  5
9F37
  8
0
 10
4519.5086272665666911
 20
303.3261016551741136
 30
0.0
 11
4519.508636405166726
 21
305.7026702205740776
 31
0.0
  0
ARC
  5
9F38
  8
0
 10
4527.7428425526250066
 20
303.6197410499802913
 30
0.0
 40
1.4985765344588109
 50
180.7402684163818947
 51
191.0635674596531999
  0
LINE
  5
9F39
  8
0
 10
4526.2443910947658878
 20
303.6003797981771868
 30
0.0
 11
4526.2444020285347506
 21
305.4283862787273165
 31
0.0
  0
ARC
  5
9F3A
  8
0
 10
4527.7706180559025597
 20
305.4063364918995944
 30
0.0
 40
1.526360408779335
 50
169.0840592185888056
 51
179.1728408020861139
  0
ARC
  5
9F3B
  8
0
 10
4519.5910317330863109
 20
300.6008922265568231
 30
0.0
 40
0.082590736034968
 50
98.7086293287313197
 51
176.0578882937601861
  0
LINE
  5
9F3C
  8
0
 10
4519.5785266948678327
 20
300.6825307817741191
 30
0.0
 11
4526.2766210804311413
 21
300.6848593224480055
 31
0.0
  0
LINE
  5
9F3D
  8
0
 10
4526.2766213056838751
 20
298.1538566683121871
 30
0.0
 11
4519.5850233449682491
 21
298.1515303859741266
 31
0.0
  0
ARC
  5
9F3E
  8
0
 10
4519.5942854184941098
 20
298.236971039680725
 30
0.0
 40
0.0859412084614658
 50
184.6514972331646902
 51
263.813091192919785
  0
LINE
  5
9F3F
  8
0
 10
4519.5086272665666911
 20
298.2300016551740782
 30
0.0
 11
4519.508636405166726
 21
300.606570220574099
 31
0.0
  0
ARC
  5
9F40
  8
0
 10
4527.7428425526250066
 20
298.5236410499801991
 30
0.0
 40
1.4985765344588109
 50
180.7402684163818947
 51
191.0635674596531999
  0
LINE
  5
9F41
  8
0
 10
4526.2443910947658878
 20
298.5042797981772082
 30
0.0
 11
4526.2444020285347506
 21
300.3322862787272811
 31
0.0
  0
ARC
  5
9F42
  8
0
 10
4527.7706180559025597
 20
300.3102364918996727
 30
0.0
 40
1.526360408779335
 50
169.0840592185888056
 51
179.1728408020861139
  0
LINE
  5
9F43
  8
0
 10
4526.2766210757399676
 20
321.0833119712740995
 30
0.0
 11
4526.2766210786667216
 21
321.0088607312476938
 31
0.0
  0
LINE
  5
9F44
  8
0
 10
4526.2766210786667216
 20
321.0088607312476938
 30
0.0
 11
4526.271875513566556
 21
320.9836812795741139
 31
0.0
  0
LINE
  5
9F45
  8
0
 10
4526.2766210786667216
 20
318.5220317473153955
 30
0.0
 11
4526.2766210786667216
 21
318.596603855373985
 31
0.0
  0
LINE
  5
9F46
  8
0
 10
4526.2766210786667216
 20
318.596603855373985
 30
0.0
 11
4526.2721172367173494
 21
318.6204672772237814
 31
0.0
  0
LINE
  5
9F47
  8
0
 10
4526.2766210792842685
 20
315.9872119712666745
 30
0.0
 11
4526.2766210786667216
 21
315.9127605716740845
 31
0.0
  0
LINE
  5
9F48
  8
0
 10
4526.2766210786667216
 20
315.9127605716740845
 30
0.0
 11
4526.271875513566556
 21
315.8875812795740785
 31
0.0
  0
LINE
  5
9F49
  8
0
 10
4526.2766210792824495
 20
313.4259317472149178
 30
0.0
 11
4526.2766210786667216
 21
313.5005038553741201
 31
0.0
  0
LINE
  5
9F4A
  8
0
 10
4526.2766210786667216
 20
313.5005038553741201
 30
0.0
 11
4526.2721172367182589
 21
313.5243672772231776
 31
0.0
  0
LINE
  5
9F4B
  8
0
 10
4526.2766210792824495
 20
310.8911119713362723
 30
0.0
 11
4526.2766210786667216
 21
310.816660571674106
 31
0.0
  0
LINE
  5
9F4C
  8
0
 10
4526.2766210786667216
 20
310.816660571674106
 30
0.0
 11
4526.271875513566556
 21
310.7914812795741
 31
0.0
  0
LINE
  5
9F4D
  8
0
 10
4526.2766091854500701
 20
308.3298317464244178
 30
0.0
 11
4526.2766210786667216
 21
308.4044038553740847
 31
0.0
  0
LINE
  5
9F4E
  8
0
 10
4526.2766210786667216
 20
308.4044038553740847
 30
0.0
 11
4526.2721172367182589
 21
308.428267277223199
 31
0.0
  0
LINE
  5
9F4F
  8
0
 10
4526.276609186065798
 20
305.7950119703838254
 30
0.0
 11
4526.2766210786667216
 21
305.7205605716741275
 31
0.0
  0
LINE
  5
9F50
  8
0
 10
4526.2766210786667216
 20
305.7205605716741275
 30
0.0
 11
4526.271875513566556
 21
305.6953812795740077
 31
0.0
  0
LINE
  5
9F51
  8
0
 10
4526.2766210786667216
 20
303.2337317480740921
 30
0.0
 11
4526.2766210786667216
 21
303.3083038553741062
 31
0.0
  0
LINE
  5
9F52
  8
0
 10
4526.2766210786667216
 20
303.3083038553741062
 30
0.0
 11
4526.272117236111626
 21
303.3321672803252227
 31
0.0
  0
LINE
  5
9F53
  8
0
 10
4526.2766210792824495
 20
300.6989119713406922
 30
0.0
 11
4526.2766210853678785
 21
300.6244606064739742
 31
0.0
  0
LINE
  5
9F54
  8
0
 10
4526.2766210853678785
 20
300.6244606064739742
 30
0.0
 11
4526.271875513566556
 21
300.5992812795739724
 31
0.0
  0
LINE
  5
9F55
  8
0
 10
4526.2716494357910051
 20
298.0648937076812786
 30
0.0
 11
4526.2766213114637139
 21
298.089201586011086
 31
0.0
  0
LINE
  5
9F56
  8
0
 10
4526.2766213114637139
 20
298.089201586011086
 30
0.0
 11
4526.276621300467923
 21
298.2122026977739893
 31
0.0
  0
LINE
  5
9F57
  8
0
 10
4526.276621300467923
 20
298.2122026977739893
 30
0.0
 11
4526.2721172367182589
 21
298.2360672772227872
 31
0.0
  0
ARC
  5
9F58
  8
0
 10
4527.6889285058487076
 20
297.7710352141440922
 30
0.0
 40
1.447422805074277
 50
168.2862739863302863
 51
179.4780272873458102
  0
LINE
  5
9F59
  8
0
 10
4526.2415657645678948
 20
297.7842212596739842
 30
0.0
 11
4526.2415657645678948
 21
295.9562212596741233
 31
0.0
  0
ARC
  5
9F5A
  8
0
 10
4527.8254950424870913
 20
295.9821265874600158
 30
0.0
 40
1.584141105917636
 50
180.9369948830095041
 51
193.603961973648012
  0
LINE
  5
9F5B
  8
0
 10
4526.1072615610673893
 20
298.1378195708741146
 30
0.0
 11
4471.8076799822683824
 21
298.1378195708741146
 31
0.0
  0
LINE
  5
9F5C
  8
0
 10
4470.3076799822683824
 20
298.1378195708741146
 30
0.0
 11
4469.0896984034670822
 21
298.1378195708741146
 31
0.0
  0
ARC
  5
9F5D
  8
0
 10
4526.1016007436246582
 20
296.5665914558376812
 30
0.0
 40
1.5712383123939999
 50
86.0320775262706547
 51
89.7935757757743431
  0
LINE
  5
9F5E
  8
0
 10
4526.0774100971666485
 20
295.6704781507741018
 30
0.0
 11
4471.8076799822683824
 21
295.6704781507741018
 31
0.0
  0
LINE
  5
9F5F
  8
0
 10
4470.3076799822683824
 20
295.6704781507741018
 30
0.0
 11
4469.1195471446071679
 21
295.6704781507741018
 31
0.0
  0
ARC
  5
9F60
  8
0
 10
4525.6626509731449914
 20
249.8597566276291104
 30
0.0
 40
45.8125990487561694
 50
89.2369514715604453
 51
89.481272129122658
  0
ARC
  5
9F61
  8
0
 10
4497.6877893879145631
 20
295.5047361660489855
 30
0.0
 40
0.0826573140842531
 50
98.7882941876520562
 51
176.041693820741898
  0
LINE
  5
9F62
  8
0
 10
4497.6751606783673196
 20
295.5864230515741156
 30
0.0
 11
4504.8228990373672787
 21
295.5864215953740768
 31
0.0
  0
ARC
  5
9F63
  8
0
 10
4504.8102830360576263
 20
295.5047544619517907
 30
0.0
 40
0.0826358528148742
 50
3.9639699068346048
 51
81.2183212518673656
  0
LINE
  5
9F64
  8
0
 10
4504.892721200687447
 20
295.5104670080568781
 30
0.0
 11
4504.8927307154099253
 21
293.1339016738818941
 31
0.0
  0
ARC
  5
9F65
  8
0
 10
4504.8102527354058111
 20
293.1396239503549737
 30
0.0
 40
0.0826762458821125
 50
278.7987771596183961
 51
356.031210406332093
  0
LINE
  5
9F66
  8
0
 10
4504.8228992862668747
 20
293.0579206677741126
 30
0.0
 11
4497.6751609302673387
 21
293.0581717799739749
 31
0.0
  0
ARC
  5
9F67
  8
0
 10
4497.6872310837852638
 20
293.1393549581512161
 30
0.0
 40
0.0820755568051146
 50
183.8293813992376045
 51
261.5433263201658178
  0
LINE
  5
9F68
  8
0
 10
4497.6053387728306916
 20
293.1338734956017902
 30
0.0
 11
4497.6053292489250452
 21
295.5104420445393885
 31
0.0
  0
ARC
  5
9F69
  8
0
 10
4504.988889387915151
 20
295.5047361660489855
 30
0.0
 40
0.0826573140842531
 50
98.7882941876520562
 51
176.041693820741898
  0
LINE
  5
9F6A
  8
0
 10
4504.976260678366998
 20
295.5864230515741156
 30
0.0
 11
4512.1239990373678665
 21
295.5864215953740768
 31
0.0
  0
ARC
  5
9F6B
  8
0
 10
4512.1113830360582142
 20
295.5047544619517907
 30
0.0
 40
0.0826358528148742
 50
3.9639699068346048
 51
81.2183212518673656
  0
LINE
  5
9F6C
  8
0
 10
4512.1938212006871254
 20
295.5104670080568781
 30
0.0
 11
4512.1938307154096037
 21
293.1339016738818941
 31
0.0
  0
ARC
  5
9F6D
  8
0
 10
4512.1113527354073085
 20
293.1396239503549737
 30
0.0
 40
0.0826762458821125
 50
278.7987771596183961
 51
356.031210406332093
  0
LINE
  5
9F6E
  8
0
 10
4512.1239992862665531
 20
293.0579206677741126
 30
0.0
 11
4504.9762609302661076
 21
293.0581717799739749
 31
0.0
  0
ARC
  5
9F6F
  8
0
 10
4504.9883310837849422
 20
293.1393549581512161
 30
0.0
 40
0.0820755568051146
 50
183.8293813992376045
 51
261.5433263201658178
  0
LINE
  5
9F70
  8
0
 10
4504.9064387728312795
 20
293.1338734956017902
 30
0.0
 11
4504.9064292489247237
 21
295.5104420445392748
 31
0.0
  0
ARC
  5
9F71
  8
0
 10
4512.2899893879148294
 20
295.5047361660489855
 30
0.0
 40
0.0826573140842531
 50
98.7882941876520562
 51
176.041693820741898
  0
LINE
  5
9F72
  8
0
 10
4512.2773606783666764
 20
295.5864230515741156
 30
0.0
 11
4519.4250990373666355
 21
295.5864215953740768
 31
0.0
  0
ARC
  5
9F73
  8
0
 10
4519.4124830360588021
 20
295.5047544619517907
 30
0.0
 40
0.0826358528148742
 50
3.9639699068346048
 51
81.2183212518673656
  0
LINE
  5
9F74
  8
0
 10
4519.4949212006877133
 20
295.5104670080568781
 30
0.0
 11
4519.4949307154092821
 21
293.1339016738818941
 31
0.0
  0
ARC
  5
9F75
  8
0
 10
4519.4124527354069869
 20
293.1396239503549737
 30
0.0
 40
0.0826762458821125
 50
278.7987771596183961
 51
356.031210406332093
  0
LINE
  5
9F76
  8
0
 10
4519.42509928626896
 20
293.0579206677741126
 30
0.0
 11
4512.2773609302666955
 21
293.0581717799739749
 31
0.0
  0
ARC
  5
9F77
  8
0
 10
4512.2894310837846206
 20
293.1393549581512161
 30
0.0
 40
0.0820755568051146
 50
183.8293813992376045
 51
261.5433263201658178
  0
LINE
  5
9F78
  8
0
 10
4512.2075387728318674
 20
293.1338734956017902
 30
0.0
 11
4512.2075292489244021
 21
295.5104420445392748
 31
0.0
  0
ARC
  5
9F79
  8
0
 10
4515.9405393879151234
 20
292.9566861660488826
 30
0.0
 40
0.0826573140842531
 50
98.7882941876520562
 51
176.041693820741898
  0
LINE
  5
9F7A
  8
0
 10
4515.9279106783669704
 20
293.0383730515741263
 30
0.0
 11
4523.0756490373678389
 21
293.0383715953740875
 31
0.0
  0
ARC
  5
9F7B
  8
0
 10
4523.0630330360581866
 20
292.9567044619519152
 30
0.0
 40
0.0826358528148742
 50
3.9639699068346048
 51
81.2183212518673656
  0
LINE
  5
9F7C
  8
0
 10
4523.1454712006870977
 20
292.9624170080568888
 30
0.0
 11
4523.1454807154086666
 21
290.5858516738820185
 31
0.0
  0
ARC
  5
9F7D
  8
0
 10
4523.0630027354072809
 20
290.5915739503550981
 30
0.0
 40
0.0826762458821125
 50
278.7987771596183961
 51
356.031210406332093
  0
LINE
  5
9F7E
  8
0
 10
4523.0756492862674349
 20
290.5098706677740097
 30
0.0
 11
4515.9279109302669895
 21
290.5101217799740994
 31
0.0
  0
ARC
  5
9F7F
  8
0
 10
4515.9399810837849145
 20
290.5913049581512269
 30
0.0
 40
0.0820755568051146
 50
183.8293813992376045
 51
261.5433263201658178
  0
LINE
  5
9F80
  8
0
 10
4515.8580887728312518
 20
290.5858234956016872
 30
0.0
 11
4515.8580792489237865
 21
292.9623920445392855
 31
0.0
  0
ARC
  5
9F81
  8
0
 10
4508.639439387915445
 20
292.9566861660488826
 30
0.0
 40
0.0826573140842531
 50
98.7882941876520562
 51
176.041693820741898
  0
LINE
  5
9F82
  8
0
 10
4508.626810678367292
 20
293.0383730515741263
 30
0.0
 11
4515.774549037367251
 21
293.0383715953740875
 31
0.0
  0
ARC
  5
9F83
  8
0
 10
4515.7619330360594176
 20
292.9567044619519152
 30
0.0
 40
0.0826358528148742
 50
3.9639699068346048
 51
81.2183212518673656
  0
LINE
  5
9F84
  8
0
 10
4515.8443712006883288
 20
292.9624170080568888
 30
0.0
 11
4515.8443807154089882
 21
290.5858516738820185
 31
0.0
  0
ARC
  5
9F85
  8
0
 10
4515.7619027354057835
 20
290.5915739503550981
 30
0.0
 40
0.0826762458821125
 50
278.7987771596183961
 51
356.031210406332093
  0
LINE
  5
9F86
  8
0
 10
4515.7745492862677565
 20
290.5098706677740097
 30
0.0
 11
4508.6268109302673111
 21
290.5101217799740994
 31
0.0
  0
ARC
  5
9F87
  8
0
 10
4508.6388810837852361
 20
290.5913049581512269
 30
0.0
 40
0.0820755568051146
 50
183.8293813992376045
 51
261.5433263201658178
  0
LINE
  5
9F88
  8
0
 10
4508.5569887728315734
 20
290.5858234956016872
 30
0.0
 11
4508.5569792489250176
 21
292.9623920445392855
 31
0.0
  0
ARC
  5
9F89
  8
0
 10
4501.3383393879148571
 20
292.9566861660488826
 30
0.0
 40
0.0826573140842531
 50
98.7882941876520562
 51
176.041693820741898
  0
LINE
  5
9F8A
  8
0
 10
4501.3257106783676136
 20
293.0383730515741263
 30
0.0
 11
4508.4734490373666631
 21
293.0383715953740875
 31
0.0
  0
ARC
  5
9F8B
  8
0
 10
4508.4608330360588297
 20
292.9567044619519152
 30
0.0
 40
0.0826358528148742
 50
3.9639699068346048
 51
81.2183212518673656
  0
LINE
  5
9F8C
  8
0
 10
4508.5432712006877409
 20
292.9624170080568888
 30
0.0
 11
4508.5432807154093098
 21
290.5858516738820185
 31
0.0
  0
ARC
  5
9F8D
  8
0
 10
4508.4608027354070146
 20
290.5915739503550981
 30
0.0
 40
0.0826762458821125
 50
278.7987771596183961
 51
356.031210406332093
  0
LINE
  5
9F8E
  8
0
 10
4508.4734492862680781
 20
290.5098706677740097
 30
0.0
 11
4501.3257109302676326
 21
290.5101217799740994
 31
0.0
  0
ARC
  5
9F8F
  8
0
 10
4501.3377810837837387
 20
290.5913049581512269
 30
0.0
 40
0.0820755568051146
 50
183.8293813992376045
 51
261.5433263201658178
  0
LINE
  5
9F90
  8
0
 10
4501.2558887728309855
 20
290.5858234956016872
 30
0.0
 11
4501.2558792489244297
 21
292.9623920445392855
 31
0.0
  0
ARC
  5
9F91
  8
0
 10
4497.6877893879145631
 20
290.4086361660488933
 30
0.0
 40
0.0826573140842531
 50
98.7882941876520562
 51
176.041693820741898
  0
LINE
  5
9F92
  8
0
 10
4497.6751606783673196
 20
290.4903230515740802
 30
0.0
 11
4504.8228990373672787
 21
290.4903215953740983
 31
0.0
  0
ARC
  5
9F93
  8
0
 10
4504.8102830360576263
 20
290.4086544619519259
 30
0.0
 40
0.0826358528148742
 50
3.9639699068346048
 51
81.2183212518673656
  0
LINE
  5
9F94
  8
0
 10
4504.892721200687447
 20
290.4143670080568995
 30
0.0
 11
4504.8927307154099253
 21
288.0378016738819724
 31
0.0
  0
ARC
  5
9F95
  8
0
 10
4504.8102527354058111
 20
288.0435239503551088
 30
0.0
 40
0.0826762458821125
 50
278.7987771596183961
 51
356.031210406332093
  0
LINE
  5
9F96
  8
0
 10
4504.8228992862668747
 20
287.9618206677740773
 30
0.0
 11
4497.6751609302673387
 21
287.9620717799739964
 31
0.0
  0
ARC
  5
9F97
  8
0
 10
4497.6872310837852638
 20
288.0432549581512944
 30
0.0
 40
0.0820755568051146
 50
183.8293813992376045
 51
261.5433263201658178
  0
LINE
  5
9F98
  8
0
 10
4497.6053387728306916
 20
288.0377734956018116
 30
0.0
 11
4497.6053292489250452
 21
290.4143420445392962
 31
0.0
  0
ARC
  5
9F99
  8
0
 10
4504.988889387915151
 20
290.4086361660488933
 30
0.0
 40
0.0826573140842531
 50
98.7882941876520562
 51
176.041693820741898
  0
LINE
  5
9F9A
  8
0
 10
4504.976260678366998
 20
290.4903230515740802
 30
0.0
 11
4512.1239990373678665
 21
290.4903215953740983
 31
0.0
  0
ARC
  5
9F9B
  8
0
 10
4512.1113830360582142
 20
290.4086544619519259
 30
0.0
 40
0.0826358528148742
 50
3.9639699068346048
 51
81.2183212518673656
  0
LINE
  5
9F9C
  8
0
 10
4512.1938212006871254
 20
290.4143670080568995
 30
0.0
 11
4512.1938307154096037
 21
288.0378016738819724
 31
0.0
  0
ARC
  5
9F9D
  8
0
 10
4512.1113527354073085
 20
288.0435239503551088
 30
0.0
 40
0.0826762458821125
 50
278.7987771596183961
 51
356.031210406332093
  0
LINE
  5
9F9E
  8
0
 10
4512.1239992862665531
 20
287.9618206677740773
 30
0.0
 11
4504.9762609302661076
 21
287.9620717799739964
 31
0.0
  0
ARC
  5
9F9F
  8
0
 10
4504.9883310837849422
 20
288.0432549581512944
 30
0.0
 40
0.0820755568051146
 50
183.8293813992376045
 51
261.5433263201658178
  0
LINE
  5
9FA0
  8
0
 10
4504.9064387728312795
 20
288.0377734956018116
 30
0.0
 11
4504.9064292489247237
 21
290.4143420445392962
 31
0.0
  0
ARC
  5
9FA1
  8
0
 10
4512.2899893879148294
 20
290.4086361660488933
 30
0.0
 40
0.0826573140842531
 50
98.7882941876520562
 51
176.041693820741898
  0
LINE
  5
9FA2
  8
0
 10
4512.2773606783666764
 20
290.4903230515740802
 30
0.0
 11
4519.4250990373666355
 21
290.4903215953740983
 31
0.0
  0
ARC
  5
9FA3
  8
0
 10
4519.4124830360588021
 20
290.4086544619519259
 30
0.0
 40
0.0826358528148742
 50
3.9639699068346048
 51
81.2183212518673656
  0
LINE
  5
9FA4
  8
0
 10
4519.4949212006877133
 20
290.4143670080568995
 30
0.0
 11
4519.4949307154092821
 21
288.0378016738819724
 31
0.0
  0
ARC
  5
9FA5
  8
0
 10
4519.4124527354069869
 20
288.0435239503551088
 30
0.0
 40
0.0826762458821125
 50
278.7987771596183961
 51
356.031210406332093
  0
LINE
  5
9FA6
  8
0
 10
4519.42509928626896
 20
287.9618206677740773
 30
0.0
 11
4512.2773609302666955
 21
287.9620717799739964
 31
0.0
  0
ARC
  5
9FA7
  8
0
 10
4512.2894310837846206
 20
288.0432549581512944
 30
0.0
 40
0.0820755568051146
 50
183.8293813992376045
 51
261.5433263201658178
  0
LINE
  5
9FA8
  8
0
 10
4512.2075387728318674
 20
288.0377734956018116
 30
0.0
 11
4512.2075292489244021
 21
290.4143420445392962
 31
0.0
  0
ARC
  5
9FA9
  8
0
 10
4501.3383393879148571
 20
287.860586166048904
 30
0.0
 40
0.0826573140842531
 50
98.7882941876520562
 51
176.041693820741898
  0
LINE
  5
9FAA
  8
0
 10
4501.3257106783676136
 20
287.9422730515739772
 30
0.0
 11
4508.4734490373666631
 21
287.942271595374109
 31
0.0
  0
ARC
  5
9FAB
  8
0
 10
4508.4608330360588297
 20
287.8606044619518798
 30
0.0
 40
0.0826358528148742
 50
3.9639699068346048
 51
81.2183212518673656
  0
LINE
  5
9FAC
  8
0
 10
4508.5432712006877409
 20
287.8663170080569103
 30
0.0
 11
4508.5432807154093098
 21
285.4897516738819832
 31
0.0
  0
ARC
  5
9FAD
  8
0
 10
4508.4608027354070146
 20
285.4954739503551195
 30
0.0
 40
0.0826762458821125
 50
278.7987771596183961
 51
356.031210406332093
  0
LINE
  5
9FAE
  8
0
 10
4508.4734492862680781
 20
285.413770667774088
 30
0.0
 11
4501.3257109302676326
 21
285.4140217799741208
 31
0.0
  0
ARC
  5
9FAF
  8
0
 10
4501.3377810837837387
 20
285.4952049581511915
 30
0.0
 40
0.0820755568051146
 50
183.8293813992376045
 51
261.5433263201658178
  0
LINE
  5
9FB0
  8
0
 10
4501.2558887728309855
 20
285.4897234956018224
 30
0.0
 11
4501.2558792489244297
 21
287.866292044539307
 31
0.0
  0
ARC
  5
9FB1
  8
0
 10
4508.639439387915445
 20
287.860586166048904
 30
0.0
 40
0.0826573140842531
 50
98.7882941876520562
 51
176.041693820741898
  0
LINE
  5
9FB2
  8
0
 10
4508.626810678367292
 20
287.9422730515739772
 30
0.0
 11
4515.774549037367251
 21
287.942271595374109
 31
0.0
  0
ARC
  5
9FB3
  8
0
 10
4515.7619330360594176
 20
287.8606044619518798
 30
0.0
 40
0.0826358528148742
 50
3.9639699068346048
 51
81.2183212518673656
  0
LINE
  5
9FB4
  8
0
 10
4515.8443712006883288
 20
287.8663170080569103
 30
0.0
 11
4515.8443807154089882
 21
285.4897516738819832
 31
0.0
  0
ARC
  5
9FB5
  8
0
 10
4515.7619027354057835
 20
285.4954739503551195
 30
0.0
 40
0.0826762458821125
 50
278.7987771596183961
 51
356.031210406332093
  0
LINE
  5
9FB6
  8
0
 10
4515.7745492862677565
 20
285.413770667774088
 30
0.0
 11
4508.6268109302673111
 21
285.4140217799741208
 31
0.0
  0
ARC
  5
9FB7
  8
0
 10
4508.6388810837852361
 20
285.4952049581511915
 30
0.0
 40
0.0820755568051146
 50
183.8293813992376045
 51
261.5433263201658178
  0
LINE
  5
9FB8
  8
0
 10
4508.5569887728315734
 20
285.4897234956018224
 30
0.0
 11
4508.5569792489250176
 21
287.866292044539307
 31
0.0
  0
ARC
  5
9FB9
  8
0
 10
4515.9405393879151234
 20
287.860586166048904
 30
0.0
 40
0.0826573140842531
 50
98.7882941876520562
 51
176.041693820741898
  0
LINE
  5
9FBA
  8
0
 10
4515.9279106783669704
 20
287.9422730515739772
 30
0.0
 11
4523.0756490373678389
 21
287.942271595374109
 31
0.0
  0
ARC
  5
9FBB
  8
0
 10
4523.0630330360581866
 20
287.8606044619518798
 30
0.0
 40
0.0826358528148742
 50
3.9639699068346048
 51
81.2183212518673656
  0
LINE
  5
9FBC
  8
0
 10
4523.1454712006870977
 20
287.8663170080569103
 30
0.0
 11
4523.1454807154086666
 21
285.4897516738819832
 31
0.0
  0
ARC
  5
9FBD
  8
0
 10
4523.0630027354072809
 20
285.4954739503551195
 30
0.0
 40
0.0826762458821125
 50
278.7987771596183961
 51
356.031210406332093
  0
LINE
  5
9FBE
  8
0
 10
4523.0756492862674349
 20
285.413770667774088
 30
0.0
 11
4515.9279109302669895
 21
285.4140217799741208
 31
0.0
  0
ARC
  5
9FBF
  8
0
 10
4515.9399810837849145
 20
285.4952049581511915
 30
0.0
 40
0.0820755568051146
 50
183.8293813992376045
 51
261.5433263201658178
  0
LINE
  5
9FC0
  8
0
 10
4515.8580887728312518
 20
285.4897234956018224
 30
0.0
 11
4515.8580792489237865
 21
287.866292044539307
 31
0.0
  0
ARC
  5
9FC1
  8
0
 10
4497.6877893879145631
 20
285.3125361660489716
 30
0.0
 40
0.0826573140842531
 50
98.7882941876520562
 51
176.041693820741898
  0
LINE
  5
9FC2
  8
0
 10
4497.6751606783673196
 20
285.3942230515741016
 30
0.0
 11
4504.8228990373672787
 21
285.3942215953741197
 31
0.0
  0
ARC
  5
9FC3
  8
0
 10
4504.8102830360576263
 20
285.3125544619518905
 30
0.0
 40
0.0826358528148742
 50
3.9639699068346048
 51
81.2183212518673656
  0
LINE
  5
9FC4
  8
0
 10
4504.892721200687447
 20
285.318267008056921
 30
0.0
 11
4504.8927307154099253
 21
282.9417016738819939
 31
0.0
  0
ARC
  5
9FC5
  8
0
 10
4504.8102527354058111
 20
282.9474239503550166
 30
0.0
 40
0.0826762458821125
 50
305.2690738705002218
 51
356.031210406332093
  0
ARC
  5
9FC6
  8
0
 10
4497.6872310837852638
 20
282.9471549581512022
 30
0.0
 40
0.0820755568051146
 50
183.8293813992376045
 51
234.9400793688323859
  0
LINE
  5
9FC7
  8
0
 10
4497.6053387728306916
 20
282.9416734956017763
 30
0.0
 11
4497.6053292489250452
 21
285.318242044539204
 31
0.0
  0
ARC
  5
9FC8
  8
0
 10
4504.988889387915151
 20
285.3125361660489716
 30
0.0
 40
0.0826573140842531
 50
98.7882941876520562
 51
176.041693820741898
  0
LINE
  5
9FC9
  8
0
 10
4504.976260678366998
 20
285.3942230515741016
 30
0.0
 11
4512.1239990373678665
 21
285.3942215953741197
 31
0.0
  0
ARC
  5
9FCA
  8
0
 10
4512.1113830360582142
 20
285.3125544619518905
 30
0.0
 40
0.0826358528148742
 50
3.9639699068346048
 51
81.2183212518673656
  0
LINE
  5
9FCB
  8
0
 10
4512.1938212006871254
 20
285.318267008056921
 30
0.0
 11
4512.1938307154096037
 21
282.9417016738819939
 31
0.0
  0
ARC
  5
9FCC
  8
0
 10
4512.1113527354073085
 20
282.9474239503550166
 30
0.0
 40
0.0826762458821125
 50
305.2096804317321244
 51
356.031210406332093
  0
ARC
  5
9FCD
  8
0
 10
4504.9883310837849422
 20
282.9471549581512022
 30
0.0
 40
0.0820755568051146
 50
183.8293813992376045
 51
235.0002203641961103
  0
LINE
  5
9FCE
  8
0
 10
4504.9064387728312795
 20
282.9416734956017763
 30
0.0
 11
4504.9064292489247237
 21
285.318242044539204
 31
0.0
  0
ARC
  5
9FCF
  8
0
 10
4512.2899893879148294
 20
285.3125361660489716
 30
0.0
 40
0.0826573140842531
 50
98.7882941876520562
 51
176.041693820741898
  0
LINE
  5
9FD0
  8
0
 10
4512.2773606783666764
 20
285.3942230515741016
 30
0.0
 11
4519.4250990373666355
 21
285.3942215953741197
 31
0.0
  0
ARC
  5
9FD1
  8
0
 10
4519.4124830360588021
 20
285.3125544619518905
 30
0.0
 40
0.0826358528148742
 50
3.9639699068346048
 51
81.2183212518673656
  0
LINE
  5
9FD2
  8
0
 10
4519.4949212006877133
 20
285.318267008056921
 30
0.0
 11
4519.4949307154092821
 21
282.9417016738819939
 31
0.0
  0
ARC
  5
9FD3
  8
0
 10
4519.4124527354069869
 20
282.9474239503550166
 30
0.0
 40
0.0826762458821125
 50
278.7987771596183961
 51
356.031210406332093
  0
LINE
  5
9FD4
  8
0
 10
4519.42509928626896
 20
282.8657206677740987
 30
0.0
 11
4516.9768024427221462
 21
282.8658066806044076
 31
0.0
  0
ARC
  5
9FD5
  8
0
 10
4512.2894310837846206
 20
282.9471549581512022
 30
0.0
 40
0.0820755568051146
 50
183.8293813992376045
 51
235.0604516525723966
  0
LINE
  5
9FD6
  8
0
 10
4512.2075387728318674
 20
282.9416734956017763
 30
0.0
 11
4512.2075292489244021
 21
285.318242044539204
 31
0.0
  0
LINE
  5
9FD7
  8
0
 10
4508.5432767672982663
 20
281.3798018051957115
 30
0.0
 11
4508.5432807154093098
 21
280.3936516738820046
 31
0.0
  0
ARC
  5
9FD8
  8
0
 10
4508.4608027354070146
 20
280.3993739503550842
 30
0.0
 40
0.0826762458821125
 50
278.7987771596183961
 51
356.031210406332093
  0
LINE
  5
9FD9
  8
0
 10
4508.4734492862680781
 20
280.3176706677739958
 30
0.0
 11
4501.3257109302676326
 21
280.3179217799739718
 31
0.0
  0
ARC
  5
9FDA
  8
0
 10
4501.3377810837837387
 20
280.3991049581512129
 30
0.0
 40
0.0820755568051146
 50
183.8293813992376045
 51
261.5433263201658178
  0
LINE
  5
9FDB
  8
0
 10
4501.2558887728309855
 20
280.393623495601787
 30
0.0
 11
4501.2558848210082942
 21
281.3797502395300967
 31
0.0
  0
LINE
  5
9FDC
  8
0
 10
4515.8443799420383584
 20
280.5868226321397856
 30
0.0
 11
4515.8443807154089882
 21
280.3936516738820046
 31
0.0
  0
ARC
  5
9FDD
  8
0
 10
4515.7619027354057835
 20
280.3993739503550842
 30
0.0
 40
0.0826762458821125
 50
278.7987771596183961
 51
356.031210406332093
  0
LINE
  5
9FDE
  8
0
 10
4515.7745492862677565
 20
280.3176706677739958
 30
0.0
 11
4508.6268109302673111
 21
280.3179217799739718
 31
0.0
  0
ARC
  5
9FDF
  8
0
 10
4508.6388810837852361
 20
280.3991049581512129
 30
0.0
 40
0.0820755568051146
 50
183.8293813992376045
 51
261.5433263201658178
  0
LINE
  5
9FE0
  8
0
 10
4508.5569887728315734
 20
280.393623495601787
 30
0.0
 11
4508.5569848208024268
 21
281.3798019021940036
 31
0.0
  0
LINE
  5
9FE1
  8
0
 10
4516.9871075564369676
 20
282.8461728357851825
 30
0.0
 11
4523.0756490373678389
 21
282.8461715953740736
 31
0.0
  0
ARC
  5
9FE2
  8
0
 10
4523.0630330360581866
 20
282.7645044619519012
 30
0.0
 40
0.0826358528148742
 50
3.9639699068346048
 51
81.2183212518673656
  0
LINE
  5
9FE3
  8
0
 10
4523.1454712006870977
 20
282.7702170080568749
 30
0.0
 11
4523.1454807154086666
 21
280.3936516738820046
 31
0.0
  0
ARC
  5
9FE4
  8
0
 10
4523.0630027354072809
 20
280.3993739503550842
 30
0.0
 40
0.0826762458821125
 50
278.7987771596183961
 51
356.031210406332093
  0
LINE
  5
9FE5
  8
0
 10
4523.0756492862674349
 20
280.3176706677739958
 30
0.0
 11
4515.9279109302669895
 21
280.3179217799739718
 31
0.0
  0
ARC
  5
9FE6
  8
0
 10
4515.9399810837849145
 20
280.3991049581512129
 30
0.0
 40
0.0820755568051146
 50
183.8293813992376045
 51
261.5433263201658178
  0
LINE
  5
9FE7
  8
0
 10
4515.8580887728312518
 20
280.393623495601787
 30
0.0
 11
4515.858087989597152
 21
280.5890697102910849
 31
0.0
  0
ARC
  5
9FE8
  8
0
 10
4512.2899893879148294
 20
280.2164361660489931
 30
0.0
 40
0.0826573140842531
 50
98.7882941876520562
 51
176.041693820741898
  0
LINE
  5
9FE9
  8
0
 10
4512.2773606783666764
 20
280.2981230515741231
 30
0.0
 11
4519.4250990373666355
 21
280.2981215953740275
 31
0.0
  0
ARC
  5
9FEA
  8
0
 10
4519.4124830360588021
 20
280.216454461951912
 30
0.0
 40
0.0826358528148742
 50
3.9639699068346048
 51
81.2183212518673656
  0
LINE
  5
9FEB
  8
0
 10
4519.4949212006877133
 20
280.2221670080568856
 30
0.0
 11
4519.4949307154092821
 21
277.8456016738819017
 31
0.0
  0
ARC
  5
9FEC
  8
0
 10
4519.4124527354069869
 20
277.8513239503550949
 30
0.0
 40
0.0826762458821125
 50
278.7987771596183961
 51
356.031210406332093
  0
LINE
  5
9FED
  8
0
 10
4519.42509928626896
 20
277.7696206677741202
 30
0.0
 11
4512.2773609302666955
 21
277.7698717799739825
 31
0.0
  0
ARC
  5
9FEE
  8
0
 10
4512.2894310837846206
 20
277.8510549581512237
 30
0.0
 40
0.0820755568051146
 50
183.8293813992376045
 51
261.5433263201658178
  0
LINE
  5
9FEF
  8
0
 10
4512.2075387728318674
 20
277.8455734956017977
 30
0.0
 11
4512.2075292489244021
 21
280.2221420445392823
 31
0.0
  0
ARC
  5
9FF0
  8
0
 10
4504.988889387915151
 20
280.2164361660489931
 30
0.0
 40
0.0826573140842531
 50
98.7882941876520562
 51
176.041693820741898
  0
LINE
  5
9FF1
  8
0
 10
4504.976260678366998
 20
280.2981230515741231
 30
0.0
 11
4512.1239990373678665
 21
280.2981215953740275
 31
0.0
  0
ARC
  5
9FF2
  8
0
 10
4512.1113830360582142
 20
280.216454461951912
 30
0.0
 40
0.0826358528148742
 50
3.9639699068346048
 51
81.2183212518673656
  0
LINE
  5
9FF3
  8
0
 10
4512.1938212006871254
 20
280.2221670080568856
 30
0.0
 11
4512.1938307154096037
 21
277.8456016738819017
 31
0.0
  0
ARC
  5
9FF4
  8
0
 10
4512.1113527354073085
 20
277.8513239503550949
 30
0.0
 40
0.0826762458821125
 50
278.7987771596183961
 51
356.031210406332093
  0
LINE
  5
9FF5
  8
0
 10
4512.1239992862665531
 20
277.7696206677741202
 30
0.0
 11
4504.9762609302661076
 21
277.7698717799739825
 31
0.0
  0
ARC
  5
9FF6
  8
0
 10
4504.9883310837849422
 20
277.8510549581512237
 30
0.0
 40
0.0820755568051146
 50
183.8293813992376045
 51
261.5433263201658178
  0
LINE
  5
9FF7
  8
0
 10
4504.9064387728312795
 20
277.8455734956017977
 30
0.0
 11
4504.9064292489247237
 21
280.2221420445392823
 31
0.0
  0
ARC
  5
9FF8
  8
0
 10
4497.6877893879145631
 20
280.2164361660489931
 30
0.0
 40
0.0826573140842531
 50
98.7882941876520562
 51
176.041693820741898
  0
LINE
  5
9FF9
  8
0
 10
4497.6751606783673196
 20
280.2981230515741231
 30
0.0
 11
4504.8228990373672787
 21
280.2981215953740275
 31
0.0
  0
ARC
  5
9FFA
  8
0
 10
4504.8102830360576263
 20
280.216454461951912
 30
0.0
 40
0.0826358528148742
 50
3.9639699068346048
 51
81.2183212518673656
  0
LINE
  5
9FFB
  8
0
 10
4504.892721200687447
 20
280.2221670080568856
 30
0.0
 11
4504.8927307154099253
 21
277.8456016738819017
 31
0.0
  0
ARC
  5
9FFC
  8
0
 10
4504.8102527354058111
 20
277.8513239503550949
 30
0.0
 40
0.0826762458821125
 50
278.7987771596183961
 51
356.031210406332093
  0
LINE
  5
9FFD
  8
0
 10
4504.8228992862668747
 20
277.7696206677741202
 30
0.0
 11
4497.6751609302673387
 21
277.7698717799739825
 31
0.0
  0
ARC
  5
9FFE
  8
0
 10
4497.6872310837852638
 20
277.8510549581512237
 30
0.0
 40
0.0820755568051146
 50
183.8293813992376045
 51
261.5433263201658178
  0
LINE
  5
9FFF
  8
0
 10
4497.6053387728306916
 20
277.8455734956017977
 30
0.0
 11
4497.6053292489250452
 21
280.2221420445392823
 31
0.0
  0
ARC
  5
A000
  8
0
 10
4501.3383393879148571
 20
277.6683861660488901
 30
0.0
 40
0.0826573140842531
 50
98.7882941876520562
 51
176.041693820741898
  0
LINE
  5
A001
  8
0
 10
4501.3257106783676136
 20
277.750073051574077
 30
0.0
 11
4508.4734490373666631
 21
277.7500715953740951
 31
0.0
  0
ARC
  5
A002
  8
0
 10
4508.4608330360588297
 20
277.6684044619519227
 30
0.0
 40
0.0826358528148742
 50
3.9639699068346048
 51
81.2183212518673656
  0
LINE
  5
A003
  8
0
 10
4508.5432712006877409
 20
277.6741170080568963
 30
0.0
 11
4508.5432807154093098
 21
275.2975516738820261
 31
0.0
  0
ARC
  5
A004
  8
0
 10
4508.4608027354070146
 20
275.3032739503549919
 30
0.0
 40
0.0826762458821125
 50
278.7987771596183961
 51
356.031210406332093
  0
LINE
  5
A005
  8
0
 10
4508.4734492862680781
 20
275.2215706677740741
 30
0.0
 11
4501.3257109302676326
 21
275.2218217799739932
 31
0.0
  0
ARC
  5
A006
  8
0
 10
4501.3377810837837387
 20
275.3030049581511776
 30
0.0
 40
0.0820755568051146
 50
183.8293813992376045
 51
261.5433263201658178
  0
LINE
  5
A007
  8
0
 10
4501.2558887728309855
 20
275.2975234956016948
 30
0.0
 11
4501.2558792489244297
 21
277.6740920445392931
 31
0.0
  0
ARC
  5
A008
  8
0
 10
4508.639439387915445
 20
277.6683861660488901
 30
0.0
 40
0.0826573140842531
 50
98.7882941876520562
 51
176.041693820741898
  0
LINE
  5
A009
  8
0
 10
4508.626810678367292
 20
277.750073051574077
 30
0.0
 11
4515.774549037367251
 21
277.7500715953740951
 31
0.0
  0
ARC
  5
A00A
  8
0
 10
4515.7619330360594176
 20
277.6684044619519227
 30
0.0
 40
0.0826358528148742
 50
3.9639699068346048
 51
81.2183212518673656
  0
LINE
  5
A00B
  8
0
 10
4515.8443712006883288
 20
277.6741170080568963
 30
0.0
 11
4515.844379961931736
 21
275.4857536691982887
 31
0.0
  0
LINE
  5
A00C
  8
0
 10
4514.7007818792753824
 20
275.2216083910486191
 30
0.0
 11
4508.6268109302673111
 21
275.2218217799739932
 31
0.0
  0
ARC
  5
A00D
  8
0
 10
4508.6388810837852361
 20
275.3030049581511776
 30
0.0
 40
0.0820755568051146
 50
183.8293813992376045
 51
261.5433263201658178
  0
LINE
  5
A00E
  8
0
 10
4508.5569887728315734
 20
275.2975234956016948
 30
0.0
 11
4508.5569792489250176
 21
277.6740920445392931
 31
0.0
  0
ARC
  5
A00F
  8
0
 10
4515.9405393879151234
 20
277.6683861660488901
 30
0.0
 40
0.0826573140842531
 50
98.7882941876520562
 51
176.041693820741898
  0
LINE
  5
A010
  8
0
 10
4515.9279106783669704
 20
277.750073051574077
 30
0.0
 11
4523.0756490373678389
 21
277.7500715953740951
 31
0.0
  0
ARC
  5
A011
  8
0
 10
4523.0630330360581866
 20
277.6684044619519227
 30
0.0
 40
0.0826358528148742
 50
3.9639699068346048
 51
81.2183212518673656
  0
LINE
  5
A012
  8
0
 10
4523.1454712006870977
 20
277.6741170080568963
 30
0.0
 11
4523.1454807154086666
 21
275.2975516738820261
 31
0.0
  0
ARC
  5
A013
  8
0
 10
4523.0630027354072809
 20
275.3032739503549919
 30
0.0
 40
0.0826762458821125
 50
278.7987771596183961
 51
356.031210406332093
  0
LINE
  5
A014
  8
0
 10
4523.0756492862674349
 20
275.2215706677740741
 30
0.0
 11
4516.4959024506088099
 21
275.2218018254662866
 31
0.0
  0
LINE
  5
A015
  8
0
 10
4515.8580880275203526
 20
275.4835066002560779
 30
0.0
 11
4515.8580792489237865
 21
277.6740920445392931
 31
0.0
  0
ARC
  5
A016
  8
0
 10
4512.2899893879148294
 20
275.1203361660490145
 30
0.0
 40
0.0826573140842531
 50
98.7882941876520562
 51
176.041693820741898
  0
LINE
  5
A017
  8
0
 10
4512.2773606783666764
 20
275.2020230515740877
 30
0.0
 11
4514.6735073967920471
 21
275.2020225634100257
 31
0.0
  0
LINE
  5
A018
  8
0
 10
4516.5234530810548677
 20
275.2020221865229246
 30
0.0
 11
4519.4250990373666355
 21
275.2020215953741058
 31
0.0
  0
ARC
  5
A019
  8
0
 10
4519.4124830360588021
 20
275.1203544619518766
 30
0.0
 40
0.0826358528148742
 50
3.9639699068346048
 51
81.2183212518673656
  0
LINE
  5
A01A
  8
0
 10
4519.4949212006877133
 20
275.1260670080569071
 30
0.0
 11
4519.4949307154092821
 21
272.74950167388198
 31
0.0
  0
ARC
  5
A01B
  8
0
 10
4519.4124527354069869
 20
272.7552239503550027
 30
0.0
 40
0.0826762458821125
 50
278.7987771596183961
 51
356.031210406332093
  0
LINE
  5
A01C
  8
0
 10
4519.42509928626896
 20
272.6735206677740848
 30
0.0
 11
4516.5099558165484268
 21
272.673623081720109
 31
0.0
  0
LINE
  5
A01D
  8
0
 10
4514.6869149790663869
 20
272.673687128244012
 30
0.0
 11
4512.2773609302666955
 21
272.6737717799740039
 31
0.0
  0
ARC
  5
A01E
  8
0
 10
4512.2894310837846206
 20
272.7549549581511883
 30
0.0
 40
0.0820755568051146
 50
183.8293813992376045
 51
261.5433263201658178
  0
LINE
  5
A01F
  8
0
 10
4512.2075387728318674
 20
272.7494734956017055
 30
0.0
 11
4512.2075369966360086
 21
273.1927003653242991
 31
0.0
  0
LINE
  5
A020
  8
0
 10
4512.2075309853244107
 20
274.6927458339794725
 30
0.0
 11
4512.2075292489244021
 21
275.1260420445393038
 31
0.0
  0
ARC
  5
A021
  8
0
 10
4504.988889387915151
 20
275.1203361660490145
 30
0.0
 40
0.0826573140842531
 50
98.7882941876520562
 51
176.041693820741898
  0
LINE
  5
A022
  8
0
 10
4504.976260678366998
 20
275.2020230515740877
 30
0.0
 11
4512.1239990373678665
 21
275.2020215953741058
 31
0.0
  0
ARC
  5
A023
  8
0
 10
4512.1113830360582142
 20
275.1203544619518766
 30
0.0
 40
0.0826358528148742
 50
3.9639699068346048
 51
81.2183212518673656
  0
LINE
  5
A024
  8
0
 10
4512.1938212006871254
 20
275.1260670080569071
 30
0.0
 11
4512.1938229355137082
 21
274.6927459268247276
 31
0.0
  0
LINE
  5
A025
  8
0
 10
4512.1938289410372818
 20
273.1927002683260071
 30
0.0
 11
4512.1938307154096037
 21
272.74950167388198
 31
0.0
  0
ARC
  5
A026
  8
0
 10
4512.1113527354073085
 20
272.7552239503550027
 30
0.0
 40
0.0826762458821125
 50
278.7987771596183961
 51
356.031210406332093
  0
LINE
  5
A027
  8
0
 10
4512.1239992862665531
 20
272.6735206677740848
 30
0.0
 11
4504.9762609302661076
 21
272.6737717799740039
 31
0.0
  0
ARC
  5
A028
  8
0
 10
4504.9883310837849422
 20
272.7549549581511883
 30
0.0
 40
0.0820755568051146
 50
183.8293813992376045
 51
261.5433263201658178
  0
LINE
  5
A029
  8
0
 10
4504.9064387728312795
 20
272.7494734956017055
 30
0.0
 11
4504.9064369968427854
 21
273.1926487026603922
 31
0.0
  0
LINE
  5
A02A
  8
0
 10
4504.906430985125553
 20
274.6927952846126004
 30
0.0
 11
4504.9064292489247237
 21
275.1260420445393038
 31
0.0
  0
ARC
  5
A02B
  8
0
 10
4497.6877893879145631
 20
275.1203361660490145
 30
0.0
 40
0.0826573140842531
 50
98.7882941876520562
 51
176.041693820741898
  0
LINE
  5
A02C
  8
0
 10
4497.6751606783673196
 20
275.2020230515740877
 30
0.0
 11
4504.8228990373672787
 21
275.2020215953741058
 31
0.0
  0
ARC
  5
A02D
  8
0
 10
4504.8102830360576263
 20
275.1203544619518766
 30
0.0
 40
0.0826358528148742
 50
3.9639699068346048
 51
81.2183212518673656
  0
LINE
  5
A02E
  8
0
 10
4504.892721200687447
 20
275.1260670080569071
 30
0.0
 11
4504.89272293531576
 21
274.6927953774576849
 31
0.0
  0
LINE
  5
A02F
  8
0
 10
4504.8927289412440587
 20
273.1926486056621002
 30
0.0
 11
4504.8927307154099253
 21
272.74950167388198
 31
0.0
  0
ARC
  5
A030
  8
0
 10
4504.8102527354058111
 20
272.7552239503550027
 30
0.0
 40
0.0826762458821125
 50
278.7987771596183961
 51
356.031210406332093
  0
LINE
  5
A031
  8
0
 10
4504.8228992862668747
 20
272.6735206677740848
 30
0.0
 11
4497.6751609302673387
 21
272.6737717799740039
 31
0.0
  0
ARC
  5
A032
  8
0
 10
4497.6872310837852638
 20
272.7549549581511883
 30
0.0
 40
0.0820755568051146
 50
183.8293813992376045
 51
261.5433263201658178
  0
LINE
  5
A033
  8
0
 10
4497.6053387728306916
 20
272.7494734956017055
 30
0.0
 11
4497.6053369970486528
 21
273.1925970399965991
 31
0.0
  0
LINE
  5
A034
  8
0
 10
4497.6053309849276047
 20
274.6928447352457283
 30
0.0
 11
4497.6053292489250452
 21
275.1260420445393038
 31
0.0
  0
ARC
  5
A035
  8
0
 10
4501.3383393879148571
 20
272.5722861660490253
 30
0.0
 40
0.0826573140842531
 50
98.7882941876520562
 51
176.041693820741898
  0
LINE
  5
A036
  8
0
 10
4501.3257106783676136
 20
272.6539730515740985
 30
0.0
 11
4508.4734490373666631
 21
272.6539715953741165
 31
0.0
  0
ARC
  5
A037
  8
0
 10
4508.4608330360588297
 20
272.5723044619517736
 30
0.0
 40
0.0826358528148742
 50
3.9639699068346048
 51
81.2183212518673656
  0
LINE
  5
A038
  8
0
 10
4508.5432712006877409
 20
272.5780170080569178
 30
0.0
 11
4508.5432807154093098
 21
270.2014516738819907
 31
0.0
  0
ARC
  5
A039
  8
0
 10
4508.4608027354070146
 20
270.2071739503551271
 30
0.0
 40
0.0826762458821125
 50
278.7987771596183961
 51
356.031210406332093
  0
LINE
  5
A03A
  8
0
 10
4508.4734492862680781
 20
270.1254706677739819
 30
0.0
 11
4501.3257109302676326
 21
270.1257217799740147
 31
0.0
  0
ARC
  5
A03B
  8
0
 10
4501.3377810837837387
 20
270.206904958151199
 30
0.0
 40
0.0820755568051146
 50
183.8293813992376045
 51
261.5433263201658178
  0
LINE
  5
A03C
  8
0
 10
4501.2558887728309855
 20
270.2014234956017731
 30
0.0
 11
4501.2558792489244297
 21
272.5779920445393145
 31
0.0
  0
ARC
  5
A03D
  8
0
 10
4508.639439387915445
 20
272.5722861660490253
 30
0.0
 40
0.0826573140842531
 50
98.7882941876520562
 51
176.041693820741898
  0
LINE
  5
A03E
  8
0
 10
4508.626810678367292
 20
272.6539730515740985
 30
0.0
 11
4514.715007787623108
 21
272.6539718112330775
 31
0.0
  0
LINE
  5
A03F
  8
0
 10
4515.8443719146152944
 20
272.3996937677363803
 30
0.0
 11
4515.8443807154089882
 21
270.2014516738819907
 31
0.0
  0
ARC
  5
A040
  8
0
 10
4515.7619027354057835
 20
270.2071739503551271
 30
0.0
 40
0.0826762458821125
 50
278.7987771596183961
 51
356.031210406332093
  0
LINE
  5
A041
  8
0
 10
4515.7745492862677565
 20
270.1254706677739819
 30
0.0
 11
4508.6268109302673111
 21
270.1257217799740147
 31
0.0
  0
ARC
  5
A042
  8
0
 10
4508.6388810837852361
 20
270.206904958151199
 30
0.0
 40
0.0820755568051146
 50
183.8293813992376045
 51
261.5433263201658178
  0
LINE
  5
A043
  8
0
 10
4508.5569887728315734
 20
270.2014234956017731
 30
0.0
 11
4508.5569792489250176
 21
272.5779920445393145
 31
0.0
  0
LINE
  5
A044
  8
0
 10
4516.4819538217861918
 20
272.6539729386994964
 30
0.0
 11
4523.0756490373678389
 21
272.6539715953741165
 31
0.0
  0
ARC
  5
A045
  8
0
 10
4523.0630330360581866
 20
272.5723044619517736
 30
0.0
 40
0.0826358528148742
 50
3.9639699068346048
 51
81.2183212518673656
  0
LINE
  5
A046
  8
0
 10
4523.1454712006870977
 20
272.5780170080569178
 30
0.0
 11
4523.1454807154086666
 21
270.2014516738819907
 31
0.0
  0
ARC
  5
A047
  8
0
 10
4523.0630027354072809
 20
270.2071739503551271
 30
0.0
 40
0.0826762458821125
 50
278.7987771596183961
 51
356.031210406332093
  0
LINE
  5
A048
  8
0
 10
4523.0756492862674349
 20
270.1254706677739819
 30
0.0
 11
4515.9279109302669895
 21
270.1257217799740147
 31
0.0
  0
ARC
  5
A049
  8
0
 10
4515.9399810837849145
 20
270.206904958151199
 30
0.0
 40
0.0820755568051146
 50
183.8293813992376045
 51
261.5433263201658178
  0
LINE
  5
A04A
  8
0
 10
4515.8580887728312518
 20
270.2014234956017731
 30
0.0
 11
4515.8580799544361071
 21
272.4019407588714898
 31
0.0
  0
ARC
  5
A04B
  8
0
 10
4512.2899893879148294
 20
270.0242361660489792
 30
0.0
 40
0.0826573140842531
 50
98.7882941876520562
 51
176.041693820741898
  0
LINE
  5
A04C
  8
0
 10
4512.2773606783666764
 20
270.1059230515741092
 30
0.0
 11
4519.4250990373666355
 21
270.1059215953740136
 31
0.0
  0
ARC
  5
A04D
  8
0
 10
4519.4124830360588021
 20
270.0242544619518981
 30
0.0
 40
0.0826358528148742
 50
3.9639699068346048
 51
81.2183212518673656
  0
LINE
  5
A04E
  8
0
 10
4519.4949212006877133
 20
270.0299670080568717
 30
0.0
 11
4519.4949307154092821
 21
267.6534016738818877
 31
0.0
  0
ARC
  5
A04F
  8
0
 10
4519.4124527354069869
 20
267.659123950355081
 30
0.0
 40
0.0826762458821125
 50
278.7987771596183961
 51
356.031210406332093
  0
LINE
  5
A050
  8
0
 10
4519.42509928626896
 20
267.5774206677739926
 30
0.0
 11
4512.2773609302666955
 21
267.5776717799740254
 31
0.0
  0
ARC
  5
A051
  8
0
 10
4512.2894310837846206
 20
267.6588549581512098
 30
0.0
 40
0.0820755568051146
 50
183.8293813992376045
 51
261.5433263201658178
  0
LINE
  5
A052
  8
0
 10
4512.2075387728318674
 20
267.6533734956017838
 30
0.0
 11
4512.2075292489244021
 21
270.0299420445393253
 31
0.0
  0
ARC
  5
A053
  8
0
 10
4504.988889387915151
 20
270.0242361660489792
 30
0.0
 40
0.0826573140842531
 50
98.7882941876520562
 51
176.041693820741898
  0
LINE
  5
A054
  8
0
 10
4504.976260678366998
 20
270.1059230515741092
 30
0.0
 11
4512.1239990373678665
 21
270.1059215953740136
 31
0.0
  0
ARC
  5
A055
  8
0
 10
4512.1113830360582142
 20
270.0242544619518981
 30
0.0
 40
0.0826358528148742
 50
3.9639699068346048
 51
81.2183212518673656
  0
LINE
  5
A056
  8
0
 10
4512.1938212006871254
 20
270.0299670080568717
 30
0.0
 11
4512.1938307154096037
 21
267.6534016738818877
 31
0.0
  0
ARC
  5
A057
  8
0
 10
4512.1113527354073085
 20
267.659123950355081
 30
0.0
 40
0.0826762458821125
 50
278.7987771596183961
 51
356.031210406332093
  0
LINE
  5
A058
  8
0
 10
4512.1239992862665531
 20
267.5774206677739926
 30
0.0
 11
4504.9762609302661076
 21
267.5776717799740254
 31
0.0
  0
ARC
  5
A059
  8
0
 10
4504.9883310837849422
 20
267.6588549581512098
 30
0.0
 40
0.0820755568051146
 50
183.8293813992376045
 51
261.5433263201658178
  0
LINE
  5
A05A
  8
0
 10
4504.9064387728312795
 20
267.6533734956017838
 30
0.0
 11
4504.9064292489247237
 21
270.0299420445393253
 31
0.0
  0
ARC
  5
A05B
  8
0
 10
4497.6877893879145631
 20
270.0242361660489792
 30
0.0
 40
0.0826573140842531
 50
98.7882941876520562
 51
176.041693820741898
  0
LINE
  5
A05C
  8
0
 10
4497.6751606783673196
 20
270.1059230515741092
 30
0.0
 11
4504.8228990373672787
 21
270.1059215953740136
 31
0.0
  0
ARC
  5
A05D
  8
0
 10
4504.8102830360576263
 20
270.0242544619518981
 30
0.0
 40
0.0826358528148742
 50
3.9639699068346048
 51
81.2183212518673656
  0
LINE
  5
A05E
  8
0
 10
4504.892721200687447
 20
270.0299670080568717
 30
0.0
 11
4504.8927307154099253
 21
267.6534016738818877
 31
0.0
  0
ARC
  5
A05F
  8
0
 10
4504.8102527354058111
 20
267.659123950355081
 30
0.0
 40
0.0826762458821125
 50
278.7987771596183961
 51
356.031210406332093
  0
LINE
  5
A060
  8
0
 10
4504.8228992862668747
 20
267.5774206677739926
 30
0.0
 11
4497.6751609302673387
 21
267.5776717799740254
 31
0.0
  0
ARC
  5
A061
  8
0
 10
4497.6872310837852638
 20
267.6588549581512098
 30
0.0
 40
0.0820755568051146
 50
183.8293813992376045
 51
261.5433263201658178
  0
LINE
  5
A062
  8
0
 10
4497.6053387728306916
 20
267.6533734956017838
 30
0.0
 11
4497.6053292489250452
 21
270.0299420445393253
 31
0.0
  0
ARC
  5
A063
  8
0
 10
4519.5908975192533035
 20
290.4088125092634982
 30
0.0
 40
0.0824538872278029
 50
98.6752550162744484
 51
176.1547205045253861
  0
LINE
  5
A064
  8
0
 10
4519.5784606783672643
 20
290.4903230515740802
 30
0.0
 11
4526.2765149503884459
 21
290.4900713748284033
 31
0.0
  0
LINE
  5
A065
  8
0
 10
4526.2765149706519878
 20
287.9620717887962087
 30
0.0
 11
4519.5784609302672834
 21
287.9620717799739964
 31
0.0
  0
ARC
  5
A066
  8
0
 10
4519.5901050206566651
 20
288.042861985981915
 30
0.0
 40
0.0816250098177938
 50
183.5741281445166067
 51
261.7985800050805096
  0
LINE
  5
A067
  8
0
 10
4519.508638773140774
 20
288.037773494696296
 30
0.0
 11
4519.5086292536980181
 21
290.4143420663519919
 31
0.0
  0
ARC
  5
A068
  8
0
 10
4527.7264309279344161
 20
288.3297561569282266
 30
0.0
 40
1.48214524480013
 50
180.6836061534033888
 51
191.0796124919991996
  0
LINE
  5
A069
  8
0
 10
4526.2443911758027753
 20
288.3120728375004092
 30
0.0
 11
4526.2444016931012811
 21
290.1400635294741051
 31
0.0
  0
ARC
  5
A06A
  8
0
 10
4527.7547480584953519
 20
290.1195281129254795
 30
0.0
 40
1.5104859637853101
 50
169.0263617270161944
 51
179.2210262292830123
  0
LINE
  5
A06B
  8
0
 10
4526.2765456036668184
 20
290.4318651834740876
 30
0.0
 11
4526.2718815260768679
 21
290.4070601873544888
 31
0.0
  0
LINE
  5
A06C
  8
0
 10
4526.2765456036668184
 20
288.0203978397740912
 30
0.0
 11
4526.2719112300674169
 21
288.0449281821739191
 31
0.0
  0
ARC
  5
A06D
  8
0
 10
4519.5908975192533035
 20
295.5049125092634767
 30
0.0
 40
0.0824538872278029
 50
98.6752550162744484
 51
176.1547205045253861
  0
LINE
  5
A06E
  8
0
 10
4519.5784606783672643
 20
295.5864230515741156
 30
0.0
 11
4525.5555538152775625
 21
295.575003722221993
 31
0.0
  0
LINE
  5
A06F
  8
0
 10
4526.2765149706492593
 20
293.0581717887961872
 30
0.0
 11
4519.5784609302672834
 21
293.0581717799739749
 31
0.0
  0
ARC
  5
A070
  8
0
 10
4519.5901050206566651
 20
293.1389619859817799
 30
0.0
 40
0.0816250098177938
 50
183.5741281445166067
 51
261.7985800050805096
  0
LINE
  5
A071
  8
0
 10
4519.508638773140774
 20
293.1338734946963882
 30
0.0
 11
4519.5086292536980181
 21
295.5104420663520273
 31
0.0
  0
ARC
  5
A072
  8
0
 10
4527.7264309279344161
 20
293.4258561569280914
 30
0.0
 40
1.48214524480013
 50
180.6836061534033888
 51
191.0796124919991996
  0
LINE
  5
A073
  8
0
 10
4526.2443911758027753
 20
293.4081728375003877
 30
0.0
 11
4526.2444016931012811
 21
295.2361635294740836
 31
0.0
  0
ARC
  5
A074
  8
0
 10
4527.7547480584971709
 20
295.2156281129254012
 30
0.0
 40
1.510485963787308
 50
169.0932626300790957
 51
179.221026229279687
  0
LINE
  5
A075
  8
0
 10
4526.2765456036668184
 20
295.527965183474123
 30
0.0
 11
4526.2715468027636234
 21
295.5014285359329733
 31
0.0
  0
LINE
  5
A076
  8
0
 10
4526.2765456036668184
 20
293.1164978397741265
 30
0.0
 11
4526.2719112300674169
 21
293.141028182173784
 31
0.0
  0
ARC
  5
A077
  8
0
 10
4519.5908975192533035
 20
285.3127125092635197
 30
0.0
 40
0.0824538872278029
 50
98.6752550162744484
 51
176.1547205045253861
  0
LINE
  5
A078
  8
0
 10
4519.5784606783672643
 20
285.3942230515741016
 30
0.0
 11
4526.2765149503911744
 21
285.3939713748284248
 31
0.0
  0
LINE
  5
A079
  8
0
 10
4523.8551436213929264
 20
282.8659717856069733
 30
0.0
 11
4519.5784609302672834
 21
282.8659717799740747
 31
0.0
  0
ARC
  5
A07A
  8
0
 10
4519.5901050206566651
 20
282.9467619859818228
 30
0.0
 40
0.0816250098177938
 50
183.5741281445166067
 51
261.7985800050805096
  0
LINE
  5
A07B
  8
0
 10
4519.508638773140774
 20
282.9416734946963743
 30
0.0
 11
4519.5086292536980181
 21
285.3182420663520134
 31
0.0
  0
LINE
  5
A07C
  8
0
 10
4526.2443935565815991
 20
283.6297712432080971
 30
0.0
 11
4526.2444016931012811
 21
285.0439635294740128
 31
0.0
  0
ARC
  5
A07D
  8
0
 10
4527.7547480584953519
 20
285.0234281129256146
 30
0.0
 40
1.5104859637853101
 50
169.0263617270161944
 51
179.2210262292830123
  0
LINE
  5
A07E
  8
0
 10
4526.2765456036668184
 20
285.3357651834741091
 30
0.0
 11
4526.2718815260768679
 21
285.3109601873546239
 31
0.0
  0
ARC
  5
A07F
  8
0
 10
4519.5908975192533035
 20
280.2166125092634275
 30
0.0
 40
0.0824538872278029
 50
98.6752550162744484
 51
176.1547205045253861
  0
LINE
  5
A080
  8
0
 10
4519.5784606783672643
 20
280.2981230515741231
 30
0.0
 11
4526.2765149503911744
 21
280.2978713748283894
 31
0.0
  0
LINE
  5
A081
  8
0
 10
4526.2765149706538068
 20
277.7698717887961948
 30
0.0
 11
4519.5784609302672834
 21
277.7698717799740962
 31
0.0
  0
ARC
  5
A082
  8
0
 10
4519.5901050206566651
 20
277.8506619859817874
 30
0.0
 40
0.0816250098177938
 50
183.5741281445166067
 51
261.7985800050805096
  0
LINE
  5
A083
  8
0
 10
4519.508638773140774
 20
277.8455734946963958
 30
0.0
 11
4519.5086292536980181
 21
280.222142066351978
 31
0.0
  0
ARC
  5
A084
  8
0
 10
4527.7264309279344161
 20
278.137556156928099
 30
0.0
 40
1.48214524480013
 50
180.6836061534033888
 51
191.0796124919991996
  0
LINE
  5
A085
  8
0
 10
4526.2443911758027753
 20
278.1198728375003952
 30
0.0
 11
4526.2444016931012811
 21
279.9478635294739775
 31
0.0
  0
ARC
  5
A086
  8
0
 10
4527.7547480584953519
 20
279.9273281129255224
 30
0.0
 40
1.5104859637853101
 50
169.0263617270161944
 51
179.2210262292830123
  0
LINE
  5
A087
  8
0
 10
4526.2765456036668184
 20
280.2396651834740737
 30
0.0
 11
4526.2718815260768679
 21
280.2148601873544749
 31
0.0
  0
LINE
  5
A088
  8
0
 10
4526.2765456036668184
 20
277.8281978397740772
 30
0.0
 11
4526.2719112300674169
 21
277.8527281821739052
 31
0.0
  0
ARC
  5
A089
  8
0
 10
4519.5908975192533035
 20
275.1205125092635058
 30
0.0
 40
0.0824538872278029
 50
98.6752550162744484
 51
176.1547205045253861
  0
LINE
  5
A08A
  8
0
 10
4519.5784606783672643
 20
275.2020230515740877
 30
0.0
 11
4526.2765149504075453
 21
275.2017713748284109
 31
0.0
  0
LINE
  5
A08B
  8
0
 10
4526.2765149705810472
 20
272.6737717887962162
 30
0.0
 11
4519.5784609302672834
 21
272.6737717799740039
 31
0.0
  0
ARC
  5
A08C
  8
0
 10
4519.5901050206566651
 20
272.7545619859818089
 30
0.0
 40
0.0816250098177938
 50
183.5741281445166067
 51
261.7985800050805096
  0
LINE
  5
A08D
  8
0
 10
4519.508638773140774
 20
272.7494734946964172
 30
0.0
 11
4519.5086292536980181
 21
275.1260420663521131
 31
0.0
  0
ARC
  5
A08E
  8
0
 10
4527.7264309279344161
 20
273.0414561569281204
 30
0.0
 40
1.48214524480013
 50
180.6836061534033888
 51
191.0796124919991996
  0
LINE
  5
A08F
  8
0
 10
4526.2443911758027753
 20
273.0237728375004167
 30
0.0
 11
4526.2444016931012811
 21
274.8517635294739989
 31
0.0
  0
ARC
  5
A090
  8
0
 10
4527.7547480584953519
 20
274.831228112925487
 30
0.0
 40
1.5104859637853101
 50
169.0263617270161944
 51
179.2210262292830123
  0
LINE
  5
A091
  8
0
 10
4526.2765456036668184
 20
275.1435651834739815
 30
0.0
 11
4526.2718815260768679
 21
275.1187601873544963
 31
0.0
  0
LINE
  5
A092
  8
0
 10
4526.2765456036668184
 20
272.732097839773985
 30
0.0
 11
4526.2719112300674169
 21
272.7566281821739267
 31
0.0
  0
ARC
  5
A093
  8
0
 10
4519.5908975192533035
 20
270.0244125092635272
 30
0.0
 40
0.0824538872278029
 50
98.6752550162744484
 51
176.1547205045253861
  0
LINE
  5
A094
  8
0
 10
4519.5784606783672643
 20
270.1059230515741092
 30
0.0
 11
4526.2765149503165958
 21
270.1056713748283755
 31
0.0
  0
LINE
  5
A095
  8
0
 10
4526.2865565882666488
 20
267.5776717888094254
 30
0.0
 11
4519.5784609302672834
 21
267.5776717799740823
 31
0.0
  0
ARC
  5
A096
  8
0
 10
4519.5901050206566651
 20
267.6584619859817735
 30
0.0
 40
0.0816250098177938
 50
183.5741281445166067
 51
261.7985800050805096
  0
LINE
  5
A097
  8
0
 10
4519.508638773140774
 20
267.6533734946963818
 30
0.0
 11
4519.5086292536980181
 21
270.0299420663520209
 31
0.0
  0
ARC
  5
A098
  8
0
 10
4527.7264309279344161
 20
267.9453561569280851
 30
0.0
 40
1.48214524480013
 50
180.6836061534033888
 51
191.0796124919991996
  0
LINE
  5
A099
  8
0
 10
4526.2443911758027753
 20
267.9276728375003813
 30
0.0
 11
4526.2444016931012811
 21
269.7556635294740772
 31
0.0
  0
ARC
  5
A09A
  8
0
 10
4527.7547480584953519
 20
269.7351281129256222
 30
0.0
 40
1.5104859637853101
 50
169.0263617270161944
 51
179.2210262292830123
  0
LINE
  5
A09B
  8
0
 10
4526.2765456036668184
 20
270.0474651834741167
 30
0.0
 11
4526.2718815260768679
 21
270.0226601873545178
 31
0.0
  0
LINE
  5
A09C
  8
0
 10
4526.2865565882666488
 20
267.5803606582741168
 30
0.0
 11
4526.2719112300674169
 21
267.6605281821738913
 31
0.0
  0
ARC
  5
A09D
  8
0
 10
4527.7811373761933282
 20
292.6565379945860741
 30
0.0
 40
1.552264963746703
 50
165.7694696824596861
 51
178.8341249082600086
  0
LINE
  5
A09E
  8
0
 10
4526.2291937634472561
 20
292.6881218596740837
 30
0.0
 11
4526.229193763371768
 21
290.8601218596887179
 31
0.0
  0
ARC
  5
A09F
  8
0
 10
4527.7811402432525938
 20
290.8917059011463948
 30
0.0
 40
1.5522678338785421
 50
181.1658794470899068
 51
194.2305101640002079
  0
ARC
  5
A0A0
  8
0
 10
4523.2351950479423977
 20
292.9633779120160852
 30
0.0
 40
0.0755817696212508
 50
90.8347771827843644
 51
184.2985242068677962
  0
LINE
  5
A0A1
  8
0
 10
4523.2340938899678804
 20
293.0389516597739998
 30
0.0
 11
4526.2765044403686261
 21
293.03812185969349
 31
0.0
  0
LINE
  5
A0A2
  8
0
 10
4526.2765043911485918
 20
290.5101218597409911
 30
0.0
 11
4523.2407694556140996
 21
290.5066262095232901
 31
0.0
  0
ARC
  5
A0A3
  8
0
 10
4523.2393765255437756
 20
290.586346581846783
 30
0.0
 40
0.0797325405187388
 50
176.929365256165795
 51
271.0010100502126988
  0
LINE
  5
A0A4
  8
0
 10
4523.1597584605669908
 20
290.5906176176740132
 30
0.0
 11
4523.159825884968086
 21
292.9577128284742003
 31
0.0
  0
ARC
  5
A0A5
  8
0
 10
4527.7811373761969662
 20
287.5604379945859819
 30
0.0
 40
1.552264963746703
 50
165.7694696824596861
 51
178.8341249082600086
  0
LINE
  5
A0A6
  8
0
 10
4526.2291937634518035
 20
287.5920218596741051
 30
0.0
 11
4526.2291937633763155
 21
285.7640218596886257
 31
0.0
  0
ARC
  5
A0A7
  8
0
 10
4527.7811402432580508
 20
285.7956059011463026
 30
0.0
 40
1.5522678338785421
 50
181.1658794470899068
 51
194.2305101640002079
  0
ARC
  5
A0A8
  8
0
 10
4523.2351950479469451
 20
287.867277912015993
 30
0.0
 40
0.0755817696212508
 50
90.8347771827843644
 51
184.2985242068677962
  0
LINE
  5
A0A9
  8
0
 10
4523.2340938899724279
 20
287.9428516597740781
 30
0.0
 11
4526.2765044403740831
 21
287.9420218596936252
 31
0.0
  0
LINE
  5
A0AA
  8
0
 10
4526.2765043911540488
 20
285.4140218597410126
 30
0.0
 11
4523.2407694556168281
 21
285.4105262095233115
 31
0.0
  0
ARC
  5
A0AB
  8
0
 10
4523.2393765255483231
 20
285.4902465818468045
 30
0.0
 40
0.0797325405187388
 50
176.929365256165795
 51
271.0010100502126988
  0
LINE
  5
A0AC
  8
0
 10
4523.1597584605724478
 20
285.4945176176740915
 30
0.0
 11
4523.1598258849708145
 21
287.861612828474108
 31
0.0
  0
ARC
  5
A0AD
  8
0
 10
4527.7811402432580508
 20
280.6995059011463809
 30
0.0
 40
1.5522678338785421
 50
182.5877626933011868
 51
194.2305101640002079
  0
ARC
  5
A0AE
  8
0
 10
4523.2351950479469451
 20
282.7711779120160145
 30
0.0
 40
0.0755817696212508
 50
90.8347771827843644
 51
184.2985242068677962
  0
LINE
  5
A0AF
  8
0
 10
4523.2340938899724279
 20
282.8467516597740996
 30
0.0
 11
4523.7777889087101357
 21
282.8466033700665889
 31
0.0
  0
LINE
  5
A0B0
  8
0
 10
4526.2765043911540488
 20
280.3179218597409772
 30
0.0
 11
4523.2407694556168281
 21
280.3144262095232762
 31
0.0
  0
ARC
  5
A0B1
  8
0
 10
4523.2393765255483231
 20
280.3941465818468259
 30
0.0
 40
0.0797325405187388
 50
176.929365256165795
 51
271.0010100502126988
  0
LINE
  5
A0B2
  8
0
 10
4523.1597584605724478
 20
280.3984176176739993
 30
0.0
 11
4523.1598258849708145
 21
282.7655128284740726
 31
0.0
  0
ARC
  5
A0B3
  8
0
 10
4527.7811373761969662
 20
277.3682379945860248
 30
0.0
 40
1.552264963746703
 50
165.7694696824596861
 51
178.8341249082600086
  0
LINE
  5
A0B4
  8
0
 10
4526.2291937634518035
 20
277.3998218596739775
 30
0.0
 11
4526.2291937633763155
 21
275.5718218596886118
 31
0.0
  0
ARC
  5
A0B5
  8
0
 10
4527.7811402432580508
 20
275.6034059011464024
 30
0.0
 40
1.5522678338785421
 50
181.1658794470899068
 51
194.2305101640002079
  0
ARC
  5
A0B6
  8
0
 10
4523.2351950479469451
 20
277.6750779120159791
 30
0.0
 40
0.0755817696212508
 50
90.8347771827843644
 51
184.2985242068677962
  0
LINE
  5
A0B7
  8
0
 10
4523.2340938899724279
 20
277.7506516597741211
 30
0.0
 11
4526.2765044403740831
 21
277.7498218596936113
 31
0.0
  0
LINE
  5
A0B8
  8
0
 10
4526.2765043911540488
 20
275.2218218597409987
 30
0.0
 11
4523.2407694556168281
 21
275.2183262095232976
 31
0.0
  0
ARC
  5
A0B9
  8
0
 10
4523.2393765255483231
 20
275.2980465818467906
 30
0.0
 40
0.0797325405187388
 50
176.929365256165795
 51
271.0010100502126988
  0
LINE
  5
A0BA
  8
0
 10
4523.1597584605724478
 20
275.3023176176740776
 30
0.0
 11
4523.1598258849708145
 21
277.6694128284740941
 31
0.0
  0
ARC
  5
A0BB
  8
0
 10
4527.7811373760969218
 20
272.2721379945859894
 30
0.0
 40
1.552264963746703
 50
165.7694696824596861
 51
178.8341249082600086
  0
LINE
  5
A0BC
  8
0
 10
4526.2291937633508496
 20
272.303721859673999
 30
0.0
 11
4526.2291937632762711
 21
270.4757218596885764
 31
0.0
  0
ARC
  5
A0BD
  8
0
 10
4527.7811402431580063
 20
270.5073059011464238
 30
0.0
 40
1.5522678338785421
 50
181.1658794470899068
 51
194.2305101640002079
  0
ARC
  5
A0BE
  8
0
 10
4523.2351950478459912
 20
272.5789779120161143
 30
0.0
 40
0.0755817696212508
 50
90.8347771827843644
 51
184.2985242068677962
  0
LINE
  5
A0BF
  8
0
 10
4523.2340938898723834
 20
272.6545516597740857
 30
0.0
 11
4526.2765044402740386
 21
272.653721859693519
 31
0.0
  0
LINE
  5
A0C0
  8
0
 10
4526.2765043910540044
 20
270.1257218597410201
 30
0.0
 11
4523.2407694555176931
 21
270.1222262095233191
 31
0.0
  0
ARC
  5
A0C1
  8
0
 10
4523.2393765254482787
 20
270.201946581846812
 30
0.0
 40
0.0797325405187388
 50
176.929365256165795
 51
271.0010100502126988
  0
LINE
  5
A0C2
  8
0
 10
4523.1597584604724034
 20
270.2062176176739854
 30
0.0
 11
4523.1598258848716796
 21
272.5733128284741156
 31
0.0
  0
LINE
  5
A0C3
  8
0
 10
4526.2765456036668184
 20
270.0474651834741167
 30
0.0
 11
4526.2765043910540044
 21
270.1257218597410201
 31
0.0
  0
LINE
  5
A0C4
  8
0
 10
4526.2765456036668184
 20
272.732097839773985
 30
0.0
 11
4526.2765044402740386
 21
272.653721859693519
 31
0.0
  0
LINE
  5
A0C5
  8
0
 10
4526.2765043911758767
 20
275.2218218597409987
 30
0.0
 11
4526.2765456036668184
 21
275.1435651834740952
 31
0.0
  0
LINE
  5
A0C6
  8
0
 10
4526.2765456036668184
 20
277.8281978397740772
 30
0.0
 11
4526.2765044403740831
 21
277.7498218596936113
 31
0.0
  0
LINE
  5
A0C7
  8
0
 10
4526.2765043911540488
 20
280.3179218597409772
 30
0.0
 11
4526.2765456036668184
 21
280.2396651834740737
 31
0.0
  0
LINE
  5
A0C8
  8
0
 10
4526.2765043911540488
 20
285.4140218597407852
 30
0.0
 11
4526.2765456036668184
 21
285.3357651834741091
 31
0.0
  0
LINE
  5
A0C9
  8
0
 10
4526.2765044403704451
 20
287.9420218596982863
 30
0.0
 11
4526.2765456036668184
 21
288.0203978397740912
 31
0.0
  0
LINE
  5
A0CA
  8
0
 10
4526.2765043911485918
 20
290.5101218597408774
 30
0.0
 11
4526.2765456036668184
 21
290.4318651834740876
 31
0.0
  0
LINE
  5
A0CB
  8
0
 10
4526.2765456036668184
 20
293.1164978397741265
 30
0.0
 11
4526.2765044403658976
 21
293.0381218596814961
 31
0.0
  0
ARC
  5
A0CC
  8
0
 10
4525.980979073103299
 20
295.6027974855949196
 30
0.0
 40
0.3048925178335519
 50
345.7922624657264237
 51
1.2637496254897831
  0
LINE
  5
A0CD
  8
0
 10
4525.8487876851877445
 20
295.6563293142065163
 30
0.0
 11
4471.8076799822683824
 21
295.6563293142065163
 31
0.0
  0
LINE
  5
A0CE
  8
0
 10
4470.3076799822683824
 20
295.6563293142065163
 30
0.0
 11
4469.3481695565860718
 21
295.6563293142065163
 31
0.0
  0
ARC
  5
A0CF
  8
0
 10
4527.8470740252842006
 20
313.0356364712669119
 30
0.0
 40
1.618225219196606
 50
166.0433771215161016
 51
178.6939023676048919
  0
LINE
  5
A0D0
  8
0
 10
4526.229269238494453
 20
313.0725218596907098
 30
0.0
 11
4526.2292692107257608
 21
311.2445218596740801
 31
0.0
  0
ARC
  5
A0D1
  8
0
 10
4527.8470652181158584
 20
311.281406197115416
 30
0.0
 40
1.6182164181199781
 50
181.3060675156332024
 51
193.9566620051002133
  0
ARC
  5
A0D2
  8
0
 10
4526.0227546508767773
 20
266.9419293067156786
 30
0.0
 40
0.0622799297156135
 50
173.1977761761718
 51
267.1881793452728857
  0
ARC
  5
A0D3
  8
0
 10
4526.107668283948442
 20
267.0047280026296903
 30
0.0
 40
0.1250036442470351
 50
170.7935793664780135
 51
269.9917642786932106
  0
ARC
  5
A0D4
  8
0
 10
4527.5459084488556982
 20
266.7673597255715094
 30
0.0
 40
1.595404217641563
 50
159.8966152267504128
 51
173.4515163292954867
  0
ARC
  5
A0D5
  8
0
 10
4527.5701596786948357
 20
266.7676847779983973
 30
0.0
 40
1.6065806992969269
 50
160.0547695640912025
 51
170.7934697040724075
  0
ARC
  5
A0D6
  8
0
 10
4526.2738280434632543
 20
267.2332601776896013
 30
0.0
 40
0.2406897594336453
 50
114.2045558551182012
 51
159.9636597905428061
  0
ARC
  5
A0D7
  8
0
 10
4526.2855088983988026
 20
267.233886410380876
 30
0.0
 40
0.2399528833841081
 50
114.1778317577016963
 51
160.0586286530864015
  0
ARC
  5
A0D8
  8
0
 10
4526.0934771510937935
 20
267.6386168873444831
 30
0.0
 40
0.202981208693281
 50
293.7250691569058176
 51
332.205909222401317
  0
ARC
  5
A0D9
  8
0
 10
4526.1068715293367859
 20
267.633567500245988
 30
0.0
 40
0.197833514560077
 50
293.9663059948496766
 51
333.0697711040762101
  0
LINE
  5
A0DA
  8
0
 10
4526.2730402292672807
 20
267.5439676821741273
 30
0.0
 11
4468.9239197352662814
 21
267.5439676821741273
 31
0.0
  0
LINE
  5
A0DB
  8
0
 10
4526.2865565882666488
 20
267.5803606582741168
 30
0.0
 11
4526.2865565882666488
 21
267.5576597316739935
 31
0.0
  0
ARC
  5
A0DC
  8
0
 10
4526.2564339555656261
 20
267.5576855942293832
 30
0.0
 40
0.030122643800803
 50
332.9091988378103792
 51
359.9508071867905983
  0
ARC
  5
A0DD
  8
0
 10
4525.5001028016185955
 20
281.1132721540084276
 30
0.0
 40
14.4618378764934992
 50
86.9009795169141483
 51
89.780310299137895
  0
ARC
  5
A0DE
  8
0
 10
4469.4396092998622407
 20
265.4946679241326137
 30
0.0
 40
0.6323823595832474
 50
181.8229587880784095
 51
269.1967365798140008
  0
LINE
  5
A0DF
  8
0
 10
4468.1434799822673085
 20
266.8797243596741282
 30
0.0
 11
4468.1338274886056752
 21
267.1560576415740798
 31
0.0
  0
LINE
  5
A0E0
  8
0
 10
4467.8830221615853588
 20
267.4067878298947107
 30
0.0
 11
4467.627430274602375
 21
267.4157132981636096
 31
0.0
  0
ARC
  5
A0E1
  8
0
 10
4468.6376213819958139
 20
266.7546504990739891
 30
0.0
 40
0.125154397011138
 50
1.3885425263817881
 51
87.9444214544952558
  0
LINE
  5
A0E2
  8
0
 10
4468.7627390281077169
 20
266.7576832738034796
 30
0.0
 11
4468.8075469930190593
 21
265.4745510411427745
 31
0.0
  0
ARC
  5
A0E3
  8
0
 10
4467.629524481878434
 20
267.4467063138636718
 30
0.0
 40
0.031063688227581
 50
181.865616839597493
 51
266.1343831573921079
  0
ARC
  5
A0E4
  8
0
 10
4467.6359772595524191
 20
325.1278932963926991
 30
0.0
 40
0.0624999999534858
 50
359.9999999829794888
 51
87.000000100287636
  0
CIRCLE
  5
A0E5
  8
0
 10
4468.3484772595056711
 20
324.7018003596739959
 30
0.0
 40
0.09375
  0
CIRCLE
  5
A0E6
  8
0
 10
4469.0984772595056711
 20
324.7018003596739959
 30
0.0
 40
0.09375
  0
CIRCLE
  5
A0E7
  8
0
 10
4469.8484772595056711
 20
324.7018003596739959
 30
0.0
 40
0.09375
  0
CIRCLE
  5
A0E8
  8
0
 10
4470.5984772595056711
 20
324.7018003596739959
 30
0.0
 40
0.09375
  0
CIRCLE
  5
A0E9
  8
0
 10
4471.3484772595056711
 20
324.7018003596739959
 30
0.0
 40
0.09375
  0
CIRCLE
  5
A0EA
  8
0
 10
4472.0984772595056711
 20
324.7018003596739959
 30
0.0
 40
0.09375
  0
CIRCLE
  5
A0EB
  8
0
 10
4472.8484772595056711
 20
324.7018003596739959
 30
0.0
 40
0.09375
  0
CIRCLE
  5
A0EC
  8
0
 10
4473.5984772595056711
 20
324.7018003596739959
 30
0.0
 40
0.09375
  0
CIRCLE
  5
A0ED
  8
0
 10
4474.3484772595056711
 20
324.7018003596739959
 30
0.0
 40
0.09375
  0
CIRCLE
  5
A0EE
  8
0
 10
4475.0984772595056711
 20
324.7018003596739959
 30
0.0
 40
0.09375
  0
CIRCLE
  5
A0EF
  8
0
 10
4475.8484772595056711
 20
324.7018003596739959
 30
0.0
 40
0.09375
  0
CIRCLE
  5
A0F0
  8
0
 10
4476.5984772595047616
 20
324.7018003596739959
 30
0.0
 40
0.09375
  0
CIRCLE
  5
A0F1
  8
0
 10
4477.3484772595047616
 20
324.7018003596739959
 30
0.0
 40
0.09375
  0
CIRCLE
  5
A0F2
  8
0
 10
4478.0984772595047616
 20
324.7018003596739959
 30
0.0
 40
0.09375
  0
CIRCLE
  5
A0F3
  8
0
 10
4478.8484772595047616
 20
324.7018003596739959
 30
0.0
 40
0.09375
  0
CIRCLE
  5
A0F4
  8
0
 10
4479.5984772595047616
 20
324.7018003596739959
 30
0.0
 40
0.09375
  0
CIRCLE
  5
A0F5
  8
0
 10
4480.3484772595047616
 20
324.7018003596739959
 30
0.0
 40
0.09375
  0
CIRCLE
  5
A0F6
  8
0
 10
4481.0984772595047616
 20
324.7018003596739959
 30
0.0
 40
0.09375
  0
CIRCLE
  5
A0F7
  8
0
 10
4481.8484772595047616
 20
324.7018003596739959
 30
0.0
 40
0.09375
  0
CIRCLE
  5
A0F8
  8
0
 10
4482.5984772595047616
 20
324.7018003596739959
 30
0.0
 40
0.09375
  0
CIRCLE
  5
A0F9
  8
0
 10
4483.3484772595056711
 20
324.7018003596739959
 30
0.0
 40
0.09375
  0
CIRCLE
  5
A0FA
  8
0
 10
4484.0984772595056711
 20
324.7018003596739959
 30
0.0
 40
0.09375
  0
CIRCLE
  5
A0FB
  8
0
 10
4484.8484772595056711
 20
324.7018003596739959
 30
0.0
 40
0.09375
  0
CIRCLE
  5
A0FC
  8
0
 10
4485.5984772595056711
 20
324.7018003596739959
 30
0.0
 40
0.09375
  0
CIRCLE
  5
A0FD
  8
0
 10
4486.3484772595056711
 20
324.7018003596739959
 30
0.0
 40
0.09375
  0
CIRCLE
  5
A0FE
  8
0
 10
4487.0984772595056711
 20
324.7018003596739959
 30
0.0
 40
0.09375
  0
CIRCLE
  5
A0FF
  8
0
 10
4487.8484772595056711
 20
324.7018003596739959
 30
0.0
 40
0.09375
  0
CIRCLE
  5
A100
  8
0
 10
4488.5984772595056711
 20
324.7018003596739959
 30
0.0
 40
0.09375
  0
CIRCLE
  5
A101
  8
0
 10
4496.8484772594056267
 20
324.7018003596739959
 30
0.0
 40
0.09375
  0
CIRCLE
  5
A102
  8
0
 10
4496.0984772594056267
 20
324.7018003596739959
 30
0.0
 40
0.09375
  0
CIRCLE
  5
A103
  8
0
 10
4495.3484772594056267
 20
324.7018003596739959
 30
0.0
 40
0.09375
  0
CIRCLE
  5
A104
  8
0
 10
4494.5984772594056267
 20
324.7018003596739959
 30
0.0
 40
0.09375
  0
CIRCLE
  5
A105
  8
0
 10
4493.8484772594056267
 20
324.7018003596739959
 30
0.0
 40
0.09375
  0
CIRCLE
  5
A106
  8
0
 10
4493.0984772594056267
 20
324.7018003596739959
 30
0.0
 40
0.09375
  0
CIRCLE
  5
A107
  8
0
 10
4492.3484772594056267
 20
324.7018003596739959
 30
0.0
 40
0.09375
  0
CIRCLE
  5
A108
  8
0
 10
4491.5984772594047172
 20
324.7018003596739959
 30
0.0
 40
0.09375
  0
CIRCLE
  5
A109
  8
0
 10
4490.8484772594047172
 20
324.7018003596739959
 30
0.0
 40
0.09375
  0
CIRCLE
  5
A10A
  8
0
 10
4490.0984772594047172
 20
324.7018003596739959
 30
0.0
 40
0.09375
  0
CIRCLE
  5
A10B
  8
0
 10
4489.3484772594047172
 20
324.7018003596739959
 30
0.0
 40
0.09375
  0
ARC
  5
A10C
  8
0
 10
4468.1385576115253571
 20
311.9107769296618926
 30
0.0
 40
13.2924619577110192
 50
90.9490273167233454
 51
91.5913717002702157
  0
ARC
  5
A10D
  8
0
 10
4467.7765708230872406
 20
325.1332414256800121
 30
0.0
 40
0.0652645652224314
 50
96.2980609704425206
 51
106.839801671930104
  0
ARC
  5
A10E
  8
0
 10
4467.7586534135480179
 20
325.1923847775198055
 30
0.0
 40
0.0034667890539801
 50
106.5845051380289021
 51
156.1948510659302087
  0
LINE
  5
A10F
  8
0
 10
4467.755481567121933
 20
325.1937840689823815
 30
0.0
 11
4467.6985017833603706
 21
325.0983055657339946
 31
0.0
  0
ARC
  5
A110
  8
0
 10
4467.7612205453606293
 20
323.995401737941279
 30
0.0
 40
0.0631070482025065
 50
186.1548244795963001
 51
266.8064174934531252
  0
LINE
  5
A111
  8
0
 10
4467.7577048723451298
 20
323.9323926942560092
 30
0.0
 11
4468.518095703921972
 21
323.8925318486735137
 31
0.0
  0
ARC
  5
A112
  8
0
 10
4468.50451756233997
 20
323.6347267495395954
 30
0.0
 40
0.2581624199379199
 50
359.9994696005675223
 51
86.985117613220396
  0
LINE
  5
A113
  8
0
 10
4468.7626799822674002
 20
323.6347243596741237
 30
0.0
 11
4468.7626772595058355
 21
267.0047243596741282
 31
0.0
  0
ARC
  5
A114
  8
0
 10
4468.63753701751466
 20
267.0047810121017164
 30
0.0
 40
0.1251402548152468
 50
272.0944627187492983
 51
359.9740615430495723
  0
ARC
  5
A115
  8
0
 10
4467.3515389757976664
 20
323.2280580340861889
 30
0.0
 40
1.6165649126030699
 50
1.299682892624161
 51
13.9631559315547307
  0
LINE
  5
A116
  8
0
 10
4468.9676880026208892
 20
323.2647246368147762
 30
0.0
 11
4468.9676880033057387
 21
321.436721859674094
 31
0.0
  0
ARC
  5
A117
  8
0
 10
4467.3498941967109204
 20
321.4736057788991843
 30
0.0
 40
1.618214208364283
 50
346.0433338061110931
 51
358.6939455121008109
  0
ARC
  5
A118
  8
0
 10
4479.25647550868689
 20
323.5333422265567833
 30
0.0
 40
0.082590736034968
 50
3.9421117062397459
 51
81.2913706712686945
  0
LINE
  5
A119
  8
0
 10
4479.2689805469071871
 20
323.6149807817740793
 30
0.0
 11
4472.1278706150060316
 21
323.6174633333740189
 31
0.0
  0
ARC
  5
A11A
  8
0
 10
4472.1371385660559099
 20
323.5320169645917758
 30
0.0
 40
0.0859475238429649
 50
96.1903935601904863
 51
175.3450164775236999
  0
LINE
  5
A11B
  8
0
 10
4472.0514745438058526
 20
323.5389920736740805
 30
0.0
 11
4472.0514836889060462
 21
321.1624234784632108
 31
0.0
  0
ARC
  5
A11C
  8
0
 10
4472.1337180000282387
 20
321.1679533439174179
 30
0.0
 40
0.0824200299533133
 50
183.8470763153709129
 51
261.3864160044975051
  0
LINE
  5
A11D
  8
0
 10
4472.1213739720060403
 20
321.086462937674014
 30
0.0
 11
4479.2624838968058611
 21
321.0839803859740869
 31
0.0
  0
ARC
  5
A11E
  8
0
 10
4479.253221823279091
 20
321.1694210396807989
 30
0.0
 40
0.0859412084614658
 50
276.186908807080215
 51
355.3485027668352814
  0
LINE
  5
A11F
  8
0
 10
4479.3388799752056002
 20
321.1624516551740953
 30
0.0
 11
4479.3388708366046558
 21
323.5390202205741161
 31
0.0
  0
ARC
  5
A120
  8
0
 10
4471.9576123422857563
 20
323.5384937589051901
 30
0.0
 40
0.0796300539901669
 50
356.9903457378686085
 51
90.9176753424951443
  0
LINE
  5
A121
  8
0
 10
4471.9563370055429914
 20
323.6181135994895044
 30
0.0
 11
4468.9203361631061853
 21
323.6181317473145782
 31
0.0
  0
LINE
  5
A122
  8
0
 10
4468.9203361624913668
 20
321.0833119712742132
 30
0.0
 11
4471.9561887618583569
 21
321.0831779938326918
 31
0.0
  0
ARC
  5
A123
  8
0
 10
4471.9574282209650846
 20
321.1630478442419871
 30
0.0
 40
0.0798794670943839
 50
269.1109276478640027
 51
2.9922440426895971
  0
LINE
  5
A124
  8
0
 10
4472.0371987812068255
 20
321.1672176142740227
 30
0.0
 11
4472.0371325627047554
 21
323.5343128447739787
 31
0.0
  0
LINE
  5
A125
  8
0
 10
4467.6984772595060349
 20
325.1278932963741113
 30
0.0
 11
4467.6984772582827645
 21
323.9886356859573198
 31
0.0
  0
ARC
  5
A126
  8
0
 10
4474.7570495084246431
 20
251.6035288873138995
 30
0.0
 40
1.879844777336759
 50
202.2380808908012
 51
270.5884045606703125
  0
ARC
  5
A127
  8
0
 10
4501.4431778379548632
 20
262.1669851799809976
 30
0.0
 40
30.5805362079423695
 50
178.4746908275257908
 51
201.6351654411344896
  0
LINE
  5
A128
  8
0
 10
4467.5984772595056711
 20
325.1924443596740275
 30
0.0
 11
4467.5984772595056711
 21
267.445695022974121
 31
0.0
  0
ARC
  5
A129
  8
0
 10
4469.7735811664424546
 20
298.1841741134833796
 30
0.0
 40
0.7885450019640446
 50
183.6435038812547873
 51
265.5337334520377794
  0
ARC
  5
A12A
  8
0
 10
4469.3328970986904096
 20
292.3533639689051142
 30
0.0
 40
3.3030006539860381
 50
89.73507407661765
 51
97.2517978588189038
  0
LINE
  5
A12B
  8
0
 10
4467.6392482598057541
 20
325.1903076420741172
 30
0.0
 11
4467.5984772595056711
 21
325.1924443596740275
 31
0.0
  0
ARC
  5
A12C
  8
0
 10
4471.6971960286909962
 20
347.8200793167657139
 30
0.0
 40
23.8808134902855613
 50
263.9089544909073766
 51
270.8323867974668815
  0
ARC
  5
A12D
  8
0
 10
4468.1344311167840715
 20
319.1867178695404732
 30
0.0
 40
4.9944754097227317
 50
78.1126399366005302
 51
86.9725204678038466
  0
ARC
  5
A12E
  8
0
 10
-4361.1673744200297733
 20
-167832.8087607919005677
 30
0.0
 40
168388.6342796013050247
 50
86.9942807629816315
 51
86.9944453648087261
  0
ARC
  5
A12F
  8
0
 10
4467.9184821692060723
 20
324.2620459992219253
 30
0.0
 40
0.0625483017807696
 50
180.1467563129847917
 51
266.9232501539567011
  0
LINE
  5
A130
  8
0
 10
4467.8559340726060327
 20
324.2618857893741051
 30
0.0
 11
4467.8559340726060327
 21
325.1319608426741183
 31
0.0
  0
ARC
  5
A131
  8
0
 10
4467.7850804486843117
 20
325.1282917271852284
 30
0.0
 40
0.070948561869052
 50
2.964382161826796
 51
83.3001860012800392
  0
ARC
  5
A132
  8
0
 10
4467.8739872295145688
 20
267.1469448519616208
 30
0.0
 40
0.2600000061127105
 50
2.0085820441815541
 51
88.0085857546621355
  0
LINE
  5
A133
  8
0
 10
4467.6441377290047967
 20
246.8797243596740998
 30
0.0
 11
4467.6441377290047967
 21
262.980993879073992
 31
0.0
  0
ARC
  5
A134
  8
0
 10
4299.7740296927404415
 20
264.0878013089314891
 30
0.0
 40
167.8737567185355033
 50
359.6222408127055132
 51
1.137156888582481
  0
LINE
  5
A135
  8
0
 10
4467.8154474680059138
 20
267.3797243596741282
 30
0.0
 11
4467.6155067996296566
 21
267.3797243596741282
 31
0.0
  0
LINE
  5
A136
  8
0
 10
4467.7410118099060128
 20
267.3797243596741282
 30
0.0
 11
4467.7398757517521517
 21
267.4117866143000128
 31
0.0
  0
ARC
  5
A137
  8
0
 10
4467.8154474680059138
 20
267.1047243596740941
 30
0.0
 40
0.2749999999999932
 50
2.0012180976993781
 51
90.0
  0
LINE
  5
A138
  8
0
 10
4468.0902797413364169
 20
267.1143275641528021
 30
0.0
 11
4468.0974656097059778
 21
266.9086768851740885
 31
0.0
  0
ARC
  5
A139
  8
0
 10
4468.1307813902922135
 20
266.913177260274324
 30
0.0
 40
0.033618367184186
 50
187.6930835449863935
 51
264.3130060873314733
  0
ARC
  5
A13A
  8
0
 10
4486.5575755086865684
 20
323.5333422265567833
 30
0.0
 40
0.082590736034968
 50
3.9421117062397459
 51
81.2913706712686945
  0
LINE
  5
A13B
  8
0
 10
4486.570080546905956
 20
323.6149807817740793
 30
0.0
 11
4479.42897061500571
 21
323.6174633333740189
 31
0.0
  0
ARC
  5
A13C
  8
0
 10
4479.4382385660546788
 20
323.5320169645917758
 30
0.0
 40
0.0859475238429649
 50
96.1903935601904863
 51
175.3450164775236999
  0
LINE
  5
A13D
  8
0
 10
4479.3525745438046215
 20
323.5389920736740805
 30
0.0
 11
4479.3525836889057246
 21
321.1624234784632108
 31
0.0
  0
ARC
  5
A13E
  8
0
 10
4479.4348180000279172
 20
321.1679533439174179
 30
0.0
 40
0.0824200299533133
 50
183.8470763153709129
 51
261.3864160044975051
  0
LINE
  5
A13F
  8
0
 10
4479.4224739720057187
 20
321.086462937674014
 30
0.0
 11
4486.563583896806449
 21
321.0839803859740869
 31
0.0
  0
ARC
  5
A140
  8
0
 10
4486.5543218232787694
 20
321.1694210396807989
 30
0.0
 40
0.0859412084614658
 50
276.186908807080215
 51
355.3485027668352814
  0
LINE
  5
A141
  8
0
 10
4486.6399799752061881
 20
321.1624516551740953
 30
0.0
 11
4486.6399708366061532
 21
323.5390202205741161
 31
0.0
  0
ARC
  5
A142
  8
0
 10
4493.8586755086880657
 20
323.5333422265567833
 30
0.0
 40
0.082590736034968
 50
3.9421117062397459
 51
81.2913706712686945
  0
LINE
  5
A143
  8
0
 10
4493.8711805469056344
 20
323.6149807817740793
 30
0.0
 11
4486.7300706150053884
 21
323.6174633333740189
 31
0.0
  0
ARC
  5
A144
  8
0
 10
4486.7393385660561762
 20
323.5320169645917758
 30
0.0
 40
0.0859475238429649
 50
96.1903935601904863
 51
175.3450164775236999
  0
LINE
  5
A145
  8
0
 10
4486.6536745438061189
 20
323.5389920736740805
 30
0.0
 11
4486.653683688905403
 21
321.1624234784632108
 31
0.0
  0
ARC
  5
A146
  8
0
 10
4486.7359180000275956
 20
321.1679533439174179
 30
0.0
 40
0.0824200299533133
 50
183.8470763153709129
 51
261.3864160044975051
  0
LINE
  5
A147
  8
0
 10
4486.7235739720053971
 20
321.086462937674014
 30
0.0
 11
4493.8646838968061274
 21
321.0839803859740869
 31
0.0
  0
ARC
  5
A148
  8
0
 10
4493.8554218232793573
 20
321.1694210396807989
 30
0.0
 40
0.0859412084614658
 50
276.186908807080215
 51
355.3485027668352814
  0
LINE
  5
A149
  8
0
 10
4493.9410799752058665
 20
321.1624516551740953
 30
0.0
 11
4493.9410708366058316
 21
323.5390202205741161
 31
0.0
  0
ARC
  5
A14A
  8
0
 10
4497.5092255086883597
 20
320.985292226556794
 30
0.0
 40
0.082590736034968
 50
3.9421117062397459
 51
81.2913706712686945
  0
LINE
  5
A14B
  8
0
 10
4497.5217305469059283
 20
321.0669307817740901
 30
0.0
 11
4490.3806206150047728
 21
321.0694133333739728
 31
0.0
  0
ARC
  5
A14C
  8
0
 10
4490.3898885660546512
 20
320.9839669645917866
 30
0.0
 40
0.0859475238429649
 50
96.1903935601904863
 51
175.3450164775236999
  0
LINE
  5
A14D
  8
0
 10
4490.3042245438064128
 20
320.9909420736740913
 30
0.0
 11
4490.3042336889047874
 21
318.6143734784631079
 31
0.0
  0
ARC
  5
A14E
  8
0
 10
4490.3864680000278895
 20
318.6199033439173718
 30
0.0
 40
0.0824200299533133
 50
183.8470763153709129
 51
261.3864160044975051
  0
LINE
  5
A14F
  8
0
 10
4490.374123972005691
 20
318.5384129376740248
 30
0.0
 11
4497.5152338968064214
 21
318.5359303859740976
 31
0.0
  0
ARC
  5
A150
  8
0
 10
4497.5059718232787418
 20
318.621371039680696
 30
0.0
 40
0.0859412084614658
 50
276.186908807080215
 51
355.3485027668352814
  0
LINE
  5
A151
  8
0
 10
4497.5916299752070699
 20
318.6144016551739924
 30
0.0
 11
4497.5916208366061255
 21
320.9909702205741269
 31
0.0
  0
ARC
  5
A152
  8
0
 10
4490.2081255086868623
 20
320.985292226556794
 30
0.0
 40
0.082590736034968
 50
3.9421117062397459
 51
81.2913706712686945
  0
LINE
  5
A153
  8
0
 10
4490.2206305469071594
 20
321.0669307817740901
 30
0.0
 11
4483.0795206150060039
 21
321.0694133333739728
 31
0.0
  0
ARC
  5
A154
  8
0
 10
4483.0887885660558823
 20
320.9839669645917866
 30
0.0
 40
0.0859475238429649
 50
96.1903935601904863
 51
175.3450164775236999
  0
LINE
  5
A155
  8
0
 10
4483.0031245438049154
 20
320.9909420736740913
 30
0.0
 11
4483.0031336889060185
 21
318.6143734784631079
 31
0.0
  0
ARC
  5
A156
  8
0
 10
4483.0853680000282111
 20
318.6199033439173718
 30
0.0
 40
0.0824200299533133
 50
183.8470763153709129
 51
261.3864160044975051
  0
LINE
  5
A157
  8
0
 10
4483.0730239720060126
 20
318.5384129376740248
 30
0.0
 11
4490.214133896804924
 21
318.5359303859740976
 31
0.0
  0
ARC
  5
A158
  8
0
 10
4490.2048718232790634
 20
318.621371039680696
 30
0.0
 40
0.0859412084614658
 50
276.186908807080215
 51
355.3485027668352814
  0
LINE
  5
A159
  8
0
 10
4490.2905299752046631
 20
318.6144016551739924
 30
0.0
 11
4490.2905208366064471
 21
320.9909702205741269
 31
0.0
  0
ARC
  5
A15A
  8
0
 10
4482.9070255086880934
 20
320.985292226556794
 30
0.0
 40
0.082590736034968
 50
3.9421117062397459
 51
81.2913706712686945
  0
LINE
  5
A15B
  8
0
 10
4482.919530546905662
 20
321.0669307817740901
 30
0.0
 11
4475.7784206150063255
 21
321.0694133333739728
 31
0.0
  0
ARC
  5
A15C
  8
0
 10
4475.7876885660552944
 20
320.9839669645917866
 30
0.0
 40
0.0859475238429649
 50
96.1903935601904863
 51
175.3450164775236999
  0
LINE
  5
A15D
  8
0
 10
4475.7020245438061465
 20
320.9909420736740913
 30
0.0
 11
4475.7020336889054306
 21
318.6143734784631079
 31
0.0
  0
ARC
  5
A15E
  8
0
 10
4475.7842680000276232
 20
318.6199033439173718
 30
0.0
 40
0.0824200299533133
 50
183.8470763153709129
 51
261.3864160044975051
  0
LINE
  5
A15F
  8
0
 10
4475.7719239720054247
 20
318.5384129376740248
 30
0.0
 11
4482.9130338968061551
 21
318.5359303859740976
 31
0.0
  0
ARC
  5
A160
  8
0
 10
4482.9037718232802945
 20
318.621371039680696
 30
0.0
 40
0.0859412084614658
 50
276.186908807080215
 51
355.3485027668352814
  0
LINE
  5
A161
  8
0
 10
4482.9894299752058942
 20
318.6144016551739924
 30
0.0
 11
4482.9894208366049497
 21
320.9909702205741269
 31
0.0
  0
ARC
  5
A162
  8
0
 10
4493.8586755086880657
 20
318.4372422265568048
 30
0.0
 40
0.082590736034968
 50
3.9421117062397459
 51
81.2913706712686945
  0
LINE
  5
A163
  8
0
 10
4493.8711805469056344
 20
318.5188807817739871
 30
0.0
 11
4486.7300706150053884
 21
318.5213633333739836
 31
0.0
  0
ARC
  5
A164
  8
0
 10
4486.7393385660561762
 20
318.4359169645917973
 30
0.0
 40
0.0859475238429649
 50
96.1903935601904863
 51
175.3450164775236999
  0
LINE
  5
A165
  8
0
 10
4486.6536745438061189
 20
318.442892073674102
 30
0.0
 11
4486.653683688905403
 21
316.0663234784631186
 31
0.0
  0
ARC
  5
A166
  8
0
 10
4486.7359180000275956
 20
316.0718533439173825
 30
0.0
 40
0.0824200299533133
 50
183.8470763153709129
 51
261.3864160044975051
  0
LINE
  5
A167
  8
0
 10
4486.7235739720053971
 20
315.9903629376739786
 30
0.0
 11
4493.8646838968061274
 21
315.9878803859739946
 31
0.0
  0
ARC
  5
A168
  8
0
 10
4493.8554218232793573
 20
316.0733210396807067
 30
0.0
 40
0.0859412084614658
 50
276.186908807080215
 51
355.3485027668352814
  0
LINE
  5
A169
  8
0
 10
4493.9410799752058665
 20
316.0663516551740031
 30
0.0
 11
4493.9410708366058316
 21
318.4429202205740239
 31
0.0
  0
ARC
  5
A16A
  8
0
 10
4486.5575755086865684
 20
318.4372422265568048
 30
0.0
 40
0.082590736034968
 50
3.9421117062397459
 51
81.2913706712686945
  0
LINE
  5
A16B
  8
0
 10
4486.570080546905956
 20
318.5188807817739871
 30
0.0
 11
4479.42897061500571
 21
318.5213633333739836
 31
0.0
  0
ARC
  5
A16C
  8
0
 10
4479.4382385660546788
 20
318.4359169645917973
 30
0.0
 40
0.0859475238429649
 50
96.1903935601904863
 51
175.3450164775236999
  0
LINE
  5
A16D
  8
0
 10
4479.3525745438046215
 20
318.442892073674102
 30
0.0
 11
4479.3525836889057246
 21
316.0663234784631186
 31
0.0
  0
ARC
  5
A16E
  8
0
 10
4479.4348180000279172
 20
316.0718533439173825
 30
0.0
 40
0.0824200299533133
 50
183.8470763153709129
 51
261.3864160044975051
  0
LINE
  5
A16F
  8
0
 10
4479.4224739720057187
 20
315.9903629376739786
 30
0.0
 11
4486.563583896806449
 21
315.9878803859739946
 31
0.0
  0
ARC
  5
A170
  8
0
 10
4486.5543218232787694
 20
316.0733210396807067
 30
0.0
 40
0.0859412084614658
 50
276.186908807080215
 51
355.3485027668352814
  0
LINE
  5
A171
  8
0
 10
4486.6399799752061881
 20
316.0663516551740031
 30
0.0
 11
4486.6399708366061532
 21
318.4429202205740239
 31
0.0
  0
ARC
  5
A172
  8
0
 10
4479.25647550868689
 20
318.4372422265568048
 30
0.0
 40
0.082590736034968
 50
3.9421117062397459
 51
81.2913706712686945
  0
LINE
  5
A173
  8
0
 10
4479.2689805469071871
 20
318.5188807817739871
 30
0.0
 11
4472.1278706150060316
 21
318.5213633333739836
 31
0.0
  0
ARC
  5
A174
  8
0
 10
4472.1371385660559099
 20
318.4359169645917973
 30
0.0
 40
0.0859475238429649
 50
96.1903935601904863
 51
175.3450164775236999
  0
LINE
  5
A175
  8
0
 10
4472.0514745438058526
 20
318.442892073674102
 30
0.0
 11
4472.0514836889051367
 21
316.0663234784631186
 31
0.0
  0
ARC
  5
A176
  8
0
 10
4472.1337180000282387
 20
316.0718533439173825
 30
0.0
 40
0.0824200299533133
 50
183.8470763153709129
 51
261.3864160044975051
  0
LINE
  5
A177
  8
0
 10
4472.1213739720060403
 20
315.9903629376739786
 30
0.0
 11
4479.2624838968058611
 21
315.9878803859739946
 31
0.0
  0
ARC
  5
A178
  8
0
 10
4479.253221823279091
 20
316.0733210396807067
 30
0.0
 40
0.0859412084614658
 50
276.186908807080215
 51
355.3485027668352814
  0
LINE
  5
A179
  8
0
 10
4479.3388799752046907
 20
316.0663516551740031
 30
0.0
 11
4479.3388708366046558
 21
318.4429202205740239
 31
0.0
  0
ARC
  5
A17A
  8
0
 10
4482.9070255086880934
 20
315.8891922265568155
 30
0.0
 40
0.082590736034968
 50
3.9421117062397459
 51
81.2913706712686945
  0
LINE
  5
A17B
  8
0
 10
4482.919530546905662
 20
315.9708307817741115
 30
0.0
 11
4475.7784206150063255
 21
315.9733133333739943
 31
0.0
  0
ARC
  5
A17C
  8
0
 10
4475.7876885660552944
 20
315.887866964591808
 30
0.0
 40
0.0859475238429649
 50
96.1903935601904863
 51
175.3450164775236999
  0
LINE
  5
A17D
  8
0
 10
4475.7020245438061465
 20
315.8948420736741127
 30
0.0
 11
4475.7020336889054306
 21
313.5182734784630725
 31
0.0
  0
ARC
  5
A17E
  8
0
 10
4475.7842680000276232
 20
313.5238033439173932
 30
0.0
 40
0.0824200299533133
 50
183.8470763153709129
 51
261.3864160044975051
  0
LINE
  5
A17F
  8
0
 10
4475.7719239720054247
 20
313.4423129376739894
 30
0.0
 11
4482.9130338968061551
 21
313.4398303859740054
 31
0.0
  0
ARC
  5
A180
  8
0
 10
4482.9037718232802945
 20
313.5252710396807174
 30
0.0
 40
0.0859412084614658
 50
276.186908807080215
 51
355.3485027668352814
  0
LINE
  5
A181
  8
0
 10
4482.9894299752058942
 20
313.5183016551740138
 30
0.0
 11
4482.9894208366049497
 21
315.8948702205739778
 31
0.0
  0
ARC
  5
A182
  8
0
 10
4490.2081255086868623
 20
315.8891922265568155
 30
0.0
 40
0.082590736034968
 50
3.9421117062397459
 51
81.2913706712686945
  0
LINE
  5
A183
  8
0
 10
4490.2206305469071594
 20
315.9708307817741115
 30
0.0
 11
4483.0795206150060039
 21
315.9733133333739943
 31
0.0
  0
ARC
  5
A184
  8
0
 10
4483.0887885660558823
 20
315.887866964591808
 30
0.0
 40
0.0859475238429649
 50
96.1903935601904863
 51
175.3450164775236999
  0
LINE
  5
A185
  8
0
 10
4483.0031245438049154
 20
315.8948420736741127
 30
0.0
 11
4483.0031336889060185
 21
313.5182734784630725
 31
0.0
  0
ARC
  5
A186
  8
0
 10
4483.0853680000282111
 20
313.5238033439173932
 30
0.0
 40
0.0824200299533133
 50
183.8470763153709129
 51
261.3864160044975051
  0
LINE
  5
A187
  8
0
 10
4483.0730239720060126
 20
313.4423129376739894
 30
0.0
 11
4490.214133896804924
 21
313.4398303859740054
 31
0.0
  0
ARC
  5
A188
  8
0
 10
4490.2048718232790634
 20
313.5252710396807174
 30
0.0
 40
0.0859412084614658
 50
276.186908807080215
 51
355.3485027668352814
  0
LINE
  5
A189
  8
0
 10
4490.2905299752046631
 20
313.5183016551740138
 30
0.0
 11
4490.2905208366064471
 21
315.8948702205739778
 31
0.0
  0
ARC
  5
A18A
  8
0
 10
4497.5092255086883597
 20
315.8891922265568155
 30
0.0
 40
0.082590736034968
 50
3.9421117062397459
 51
81.2913706712686945
  0
LINE
  5
A18B
  8
0
 10
4497.5217305469059283
 20
315.9708307817741115
 30
0.0
 11
4490.3806206150047728
 21
315.9733133333739943
 31
0.0
  0
ARC
  5
A18C
  8
0
 10
4490.3898885660546512
 20
315.887866964591808
 30
0.0
 40
0.0859475238429649
 50
96.1903935601904863
 51
175.3450164775236999
  0
LINE
  5
A18D
  8
0
 10
4490.3042245438064128
 20
315.8948420736741127
 30
0.0
 11
4490.3042336889047874
 21
313.5182734784630725
 31
0.0
  0
ARC
  5
A18E
  8
0
 10
4490.3864680000278895
 20
313.5238033439173932
 30
0.0
 40
0.0824200299533133
 50
183.8470763153709129
 51
261.3864160044975051
  0
LINE
  5
A18F
  8
0
 10
4490.374123972005691
 20
313.4423129376739894
 30
0.0
 11
4497.5152338968064214
 21
313.4398303859740054
 31
0.0
  0
ARC
  5
A190
  8
0
 10
4497.5059718232787418
 20
313.5252710396807174
 30
0.0
 40
0.0859412084614658
 50
276.186908807080215
 51
355.3485027668352814
  0
LINE
  5
A191
  8
0
 10
4497.5916299752070699
 20
313.5183016551740138
 30
0.0
 11
4497.5916208366061255
 21
315.8948702205739778
 31
0.0
  0
ARC
  5
A192
  8
0
 10
4493.8586755086880657
 20
313.3411422265568262
 30
0.0
 40
0.082590736034968
 50
3.9421117062397459
 51
81.2913706712686945
  0
LINE
  5
A193
  8
0
 10
4493.8711805469056344
 20
313.4227807817741223
 30
0.0
 11
4486.7300706150053884
 21
313.425263333374005
 31
0.0
  0
ARC
  5
A194
  8
0
 10
4486.7393385660561762
 20
313.3398169645918188
 30
0.0
 40
0.0859475238429649
 50
96.1903935601904863
 51
175.3450164775236999
  0
LINE
  5
A195
  8
0
 10
4486.6536745438061189
 20
313.3467920736741235
 30
0.0
 11
4486.653683688905403
 21
310.9702234784630832
 31
0.0
  0
ARC
  5
A196
  8
0
 10
4486.7359180000275956
 20
310.975753343917404
 30
0.0
 40
0.0824200299533133
 50
183.8470763153709129
 51
261.3864160044975051
  0
LINE
  5
A197
  8
0
 10
4486.7235739720053971
 20
310.8942629376738864
 30
0.0
 11
4493.8646838968061274
 21
310.8917803859740729
 31
0.0
  0
ARC
  5
A198
  8
0
 10
4493.8554218232793573
 20
310.9772210396807282
 30
0.0
 40
0.0859412084614658
 50
276.186908807080215
 51
355.3485027668352814
  0
LINE
  5
A199
  8
0
 10
4493.9410799752058665
 20
310.9702516551740246
 30
0.0
 11
4493.9410708366058316
 21
313.3468202205741022
 31
0.0
  0
ARC
  5
A19A
  8
0
 10
4486.5575755086865684
 20
313.3411422265568262
 30
0.0
 40
0.082590736034968
 50
3.9421117062397459
 51
81.2913706712686945
  0
LINE
  5
A19B
  8
0
 10
4486.570080546905956
 20
313.4227807817741223
 30
0.0
 11
4479.42897061500571
 21
313.425263333374005
 31
0.0
  0
ARC
  5
A19C
  8
0
 10
4479.4382385660546788
 20
313.3398169645918188
 30
0.0
 40
0.0859475238429649
 50
96.1903935601904863
 51
175.3450164775236999
  0
LINE
  5
A19D
  8
0
 10
4479.3525745438046215
 20
313.3467920736741235
 30
0.0
 11
4479.3525836889057246
 21
310.9702234784630832
 31
0.0
  0
ARC
  5
A19E
  8
0
 10
4479.4348180000279172
 20
310.975753343917404
 30
0.0
 40
0.0824200299533133
 50
183.8470763153709129
 51
261.3864160044975051
  0
LINE
  5
A19F
  8
0
 10
4479.4224739720057187
 20
310.8942629376738864
 30
0.0
 11
4486.563583896806449
 21
310.8917803859740729
 31
0.0
  0
ARC
  5
A1A0
  8
0
 10
4486.5543218232787694
 20
310.9772210396807282
 30
0.0
 40
0.0859412084614658
 50
276.186908807080215
 51
355.3485027668352814
  0
LINE
  5
A1A1
  8
0
 10
4486.6399799752061881
 20
310.9702516551740246
 30
0.0
 11
4486.6399708366061532
 21
313.3468202205741022
 31
0.0
  0
ARC
  5
A1A2
  8
0
 10
4479.25647550868689
 20
313.3411422265568262
 30
0.0
 40
0.082590736034968
 50
3.9421117062397459
 51
81.2913706712686945
  0
LINE
  5
A1A3
  8
0
 10
4479.2689805469071871
 20
313.4227807817741223
 30
0.0
 11
4472.1278706150060316
 21
313.425263333374005
 31
0.0
  0
ARC
  5
A1A4
  8
0
 10
4472.1371385660559099
 20
313.3398169645918188
 30
0.0
 40
0.0859475238429649
 50
96.1903935601904863
 51
175.3450164775236999
  0
LINE
  5
A1A5
  8
0
 10
4472.0514745438058526
 20
313.3467920736741235
 30
0.0
 11
4472.0514836889051367
 21
310.9702234784630832
 31
0.0
  0
ARC
  5
A1A6
  8
0
 10
4472.1337180000282387
 20
310.975753343917404
 30
0.0
 40
0.0824200299533133
 50
183.8470763153709129
 51
261.3864160044975051
  0
LINE
  5
A1A7
  8
0
 10
4472.1213739720060403
 20
310.8942629376738864
 30
0.0
 11
4479.2624838968058611
 21
310.8917803859740729
 31
0.0
  0
ARC
  5
A1A8
  8
0
 10
4479.253221823279091
 20
310.9772210396807282
 30
0.0
 40
0.0859412084614658
 50
276.186908807080215
 51
355.3485027668352814
  0
LINE
  5
A1A9
  8
0
 10
4479.3388799752046907
 20
310.9702516551740246
 30
0.0
 11
4479.3388708366046558
 21
313.3468202205741022
 31
0.0
  0
ARC
  5
A1AA
  8
0
 10
4482.9070255086880934
 20
310.7930922265567801
 30
0.0
 40
0.082590736034968
 50
3.9421117062397459
 51
81.2913706712686945
  0
LINE
  5
A1AB
  8
0
 10
4482.919530546905662
 20
310.8747307817740193
 30
0.0
 11
4475.7784206150063255
 21
310.8772133333740157
 31
0.0
  0
ARC
  5
A1AC
  8
0
 10
4475.7876885660552944
 20
310.7917669645917726
 30
0.0
 40
0.0859475238429649
 50
96.1903935601904863
 51
175.3450164775236999
  0
LINE
  5
A1AD
  8
0
 10
4475.7020245438061465
 20
310.7987420736740773
 30
0.0
 11
4475.7020336889054306
 21
308.4221734784632076
 31
0.0
  0
ARC
  5
A1AE
  8
0
 10
4475.7842680000276232
 20
308.4277033439174147
 30
0.0
 40
0.0824200299533133
 50
183.8470763153709129
 51
261.3864160044975051
  0
LINE
  5
A1AF
  8
0
 10
4475.7719239720054247
 20
308.3462129376738972
 30
0.0
 11
4482.9130338968061551
 21
308.3437303859740268
 31
0.0
  0
ARC
  5
A1B0
  8
0
 10
4482.9037718232802945
 20
308.429171039680682
 30
0.0
 40
0.0859412084614658
 50
276.186908807080215
 51
355.3485027668352814
  0
LINE
  5
A1B1
  8
0
 10
4482.9894299752058942
 20
308.4222016551739785
 30
0.0
 11
4482.9894208366049497
 21
310.798770220574113
 31
0.0
  0
ARC
  5
A1B2
  8
0
 10
4490.2081255086868623
 20
310.7930922265567801
 30
0.0
 40
0.082590736034968
 50
3.9421117062397459
 51
81.2913706712686945
  0
LINE
  5
A1B3
  8
0
 10
4490.2206305469071594
 20
310.8747307817740193
 30
0.0
 11
4483.0795206150060039
 21
310.8772133333740157
 31
0.0
  0
ARC
  5
A1B4
  8
0
 10
4483.0887885660558823
 20
310.7917669645917726
 30
0.0
 40
0.0859475238429649
 50
96.1903935601904863
 51
175.3450164775236999
  0
LINE
  5
A1B5
  8
0
 10
4483.0031245438049154
 20
310.7987420736740773
 30
0.0
 11
4483.0031336889060185
 21
308.4221734784632076
 31
0.0
  0
ARC
  5
A1B6
  8
0
 10
4483.0853680000282111
 20
308.4277033439174147
 30
0.0
 40
0.0824200299533133
 50
183.8470763153709129
 51
261.3864160044975051
  0
LINE
  5
A1B7
  8
0
 10
4483.0730239720060126
 20
308.3462129376738972
 30
0.0
 11
4490.214133896804924
 21
308.3437303859740268
 31
0.0
  0
ARC
  5
A1B8
  8
0
 10
4490.2048718232790634
 20
308.429171039680682
 30
0.0
 40
0.0859412084614658
 50
276.186908807080215
 51
355.3485027668352814
  0
LINE
  5
A1B9
  8
0
 10
4490.2905299752046631
 20
308.4222016551739785
 30
0.0
 11
4490.2905208366064471
 21
310.798770220574113
 31
0.0
  0
ARC
  5
A1BA
  8
0
 10
4497.5092255086883597
 20
310.7930922265567801
 30
0.0
 40
0.082590736034968
 50
3.9421117062397459
 51
81.2913706712686945
  0
LINE
  5
A1BB
  8
0
 10
4497.5217305469059283
 20
310.8747307817740193
 30
0.0
 11
4490.3806206150047728
 21
310.8772133333740157
 31
0.0
  0
ARC
  5
A1BC
  8
0
 10
4490.3898885660546512
 20
310.7917669645917726
 30
0.0
 40
0.0859475238429649
 50
96.1903935601904863
 51
175.3450164775236999
  0
LINE
  5
A1BD
  8
0
 10
4490.3042245438064128
 20
310.7987420736740773
 30
0.0
 11
4490.3042336889047874
 21
308.4221734784632076
 31
0.0
  0
ARC
  5
A1BE
  8
0
 10
4490.3864680000278895
 20
308.4277033439174147
 30
0.0
 40
0.0824200299533133
 50
183.8470763153709129
 51
261.3864160044975051
  0
LINE
  5
A1BF
  8
0
 10
4490.374123972005691
 20
308.3462129376738972
 30
0.0
 11
4497.5152338968064214
 21
308.3437303859740268
 31
0.0
  0
ARC
  5
A1C0
  8
0
 10
4497.5059718232787418
 20
308.429171039680682
 30
0.0
 40
0.0859412084614658
 50
276.186908807080215
 51
355.3485027668352814
  0
LINE
  5
A1C1
  8
0
 10
4497.5916299752070699
 20
308.4222016551739785
 30
0.0
 11
4497.5916208366061255
 21
310.798770220574113
 31
0.0
  0
ARC
  5
A1C2
  8
0
 10
4493.8586755086880657
 20
308.2450422265567909
 30
0.0
 40
0.082590736034968
 50
3.9421117062397459
 51
81.2913706712686945
  0
LINE
  5
A1C3
  8
0
 10
4493.8711805469056344
 20
308.3266807817739732
 30
0.0
 11
4486.7300706150053884
 21
308.3291633333740265
 31
0.0
  0
ARC
  5
A1C4
  8
0
 10
4486.7393385660561762
 20
308.2437169645917834
 30
0.0
 40
0.0859475238429649
 50
96.1903935601904863
 51
175.3450164775236999
  0
LINE
  5
A1C5
  8
0
 10
4486.6536745438061189
 20
308.2506920736740881
 30
0.0
 11
4486.653683688905403
 21
305.8741234784632184
 31
0.0
  0
ARC
  5
A1C6
  8
0
 10
4486.7359180000275956
 20
305.8796533439174254
 30
0.0
 40
0.0824200299533133
 50
183.8470763153709129
 51
261.3864160044975051
  0
LINE
  5
A1C7
  8
0
 10
4486.7235739720053971
 20
305.7981629376740216
 30
0.0
 11
4493.8646838968061274
 21
305.7956803859739807
 31
0.0
  0
ARC
  5
A1C8
  8
0
 10
4493.8554218232793573
 20
305.8811210396806928
 30
0.0
 40
0.0859412084614658
 50
276.186908807080215
 51
355.3485027668352814
  0
LINE
  5
A1C9
  8
0
 10
4493.9410799752058665
 20
305.8741516551739892
 30
0.0
 11
4493.9410708366058316
 21
308.2507202205741237
 31
0.0
  0
ARC
  5
A1CA
  8
0
 10
4486.5575755086865684
 20
308.2450422265567909
 30
0.0
 40
0.082590736034968
 50
3.9421117062397459
 51
81.2913706712686945
  0
LINE
  5
A1CB
  8
0
 10
4486.570080546905956
 20
308.3266807817739732
 30
0.0
 11
4479.42897061500571
 21
308.3291633333740265
 31
0.0
  0
ARC
  5
A1CC
  8
0
 10
4479.4382385660546788
 20
308.2437169645917834
 30
0.0
 40
0.0859475238429649
 50
96.1903935601904863
 51
175.3450164775236999
  0
LINE
  5
A1CD
  8
0
 10
4479.3525745438046215
 20
308.2506920736740881
 30
0.0
 11
4479.3525836889057246
 21
305.8741234784632184
 31
0.0
  0
ARC
  5
A1CE
  8
0
 10
4479.4348180000279172
 20
305.8796533439174254
 30
0.0
 40
0.0824200299533133
 50
183.8470763153709129
 51
261.3864160044975051
  0
LINE
  5
A1CF
  8
0
 10
4479.4224739720057187
 20
305.7981629376740216
 30
0.0
 11
4486.563583896806449
 21
305.7956803859739807
 31
0.0
  0
ARC
  5
A1D0
  8
0
 10
4486.5543218232787694
 20
305.8811210396806928
 30
0.0
 40
0.0859412084614658
 50
276.186908807080215
 51
355.3485027668352814
  0
LINE
  5
A1D1
  8
0
 10
4486.6399799752061881
 20
305.8741516551739892
 30
0.0
 11
4486.6399708366061532
 21
308.2507202205741237
 31
0.0
  0
ARC
  5
A1D2
  8
0
 10
4479.25647550868689
 20
308.2450422265567909
 30
0.0
 40
0.082590736034968
 50
3.9421117062397459
 51
81.2913706712686945
  0
LINE
  5
A1D3
  8
0
 10
4479.2689805469071871
 20
308.3266807817739732
 30
0.0
 11
4472.1278706150060316
 21
308.3291633333740265
 31
0.0
  0
ARC
  5
A1D4
  8
0
 10
4472.1371385660559099
 20
308.2437169645917834
 30
0.0
 40
0.0859475238429649
 50
96.1903935601904863
 51
175.3450164775236999
  0
LINE
  5
A1D5
  8
0
 10
4472.0514745438058526
 20
308.2506920736740881
 30
0.0
 11
4472.0514836889051367
 21
305.8741234784632184
 31
0.0
  0
ARC
  5
A1D6
  8
0
 10
4472.1337180000282387
 20
305.8796533439174254
 30
0.0
 40
0.0824200299533133
 50
183.8470763153709129
 51
261.3864160044975051
  0
LINE
  5
A1D7
  8
0
 10
4472.1213739720060403
 20
305.7981629376740216
 30
0.0
 11
4479.2624838968058611
 21
305.7956803859739807
 31
0.0
  0
ARC
  5
A1D8
  8
0
 10
4479.253221823279091
 20
305.8811210396806928
 30
0.0
 40
0.0859412084614658
 50
276.186908807080215
 51
355.3485027668352814
  0
LINE
  5
A1D9
  8
0
 10
4479.3388799752046907
 20
305.8741516551739892
 30
0.0
 11
4479.3388708366046558
 21
308.2507202205741237
 31
0.0
  0
ARC
  5
A1DA
  8
0
 10
4482.9067014164111242
 20
305.6969263821018785
 30
0.0
 40
0.082590736034968
 50
3.9421117062397459
 51
81.2913706712686945
  0
LINE
  5
A1DB
  8
0
 10
4482.9192064546296024
 20
305.7785649373191177
 30
0.0
 11
4475.7780965227302659
 21
305.7810474889190004
 31
0.0
  0
ARC
  5
A1DC
  8
0
 10
4475.7873644737792347
 20
305.6956011201368142
 30
0.0
 40
0.0859475238429649
 50
96.1903935601904863
 51
175.3450164775236999
  0
LINE
  5
A1DD
  8
0
 10
4475.7017004515291774
 20
305.7025762292191189
 30
0.0
 11
4475.7017095966302804
 21
303.3260076340081923
 31
0.0
  0
ARC
  5
A1DE
  8
0
 10
4475.783943907750654
 20
303.3315374994623994
 30
0.0
 40
0.0824200299533133
 50
183.8470763153709129
 51
261.3864160044975051
  0
LINE
  5
A1DF
  8
0
 10
4475.7715998797293651
 20
303.2500470932189955
 30
0.0
 11
4482.9127098045291859
 21
303.2475645415191252
 31
0.0
  0
ARC
  5
A1E0
  8
0
 10
4482.9034477310033253
 20
303.3330051952257236
 30
0.0
 40
0.0859412084614658
 50
276.186908807080215
 51
355.3485027668352814
  0
LINE
  5
A1E1
  8
0
 10
4482.989105882928925
 20
303.3260358107190768
 30
0.0
 11
4482.9890967443288901
 21
305.7026043761190977
 31
0.0
  0
ARC
  5
A1E2
  8
0
 10
4490.2081255086868623
 20
305.6969922265569153
 30
0.0
 40
0.082590736034968
 50
3.9421117062397459
 51
81.2913706712686945
  0
LINE
  5
A1E3
  8
0
 10
4490.2206305469071594
 20
305.7786307817739839
 30
0.0
 11
4483.0795206150060039
 21
305.7811133333739804
 31
0.0
  0
ARC
  5
A1E4
  8
0
 10
4483.0887885660558823
 20
305.6956669645916804
 30
0.0
 40
0.0859475238429649
 50
96.1903935601904863
 51
175.3450164775236999
  0
LINE
  5
A1E5
  8
0
 10
4483.0031245438049154
 20
305.7026420736740988
 30
0.0
 11
4483.0031336889060185
 21
303.3260734784631723
 31
0.0
  0
ARC
  5
A1E6
  8
0
 10
4483.0853680000282111
 20
303.3316033439173793
 30
0.0
 40
0.0824200299533133
 50
183.8470763153709129
 51
261.3864160044975051
  0
LINE
  5
A1E7
  8
0
 10
4483.0730239720060126
 20
303.2501129376739755
 30
0.0
 11
4490.214133896804924
 21
303.2476303859739915
 31
0.0
  0
ARC
  5
A1E8
  8
0
 10
4490.2048718232790634
 20
303.3330710396807035
 30
0.0
 40
0.0859412084614658
 50
276.186908807080215
 51
355.3485027668352814
  0
LINE
  5
A1E9
  8
0
 10
4490.2905299752046631
 20
303.3261016551741136
 30
0.0
 11
4490.2905208366064471
 21
305.7026702205740776
 31
0.0
  0
ARC
  5
A1EA
  8
0
 10
4497.5092255086883597
 20
305.6969922265569153
 30
0.0
 40
0.082590736034968
 50
3.9421117062397459
 51
81.2913706712686945
  0
LINE
  5
A1EB
  8
0
 10
4497.5217305469059283
 20
305.7786307817739839
 30
0.0
 11
4490.3806206150047728
 21
305.7811133333739804
 31
0.0
  0
ARC
  5
A1EC
  8
0
 10
4490.3898885660546512
 20
305.6956669645916804
 30
0.0
 40
0.0859475238429649
 50
96.1903935601904863
 51
175.3450164775236999
  0
LINE
  5
A1ED
  8
0
 10
4490.3042245438064128
 20
305.7026420736740988
 30
0.0
 11
4490.3042336889047874
 21
303.3260734784631723
 31
0.0
  0
ARC
  5
A1EE
  8
0
 10
4490.3864680000278895
 20
303.3316033439173793
 30
0.0
 40
0.0824200299533133
 50
183.8470763153709129
 51
261.3864160044975051
  0
LINE
  5
A1EF
  8
0
 10
4490.374123972005691
 20
303.2501129376739755
 30
0.0
 11
4497.5152338968064214
 21
303.2476303859739915
 31
0.0
  0
ARC
  5
A1F0
  8
0
 10
4497.5059718232787418
 20
303.3330710396807035
 30
0.0
 40
0.0859412084614658
 50
276.186908807080215
 51
355.3485027668352814
  0
LINE
  5
A1F1
  8
0
 10
4497.5916299752070699
 20
303.3261016551741136
 30
0.0
 11
4497.5916208366061255
 21
305.7026702205740776
 31
0.0
  0
ARC
  5
A1F2
  8
0
 10
4493.8586755086880657
 20
303.1489422265568123
 30
0.0
 40
0.082590736034968
 50
3.9421117062397459
 51
81.2913706712686945
  0
LINE
  5
A1F3
  8
0
 10
4493.8711805469056344
 20
303.2305807817741083
 30
0.0
 11
4486.7300706150053884
 21
303.2330633333739911
 31
0.0
  0
ARC
  5
A1F4
  8
0
 10
4486.7393385660561762
 20
303.1476169645916912
 30
0.0
 40
0.0859475238429649
 50
96.1903935601904863
 51
175.3450164775236999
  0
LINE
  5
A1F5
  8
0
 10
4486.6536745438061189
 20
303.1545920736741095
 30
0.0
 11
4486.653683688905403
 21
300.778023478463183
 31
0.0
  0
ARC
  5
A1F6
  8
0
 10
4486.7359180000275956
 20
300.7835533439173901
 30
0.0
 40
0.0824200299533133
 50
183.8470763153709129
 51
261.3864160044975051
  0
LINE
  5
A1F7
  8
0
 10
4486.7235739720053971
 20
300.7020629376739862
 30
0.0
 11
4493.8646838968061274
 21
300.6995803859741159
 31
0.0
  0
ARC
  5
A1F8
  8
0
 10
4493.8554218232793573
 20
300.7850210396807142
 30
0.0
 40
0.0859412084614658
 50
276.186908807080215
 51
355.3485027668352814
  0
LINE
  5
A1F9
  8
0
 10
4493.9410799752058665
 20
300.7780516551741243
 30
0.0
 11
4493.9410708366058316
 21
303.1546202205740883
 31
0.0
  0
ARC
  5
A1FA
  8
0
 10
4486.5575755086865684
 20
303.1489422265568123
 30
0.0
 40
0.082590736034968
 50
3.9421117062397459
 51
81.2913706712686945
  0
LINE
  5
A1FB
  8
0
 10
4486.570080546905956
 20
303.2305807817741083
 30
0.0
 11
4479.42897061500571
 21
303.2330633333739911
 31
0.0
  0
ARC
  5
A1FC
  8
0
 10
4479.4382385660546788
 20
303.1476169645916912
 30
0.0
 40
0.0859475238429649
 50
96.1903935601904863
 51
175.3450164775236999
  0
LINE
  5
A1FD
  8
0
 10
4479.3525745438046215
 20
303.1545920736741095
 30
0.0
 11
4479.3525836889057246
 21
300.778023478463183
 31
0.0
  0
ARC
  5
A1FE
  8
0
 10
4479.4348180000279172
 20
300.7835533439173901
 30
0.0
 40
0.0824200299533133
 50
183.8470763153709129
 51
261.3864160044975051
  0
LINE
  5
A1FF
  8
0
 10
4479.4224739720057187
 20
300.7020629376739862
 30
0.0
 11
4486.563583896806449
 21
300.6995803859741159
 31
0.0
  0
ARC
  5
A200
  8
0
 10
4486.5543218232787694
 20
300.7850210396807142
 30
0.0
 40
0.0859412084614658
 50
276.186908807080215
 51
355.3485027668352814
  0
LINE
  5
A201
  8
0
 10
4486.6399799752061881
 20
300.7780516551741243
 30
0.0
 11
4486.6399708366061532
 21
303.1546202205740883
 31
0.0
  0
ARC
  5
A202
  8
0
 10
4479.25647550868689
 20
303.1489422265568123
 30
0.0
 40
0.082590736034968
 50
3.9421117062397459
 51
81.2913706712686945
  0
LINE
  5
A203
  8
0
 10
4479.2689805469071871
 20
303.2305807817741083
 30
0.0
 11
4472.1278706150060316
 21
303.2330633333739911
 31
0.0
  0
ARC
  5
A204
  8
0
 10
4472.1371385660559099
 20
303.1476169645916912
 30
0.0
 40
0.0859475238429649
 50
96.1903935601904863
 51
175.3450164775236999
  0
LINE
  5
A205
  8
0
 10
4472.0514745438058526
 20
303.1545920736741095
 30
0.0
 11
4472.0514836889051367
 21
300.778023478463183
 31
0.0
  0
ARC
  5
A206
  8
0
 10
4472.1337180000282387
 20
300.7835533439173901
 30
0.0
 40
0.0824200299533133
 50
183.8470763153709129
 51
261.3864160044975051
  0
LINE
  5
A207
  8
0
 10
4472.1213739720060403
 20
300.7020629376739862
 30
0.0
 11
4479.2624838968058611
 21
300.6995803859741159
 31
0.0
  0
ARC
  5
A208
  8
0
 10
4479.253221823279091
 20
300.7850210396807142
 30
0.0
 40
0.0859412084614658
 50
276.186908807080215
 51
355.3485027668352814
  0
LINE
  5
A209
  8
0
 10
4479.3388799752046907
 20
300.7780516551741243
 30
0.0
 11
4479.3388708366046558
 21
303.1546202205740883
 31
0.0
  0
ARC
  5
A20A
  8
0
 10
4482.9070255086880934
 20
300.6008922265568231
 30
0.0
 40
0.082590736034968
 50
3.9421117062397459
 51
81.2913706712686945
  0
LINE
  5
A20B
  8
0
 10
4482.919530546905662
 20
300.6825307817741191
 30
0.0
 11
4475.7784206150063255
 21
300.6850133333740018
 31
0.0
  0
ARC
  5
A20C
  8
0
 10
4475.7876885660552944
 20
300.5995669645918156
 30
0.0
 40
0.0859475238429649
 50
96.1903935601904863
 51
175.3450164775236999
  0
LINE
  5
A20D
  8
0
 10
4475.7020245438061465
 20
300.6065420736740066
 30
0.0
 11
4475.7020336889054306
 21
298.2299734784631937
 31
0.0
  0
ARC
  5
A20E
  8
0
 10
4475.7842680000276232
 20
298.2355033439172871
 30
0.0
 40
0.0824200299533133
 50
183.8470763153709129
 51
261.3864160044975051
  0
LINE
  5
A20F
  8
0
 10
4475.7719239720054247
 20
298.1540129376739969
 30
0.0
 11
4482.9130338968061551
 21
298.1515303859741266
 31
0.0
  0
ARC
  5
A210
  8
0
 10
4482.9037718232802945
 20
298.236971039680725
 30
0.0
 40
0.0859412084614658
 50
276.186908807080215
 51
355.3485027668352814
  0
LINE
  5
A211
  8
0
 10
4482.9894299752058942
 20
298.2300016551740782
 30
0.0
 11
4482.9894208366049497
 21
300.606570220574099
 31
0.0
  0
ARC
  5
A212
  8
0
 10
4490.2081255086868623
 20
300.6008922265568231
 30
0.0
 40
0.082590736034968
 50
3.9421117062397459
 51
81.2913706712686945
  0
LINE
  5
A213
  8
0
 10
4490.2206305469071594
 20
300.6825307817741191
 30
0.0
 11
4483.0795206150060039
 21
300.6850133333740018
 31
0.0
  0
ARC
  5
A214
  8
0
 10
4483.0887885660558823
 20
300.5995669645918156
 30
0.0
 40
0.0859475238429649
 50
96.1903935601904863
 51
175.3450164775236999
  0
LINE
  5
A215
  8
0
 10
4483.0031245438049154
 20
300.6065420736740066
 30
0.0
 11
4483.0031336889060185
 21
298.2299734784631937
 31
0.0
  0
ARC
  5
A216
  8
0
 10
4483.0853680000282111
 20
298.2355033439172871
 30
0.0
 40
0.0824200299533133
 50
183.8470763153709129
 51
261.3864160044975051
  0
LINE
  5
A217
  8
0
 10
4483.0730239720060126
 20
298.1540129376739969
 30
0.0
 11
4490.214133896804924
 21
298.1515303859741266
 31
0.0
  0
ARC
  5
A218
  8
0
 10
4490.2048718232790634
 20
298.236971039680725
 30
0.0
 40
0.0859412084614658
 50
276.186908807080215
 51
355.3485027668352814
  0
LINE
  5
A219
  8
0
 10
4490.2905299752046631
 20
298.2300016551740782
 30
0.0
 11
4490.2905208366064471
 21
300.606570220574099
 31
0.0
  0
ARC
  5
A21A
  8
0
 10
4497.5092255086883597
 20
300.6008922265568231
 30
0.0
 40
0.082590736034968
 50
3.9421117062397459
 51
81.2913706712686945
  0
LINE
  5
A21B
  8
0
 10
4497.5217305469059283
 20
300.6825307817741191
 30
0.0
 11
4490.3806206150047728
 21
300.6850133333740018
 31
0.0
  0
ARC
  5
A21C
  8
0
 10
4490.3898885660546512
 20
300.5995669645918156
 30
0.0
 40
0.0859475238429649
 50
96.1903935601904863
 51
175.3450164775236999
  0
LINE
  5
A21D
  8
0
 10
4490.3042245438064128
 20
300.6065420736740066
 30
0.0
 11
4490.3042336889047874
 21
298.2299734784631937
 31
0.0
  0
ARC
  5
A21E
  8
0
 10
4490.3864680000278895
 20
298.2355033439172871
 30
0.0
 40
0.0824200299533133
 50
183.8470763153709129
 51
261.3864160044975051
  0
LINE
  5
A21F
  8
0
 10
4490.374123972005691
 20
298.1540129376739969
 30
0.0
 11
4497.5152338968064214
 21
298.1515303859741266
 31
0.0
  0
ARC
  5
A220
  8
0
 10
4497.5059718232787418
 20
298.236971039680725
 30
0.0
 40
0.0859412084614658
 50
276.186908807080215
 51
355.3485027668352814
  0
LINE
  5
A221
  8
0
 10
4497.5916299752070699
 20
298.2300016551740782
 30
0.0
 11
4497.5916208366061255
 21
300.606570220574099
 31
0.0
  0
ARC
  5
A222
  8
0
 10
4467.3515389757976664
 20
318.1319580340870061
 30
0.0
 40
1.6165649126030699
 50
1.299682892624161
 51
13.9631559315547307
  0
LINE
  5
A223
  8
0
 10
4468.9676880026208892
 20
318.1686246368155935
 30
0.0
 11
4468.9676880033057387
 21
316.3406218596747976
 31
0.0
  0
ARC
  5
A224
  8
0
 10
4467.3498941967109204
 20
316.3775057789000016
 30
0.0
 40
1.618214208364283
 50
346.0433338061110931
 51
358.6939455121008109
  0
ARC
  5
A225
  8
0
 10
4471.9576123422857563
 20
318.4423937589060074
 30
0.0
 40
0.0796300539901669
 50
356.9903457378686085
 51
90.9176753424951443
  0
LINE
  5
A226
  8
0
 10
4471.9563370055429914
 20
318.5220135994903217
 30
0.0
 11
4468.9203361631061853
 21
318.5220317473153955
 31
0.0
  0
LINE
  5
A227
  8
0
 10
4468.9203361624913668
 20
315.9872119712749736
 30
0.0
 11
4471.9561887618583569
 21
315.987077993833509
 31
0.0
  0
ARC
  5
A228
  8
0
 10
4471.9574282209650846
 20
316.0669478442428044
 30
0.0
 40
0.0798794670943839
 50
269.1109276478640027
 51
2.9922440426895971
  0
LINE
  5
A229
  8
0
 10
4472.0371987812068255
 20
316.0711176142747831
 30
0.0
 11
4472.0371325627047554
 21
318.4382128447749096
 31
0.0
  0
ARC
  5
A22A
  8
0
 10
4471.9576123422857563
 20
313.3462937589061994
 30
0.0
 40
0.0796300539901669
 50
356.9903457378686085
 51
90.9176753424951443
  0
LINE
  5
A22B
  8
0
 10
4471.9563370055429914
 20
313.4259135994905137
 30
0.0
 11
4468.9203361631061853
 21
313.4259317473154738
 31
0.0
  0
LINE
  5
A22C
  8
0
 10
4468.9203361624913668
 20
310.8911119712752225
 30
0.0
 11
4471.9561887618583569
 21
310.890977993833701
 31
0.0
  0
ARC
  5
A22D
  8
0
 10
4471.9574282209650846
 20
310.9708478442429964
 30
0.0
 40
0.0798794670943839
 50
269.1109276478640027
 51
2.9922440426895971
  0
LINE
  5
A22E
  8
0
 10
4472.0371987812068255
 20
310.9750176142749751
 30
0.0
 11
4472.0371325627047554
 21
313.3421128447749879
 31
0.0
  0
ARC
  5
A22F
  8
0
 10
4467.3515508690143179
 20
307.9397580331959716
 30
0.0
 40
1.6165649126030699
 50
1.299682892624161
 51
13.9631559315547307
  0
LINE
  5
A230
  8
0
 10
4468.9676998958384502
 20
307.9764246359246158
 30
0.0
 11
4468.9676998960394485
 21
307.4410113398757858
 31
0.0
  0
ARC
  5
A231
  8
0
 10
4471.9576242355033173
 20
308.2501937580149729
 30
0.0
 40
0.0796300539901669
 50
356.9903457378686085
 51
90.9176753424951443
  0
LINE
  5
A232
  8
0
 10
4471.9563488987596429
 20
308.3298135985992872
 30
0.0
 11
4468.9203480563228368
 21
308.3298317464244178
 31
0.0
  0
LINE
  5
A233
  8
0
 10
4471.1025341653130454
 20
305.7949156667255011
 30
0.0
 11
4471.9562006550750084
 21
305.7948779929424745
 31
0.0
  0
ARC
  5
A234
  8
0
 10
4471.9574401141817361
 20
305.8747478433518268
 30
0.0
 40
0.0798794670943839
 50
269.1109276478640027
 51
2.9922440426895971
  0
LINE
  5
A235
  8
0
 10
4472.0372106744225675
 20
305.8789176133838055
 30
0.0
 11
4472.0371444559232259
 21
308.2460128438838183
 31
0.0
  0
ARC
  5
A236
  8
0
 10
4467.3515386505214337
 20
302.8436579916236724
 30
0.0
 40
1.616565238696688
 50
1.299683531893969
 51
13.9631546363533605
  0
LINE
  5
A237
  8
0
 10
4468.9676880029455788
 20
302.8803246197805947
 30
0.0
 11
4468.9676880036313378
 21
301.0523218426399126
 31
0.0
  0
ARC
  5
A238
  8
0
 10
4467.3498945611218005
 20
301.0892057334110063
 30
0.0
 40
1.6182138437253071
 50
346.0433322594868741
 51
358.6939462254795217
  0
ARC
  5
A239
  8
0
 10
4471.9576123119777549
 20
303.1540937316448776
 30
0.0
 40
0.0796300831407492
 50
356.9903662663987234
 51
90.9176531959950154
  0
LINE
  5
A23A
  8
0
 10
4471.9563370055429914
 20
303.2337136018689989
 30
0.0
 11
4471.8076799822683824
 21
303.2337144903934245
 31
0.0
  0
LINE
  5
A23B
  8
0
 10
4470.3076799822683824
 20
303.2337234559072954
 30
0.0
 11
4468.9203361631061853
 21
303.2337317480740921
 31
0.0
  0
LINE
  5
A23C
  8
0
 10
4468.9203361624913668
 20
300.6989119713406922
 30
0.0
 11
4470.3076799822683824
 21
300.698850727685226
 31
0.0
  0
LINE
  5
A23D
  8
0
 10
4471.8076799822683824
 20
300.698784510874475
 30
0.0
 11
4471.9561863148292105
 21
300.6987779551307085
 31
0.0
  0
ARC
  5
A23E
  8
0
 10
4471.9574287259029006
 20
300.778646418643973
 30
0.0
 40
0.0798781262253188
 50
269.1087950493950984
 51
2.9933279778956949
  0
LINE
  5
A23F
  8
0
 10
4472.0371978682060217
 20
300.7828176277740795
 30
0.0
 11
4472.0371325630057981
 21
303.1499128444746134
 31
0.0
  0
ARC
  5
A240
  8
0
 10
4475.605925508686596
 20
320.985292226556794
 30
0.0
 40
0.082590736034968
 50
3.9421117062397459
 51
81.2913706712686945
  0
LINE
  5
A241
  8
0
 10
4475.6184305469059836
 20
321.0669307817740901
 30
0.0
 11
4468.9203361654808759
 21
321.0692593224464986
 31
0.0
  0
LINE
  5
A242
  8
0
 10
4468.9203361631061853
 20
318.5382566682333163
 30
0.0
 11
4475.6119338968046577
 21
318.5359303859740976
 31
0.0
  0
ARC
  5
A243
  8
0
 10
4475.6026718232787971
 20
318.6213710396808096
 30
0.0
 40
0.0859412084614658
 50
276.186908807080215
 51
355.3485027668352814
  0
LINE
  5
A244
  8
0
 10
4475.6883299752062157
 20
318.6144016551741061
 30
0.0
 11
4475.6883208366061808
 21
320.9909702205741269
 31
0.0
  0
ARC
  5
A245
  8
0
 10
4467.4541146891469907
 20
318.9080410499802269
 30
0.0
 40
1.4985765344588109
 50
348.9364325403466864
 51
359.2597315836163716
  0
LINE
  5
A246
  8
0
 10
4468.952566147007019
 20
318.8886797981771792
 30
0.0
 11
4468.9525552132372468
 21
320.7166862787274226
 31
0.0
  0
ARC
  5
A247
  8
0
 10
4467.4263391858703471
 20
320.6946364918997006
 30
0.0
 40
1.526360408779335
 50
0.8271591979138392
 51
10.9159407814112104
  0
ARC
  5
A248
  8
0
 10
4475.605925508686596
 20
315.8891922265568155
 30
0.0
 40
0.082590736034968
 50
3.9421117062397459
 51
81.2913706712686945
  0
LINE
  5
A249
  8
0
 10
4475.6184305469059836
 20
315.9708307817741115
 30
0.0
 11
4468.9203361626059632
 21
315.9731593224476001
 31
0.0
  0
LINE
  5
A24A
  8
0
 10
4468.9203361626259721
 20
313.4421566682333946
 30
0.0
 11
4475.6119338968046577
 21
313.4398303859741191
 31
0.0
  0
ARC
  5
A24B
  8
0
 10
4475.6026718232787971
 20
313.5252710396807174
 30
0.0
 40
0.0859412084614658
 50
276.186908807080215
 51
355.3485027668352814
  0
LINE
  5
A24C
  8
0
 10
4475.6883299752062157
 20
313.5183016551741275
 30
0.0
 11
4475.6883208366061808
 21
315.8948702205739778
 31
0.0
  0
ARC
  5
A24D
  8
0
 10
4467.4541146891469907
 20
313.8119410499801916
 30
0.0
 40
1.4985765344588109
 50
348.9364325403466864
 51
359.2597315836163716
  0
LINE
  5
A24E
  8
0
 10
4468.952566147007019
 20
313.7925797981773144
 30
0.0
 11
4468.9525552132372468
 21
315.6205862787272736
 31
0.0
  0
ARC
  5
A24F
  8
0
 10
4467.4263391858703471
 20
315.598536491899722
 30
0.0
 40
1.526360408779335
 50
0.8271591979138392
 51
10.9159407814112104
  0
ARC
  5
A250
  8
0
 10
4475.605925508686596
 20
310.7930922265567801
 30
0.0
 40
0.082590736034968
 50
3.9421117062397459
 51
81.2913706712686945
  0
LINE
  5
A251
  8
0
 10
4475.6184305469059836
 20
310.8747307817740761
 30
0.0
 11
4468.9203361626068727
 21
310.8770593224476215
 31
0.0
  0
LINE
  5
A252
  8
0
 10
4468.9203454686730765
 20
308.3460566649982866
 30
0.0
 11
4475.6119338968046577
 21
308.3437303859740837
 31
0.0
  0
ARC
  5
A253
  8
0
 10
4475.6026718232787971
 20
308.429171039680682
 30
0.0
 40
0.0859412084614658
 50
276.186908807080215
 51
355.3485027668352814
  0
LINE
  5
A254
  8
0
 10
4475.6883299752062157
 20
308.4222016551739785
 30
0.0
 11
4475.6883208366061808
 21
310.798770220574113
 31
0.0
  0
ARC
  5
A255
  8
0
 10
4467.4541146891469907
 20
308.715841049980213
 30
0.0
 40
1.4985765344588109
 50
348.9364325403466864
 51
359.2597315836163716
  0
LINE
  5
A256
  8
0
 10
4468.952566147007019
 20
308.6964797981772222
 30
0.0
 11
4468.9525552132372468
 21
310.524486278727295
 31
0.0
  0
ARC
  5
A257
  8
0
 10
4467.4263391858703471
 20
310.5024364918996866
 30
0.0
 40
1.526360408779335
 50
0.8271591979138392
 51
10.9159407814112104
  0
ARC
  5
A258
  8
0
 10
4475.605925508686596
 20
305.6969922265569153
 30
0.0
 40
0.082590736034968
 50
3.9421117062397459
 51
81.2913706712686945
  0
LINE
  5
A259
  8
0
 10
4475.6184305469059836
 20
305.7786307817739839
 30
0.0
 11
4471.1161549848693539
 21
305.7801959630284045
 31
0.0
  0
LINE
  5
A25A
  8
0
 10
4468.9203361631061853
 20
303.2499566682333239
 30
0.0
 11
4470.3076799822683824
 21
303.2494743688718017
 31
0.0
  0
LINE
  5
A25B
  8
0
 10
4471.8076799822683824
 20
303.2489529054594186
 30
0.0
 11
4475.6119338968046577
 21
303.2476303859739915
 31
0.0
  0
ARC
  5
A25C
  8
0
 10
4475.6026718232787971
 20
303.3330710396807035
 30
0.0
 40
0.0859412084614658
 50
276.186908807080215
 51
355.3485027668352814
  0
LINE
  5
A25D
  8
0
 10
4475.6883299752062157
 20
303.3261016551741136
 30
0.0
 11
4475.6883208366061808
 21
305.7026702205740776
 31
0.0
  0
ARC
  5
A25E
  8
0
 10
4467.4541146891469907
 20
303.6197410499802913
 30
0.0
 40
1.4985765344588109
 50
348.9364325403466864
 51
359.2597315836163716
  0
LINE
  5
A25F
  8
0
 10
4468.952566147007019
 20
303.6003797981771868
 30
0.0
 11
4468.9525618565430705
 21
304.3176982981282208
 31
0.0
  0
ARC
  5
A260
  8
0
 10
4475.605925508686596
 20
300.6008922265568231
 30
0.0
 40
0.082590736034968
 50
3.9421117062397459
 51
81.2913706712686945
  0
LINE
  5
A261
  8
0
 10
4475.6184305469059836
 20
300.6825307817741191
 30
0.0
 11
4471.8076799822683824
 21
300.6838555597150275
 31
0.0
  0
LINE
  5
A262
  8
0
 10
4470.3076799822683824
 20
300.6843770231059239
 30
0.0
 11
4468.9203361613417655
 21
300.6848593224480055
 31
0.0
  0
LINE
  5
A263
  8
0
 10
4468.9203359360899412
 20
298.1538566683121871
 30
0.0
 11
4470.3076799822683824
 21
298.1533743688718232
 31
0.0
  0
LINE
  5
A264
  8
0
 10
4471.8076799822683824
 20
298.1528529054593832
 30
0.0
 11
4475.6119338968046577
 21
298.1515303859741266
 31
0.0
  0
ARC
  5
A265
  8
0
 10
4475.6026718232787971
 20
298.236971039680725
 30
0.0
 40
0.0859412084614658
 50
276.186908807080215
 51
355.3485027668352814
  0
LINE
  5
A266
  8
0
 10
4475.6883299752062157
 20
298.2300016551740782
 30
0.0
 11
4475.6883208366061808
 21
300.606570220574099
 31
0.0
  0
ARC
  5
A267
  8
0
 10
4467.4541146891469907
 20
298.5236410499801991
 30
0.0
 40
1.4985765344588109
 50
348.9364325403466864
 51
359.2597315836163716
  0
LINE
  5
A268
  8
0
 10
4468.952566147007019
 20
298.5042797981772082
 30
0.0
 11
4468.9525552132372468
 21
300.3322862787272811
 31
0.0
  0
ARC
  5
A269
  8
0
 10
4467.4263391858703471
 20
300.3102364918996727
 30
0.0
 40
1.526360408779335
 50
0.8271591979138392
 51
10.9159407814112104
  0
LINE
  5
A26A
  8
0
 10
4468.9203361660329392
 20
321.0833119712740995
 30
0.0
 11
4468.9203361631061853
 21
321.0088607312476938
 31
0.0
  0
LINE
  5
A26B
  8
0
 10
4468.9203361631061853
 20
321.0088607312476938
 30
0.0
 11
4468.9250817282063508
 21
320.9836812795741139
 31
0.0
  0
LINE
  5
A26C
  8
0
 10
4468.9203361631061853
 20
318.5220317473153955
 30
0.0
 11
4468.9203361631061853
 21
318.596603855373985
 31
0.0
  0
LINE
  5
A26D
  8
0
 10
4468.9203361631061853
 20
318.596603855373985
 30
0.0
 11
4468.9248400050555574
 21
318.6204672772237814
 31
0.0
  0
LINE
  5
A26E
  8
0
 10
4468.9203361624886384
 20
315.9872119712666745
 30
0.0
 11
4468.9203361631061853
 21
315.9127605716740845
 31
0.0
  0
LINE
  5
A26F
  8
0
 10
4468.9203361631061853
 20
315.9127605716740845
 30
0.0
 11
4468.9250817282063508
 21
315.8875812795740785
 31
0.0
  0
LINE
  5
A270
  8
0
 10
4468.9203361624931858
 20
313.4259317472149178
 30
0.0
 11
4468.9203361631061853
 21
313.5005038553741201
 31
0.0
  0
LINE
  5
A271
  8
0
 10
4468.9203361631061853
 20
313.5005038553741201
 30
0.0
 11
4468.9248400050555574
 21
313.5243672772231776
 31
0.0
  0
LINE
  5
A272
  8
0
 10
4468.9203361624913668
 20
310.8911119713362723
 30
0.0
 11
4468.9203361631061853
 21
310.816660571674106
 31
0.0
  0
LINE
  5
A273
  8
0
 10
4468.9203361631061853
 20
310.816660571674106
 30
0.0
 11
4468.9250817282063508
 21
310.7914812795741
 31
0.0
  0
LINE
  5
A274
  8
0
 10
4468.9203480563228368
 20
308.3298317464244178
 30
0.0
 11
4468.9203361631061853
 21
308.4044038553740847
 31
0.0
  0
LINE
  5
A275
  8
0
 10
4468.9203361631061853
 20
308.4044038553740847
 30
0.0
 11
4468.9248400050555574
 21
308.428267277223199
 31
0.0
  0
LINE
  5
A276
  8
0
 10
4468.9203361631061853
 20
303.2337317480740921
 30
0.0
 11
4468.9203361631061853
 21
303.3083038553741062
 31
0.0
  0
LINE
  5
A277
  8
0
 10
4468.9203361631061853
 20
303.3083038553741062
 30
0.0
 11
4468.9248400056612809
 21
303.3321672803252227
 31
0.0
  0
LINE
  5
A278
  8
0
 10
4468.9203361624913668
 20
300.6989119713406922
 30
0.0
 11
4468.9203361564059378
 21
300.6244606064739742
 31
0.0
  0
LINE
  5
A279
  8
0
 10
4468.9203361564059378
 20
300.6244606064739742
 30
0.0
 11
4468.9250817282063508
 21
300.5992812795739724
 31
0.0
  0
LINE
  5
A27A
  8
0
 10
4468.9253078059819018
 20
298.0648937076812786
 30
0.0
 11
4468.9203359303091929
 21
298.089201586011086
 31
0.0
  0
LINE
  5
A27B
  8
0
 10
4468.9203359303091929
 20
298.089201586011086
 30
0.0
 11
4468.9203359413049839
 21
298.2122026977739893
 31
0.0
  0
LINE
  5
A27C
  8
0
 10
4468.9203359413049839
 20
298.2122026977739893
 30
0.0
 11
4468.9248400050555574
 21
298.2360672772227872
 31
0.0
  0
ARC
  5
A27D
  8
0
 10
4467.5080287359232898
 20
297.7710352141440922
 30
0.0
 40
1.447422805074277
 50
0.5219727126525583
 51
11.7137260136696799
  0
LINE
  5
A27E
  8
0
 10
4468.9553914772059215
 20
297.7842212596739842
 30
0.0
 11
4468.9553914772059215
 21
295.9562212596741233
 31
0.0
  0
ARC
  5
A27F
  8
0
 10
4467.3714621992858156
 20
295.9821265874600158
 30
0.0
 40
1.584141105917636
 50
346.3960380263519028
 51
359.0630051169919739
  0
ARC
  5
A280
  8
0
 10
4469.095356017361155
 20
296.5666005461678765
 30
0.0
 40
1.5712292105843659
 50
90.2063085999914875
 51
93.9679279216223762
  0
ARC
  5
A281
  8
0
 10
4469.5343062686288249
 20
249.8597566276291104
 30
0.0
 40
45.8125990487561694
 50
90.5187278708773277
 51
90.7630485284395547
  0
ARC
  5
A282
  8
0
 10
4497.5091678538583437
 20
295.5047361660489855
 30
0.0
 40
0.0826573140842531
 50
3.9583061792581051
 51
81.2117058123479865
  0
LINE
  5
A283
  8
0
 10
4497.5217965634074062
 20
295.5864230515741156
 30
0.0
 11
4490.3740582044047187
 21
295.5864215953740768
 31
0.0
  0
ARC
  5
A284
  8
0
 10
4490.3866742057152806
 20
295.5047544619517907
 30
0.0
 40
0.0826358528148742
 50
98.7816787481326344
 51
176.0360300931654081
  0
LINE
  5
A285
  8
0
 10
4490.3042360410863694
 20
295.5104670080568781
 30
0.0
 11
4490.304226526363891
 21
293.1339016738818941
 31
0.0
  0
ARC
  5
A286
  8
0
 10
4490.3867045063670957
 20
293.1396239503549737
 30
0.0
 40
0.0826762458821125
 50
183.968789593667907
 51
261.2012228403814902
  0
LINE
  5
A287
  8
0
 10
4490.3740579555060322
 20
293.0579206677741126
 30
0.0
 11
4497.5217963115055682
 21
293.0581717799739749
 31
0.0
  0
ARC
  5
A288
  8
0
 10
4497.5097261579876431
 20
293.1393549581512161
 30
0.0
 40
0.0820755568051146
 50
278.4566736798342959
 51
356.1706186007623955
  0
LINE
  5
A289
  8
0
 10
4497.5916184689422153
 20
293.1338734956017902
 30
0.0
 11
4497.5916279928487711
 21
295.5104420445393885
 31
0.0
  0
ARC
  5
A28A
  8
0
 10
4490.2080678538586653
 20
295.5047361660489855
 30
0.0
 40
0.0826573140842531
 50
3.9583061792581051
 51
81.2117058123479865
  0
LINE
  5
A28B
  8
0
 10
4490.2206965634049993
 20
295.5864230515741156
 30
0.0
 11
4483.0729582044050403
 21
295.5864215953740768
 31
0.0
  0
ARC
  5
A28C
  8
0
 10
4483.0855742057146927
 20
295.5047544619517907
 30
0.0
 40
0.0826358528148742
 50
98.7816787481326344
 51
176.0360300931654081
  0
LINE
  5
A28D
  8
0
 10
4483.0031360410857815
 20
295.5104670080568781
 30
0.0
 11
4483.0031265263642126
 21
293.1339016738818941
 31
0.0
  0
ARC
  5
A28E
  8
0
 10
4483.0856045063655984
 20
293.1396239503549737
 30
0.0
 40
0.0826762458821125
 50
183.968789593667907
 51
261.2012228403814902
  0
LINE
  5
A28F
  8
0
 10
4483.0729579555054443
 20
293.0579206677741126
 30
0.0
 11
4490.2206963115058898
 21
293.0581717799739749
 31
0.0
  0
ARC
  5
A290
  8
0
 10
4490.2086261579888742
 20
293.1393549581512161
 30
0.0
 40
0.0820755568051146
 50
278.4566736798342959
 51
356.1706186007623955
  0
LINE
  5
A291
  8
0
 10
4490.2905184689407179
 20
293.1338734956017902
 30
0.0
 11
4490.2905279928490927
 21
295.5104420445392748
 31
0.0
  0
ARC
  5
A292
  8
0
 10
4482.9069678538589869
 20
295.5047361660489855
 30
0.0
 40
0.0826573140842531
 50
3.9583061792581051
 51
81.2117058123479865
  0
LINE
  5
A293
  8
0
 10
4482.9195965634062304
 20
295.5864230515741156
 30
0.0
 11
4475.7718582044062714
 21
295.5864215953740768
 31
0.0
  0
ARC
  5
A294
  8
0
 10
4475.7844742057150143
 20
295.5047544619517907
 30
0.0
 40
0.0826358528148742
 50
98.7816787481326344
 51
176.0360300931654081
  0
LINE
  5
A295
  8
0
 10
4475.7020360410861031
 20
295.5104670080568781
 30
0.0
 11
4475.7020265263654437
 21
293.1339016738818941
 31
0.0
  0
ARC
  5
A296
  8
0
 10
4475.7845045063668294
 20
293.1396239503549737
 30
0.0
 40
0.0826762458821125
 50
183.968789593667907
 51
261.2012228403814902
  0
LINE
  5
A297
  8
0
 10
4475.7718579555057659
 20
293.0579206677741126
 30
0.0
 11
4482.9195963115062114
 21
293.0581717799739749
 31
0.0
  0
ARC
  5
A298
  8
0
 10
4482.9075261579901053
 20
293.1393549581512161
 30
0.0
 40
0.0820755568051146
 50
278.4566736798342959
 51
356.1706186007623955
  0
LINE
  5
A299
  8
0
 10
4482.989418468941949
 20
293.1338734956017902
 30
0.0
 11
4482.9894279928494143
 21
295.5104420445392748
 31
0.0
  0
ARC
  5
A29A
  8
0
 10
4479.256417853858693
 20
292.9566861660488826
 30
0.0
 40
0.0826573140842531
 50
3.9583061792581051
 51
81.2117058123479865
  0
LINE
  5
A29B
  8
0
 10
4479.269046563405027
 20
293.0383730515741263
 30
0.0
 11
4472.1213082044059774
 21
293.0383715953740875
 31
0.0
  0
ARC
  5
A29C
  8
0
 10
4472.1339242057138108
 20
292.9567044619519152
 30
0.0
 40
0.0826358528148742
 50
98.7816787481326344
 51
176.0360300931654081
  0
LINE
  5
A29D
  8
0
 10
4472.0514860410858091
 20
292.9624170080568888
 30
0.0
 11
4472.0514765263642403
 21
290.5858516738820185
 31
0.0
  0
ARC
  5
A29E
  8
0
 10
4472.133954506365626
 20
290.5915739503550981
 30
0.0
 40
0.0826762458821125
 50
183.968789593667907
 51
261.2012228403814902
  0
LINE
  5
A29F
  8
0
 10
4472.1213079555063814
 20
290.5098706677740097
 30
0.0
 11
4479.2690463115068269
 21
290.5101217799740994
 31
0.0
  0
ARC
  5
A2A0
  8
0
 10
4479.2569761579889018
 20
290.5913049581512269
 30
0.0
 40
0.0820755568051146
 50
278.4566736798342959
 51
356.1706186007623955
  0
LINE
  5
A2A1
  8
0
 10
4479.338868468941655
 20
290.5858234956016872
 30
0.0
 11
4479.3388779928491203
 21
292.9623920445392855
 31
0.0
  0
ARC
  5
A2A2
  8
0
 10
4486.5575178538583714
 20
292.9566861660488826
 30
0.0
 40
0.0826573140842531
 50
3.9583061792581051
 51
81.2117058123479865
  0
LINE
  5
A2A3
  8
0
 10
4486.5701465634074339
 20
293.0383730515741263
 30
0.0
 11
4479.4224082044047464
 21
293.0383715953740875
 31
0.0
  0
ARC
  5
A2A4
  8
0
 10
4479.4350242057162177
 20
292.9567044619519152
 30
0.0
 40
0.0826358528148742
 50
98.7816787481326344
 51
176.0360300931654081
  0
LINE
  5
A2A5
  8
0
 10
4479.3525860410873065
 20
292.9624170080568888
 30
0.0
 11
4479.3525765263630092
 21
290.5858516738820185
 31
0.0
  0
ARC
  5
A2A6
  8
0
 10
4479.4350545063671234
 20
290.5915739503550981
 30
0.0
 40
0.0826762458821125
 50
183.968789593667907
 51
261.2012228403814902
  0
LINE
  5
A2A7
  8
0
 10
4479.4224079555060598
 20
290.5098706677740097
 30
0.0
 11
4486.5701463115055958
 21
290.5101217799740994
 31
0.0
  0
ARC
  5
A2A8
  8
0
 10
4486.5580761579876707
 20
290.5913049581512269
 30
0.0
 40
0.0820755568051146
 50
278.4566736798342959
 51
356.1706186007623955
  0
LINE
  5
A2A9
  8
0
 10
4486.6399684689422429
 20
290.5858234956016872
 30
0.0
 11
4486.6399779928478893
 21
292.9623920445392855
 31
0.0
  0
ARC
  5
A2AA
  8
0
 10
4493.8586178538589593
 20
292.9566861660488826
 30
0.0
 40
0.0826573140842531
 50
3.9583061792581051
 51
81.2117058123479865
  0
LINE
  5
A2AB
  8
0
 10
4493.8712465634062028
 20
293.0383730515741263
 30
0.0
 11
4486.7235082044062437
 21
293.0383715953740875
 31
0.0
  0
ARC
  5
A2AC
  8
0
 10
4486.7361242057149866
 20
292.9567044619519152
 30
0.0
 40
0.0826358528148742
 50
98.7816787481326344
 51
176.0360300931654081
  0
LINE
  5
A2AD
  8
0
 10
4486.6536860410860754
 20
292.9624170080568888
 30
0.0
 11
4486.6536765263654161
 21
290.5858516738820185
 31
0.0
  0
ARC
  5
A2AE
  8
0
 10
4486.7361545063658923
 20
290.5915739503550981
 30
0.0
 40
0.0826762458821125
 50
183.968789593667907
 51
261.2012228403814902
  0
LINE
  5
A2AF
  8
0
 10
4486.7235079555048287
 20
290.5098706677740097
 30
0.0
 11
4493.8712463115052742
 21
290.5101217799740994
 31
0.0
  0
ARC
  5
A2B0
  8
0
 10
4493.8591761579891681
 20
290.5913049581512269
 30
0.0
 40
0.0820755568051146
 50
278.4566736798342959
 51
356.1706186007623955
  0
LINE
  5
A2B1
  8
0
 10
4493.9410684689419213
 20
290.5858234956016872
 30
0.0
 11
4493.9410779928493866
 21
292.9623920445392855
 31
0.0
  0
ARC
  5
A2B2
  8
0
 10
4497.5091678538583437
 20
290.4086361660488933
 30
0.0
 40
0.0826573140842531
 50
3.9583061792581051
 51
81.2117058123479865
  0
LINE
  5
A2B3
  8
0
 10
4497.5217965634074062
 20
290.4903230515740802
 30
0.0
 11
4490.3740582044056282
 21
290.4903215953740983
 31
0.0
  0
ARC
  5
A2B4
  8
0
 10
4490.3866742057152806
 20
290.4086544619519259
 30
0.0
 40
0.0826358528148742
 50
98.7816787481326344
 51
176.0360300931654081
  0
LINE
  5
A2B5
  8
0
 10
4490.3042360410863694
 20
290.4143670080568995
 30
0.0
 11
4490.304226526363891
 21
288.0378016738819724
 31
0.0
  0
ARC
  5
A2B6
  8
0
 10
4490.3867045063670957
 20
288.0435239503551088
 30
0.0
 40
0.0826762458821125
 50
183.968789593667907
 51
261.2012228403814902
  0
LINE
  5
A2B7
  8
0
 10
4490.3740579555060322
 20
287.9618206677740773
 30
0.0
 11
4497.5217963115055682
 21
287.9620717799739964
 31
0.0
  0
ARC
  5
A2B8
  8
0
 10
4497.5097261579876431
 20
288.0432549581512944
 30
0.0
 40
0.0820755568051146
 50
278.4566736798342959
 51
356.1706186007623955
  0
LINE
  5
A2B9
  8
0
 10
4497.5916184689422153
 20
288.0377734956018116
 30
0.0
 11
4497.5916279928487711
 21
290.4143420445392962
 31
0.0
  0
ARC
  5
A2BA
  8
0
 10
4490.2080678538586653
 20
290.4086361660488933
 30
0.0
 40
0.0826573140842531
 50
3.9583061792581051
 51
81.2117058123479865
  0
LINE
  5
A2BB
  8
0
 10
4490.2206965634049993
 20
290.4903230515740802
 30
0.0
 11
4483.0729582044050403
 21
290.4903215953740983
 31
0.0
  0
ARC
  5
A2BC
  8
0
 10
4483.0855742057146927
 20
290.4086544619519259
 30
0.0
 40
0.0826358528148742
 50
98.7816787481326344
 51
176.0360300931654081
  0
LINE
  5
A2BD
  8
0
 10
4483.0031360410857815
 20
290.4143670080568995
 30
0.0
 11
4483.0031265263642126
 21
288.0378016738819724
 31
0.0
  0
ARC
  5
A2BE
  8
0
 10
4483.0856045063655984
 20
288.0435239503551088
 30
0.0
 40
0.0826762458821125
 50
183.968789593667907
 51
261.2012228403814902
  0
LINE
  5
A2BF
  8
0
 10
4483.0729579555054443
 20
287.9618206677740773
 30
0.0
 11
4490.2206963115058898
 21
287.9620717799739964
 31
0.0
  0
ARC
  5
A2C0
  8
0
 10
4490.2086261579888742
 20
288.0432549581512944
 30
0.0
 40
0.0820755568051146
 50
278.4566736798342959
 51
356.1706186007623955
  0
LINE
  5
A2C1
  8
0
 10
4490.2905184689407179
 20
288.0377734956018116
 30
0.0
 11
4490.2905279928490927
 21
290.4143420445392962
 31
0.0
  0
ARC
  5
A2C2
  8
0
 10
4482.9069678538589869
 20
290.4086361660488933
 30
0.0
 40
0.0826573140842531
 50
3.9583061792581051
 51
81.2117058123479865
  0
LINE
  5
A2C3
  8
0
 10
4482.9195965634062304
 20
290.4903230515740802
 30
0.0
 11
4475.7718582044062714
 21
290.4903215953740983
 31
0.0
  0
ARC
  5
A2C4
  8
0
 10
4475.7844742057150143
 20
290.4086544619519259
 30
0.0
 40
0.0826358528148742
 50
98.7816787481326344
 51
176.0360300931654081
  0
LINE
  5
A2C5
  8
0
 10
4475.7020360410861031
 20
290.4143670080568995
 30
0.0
 11
4475.7020265263654437
 21
288.0378016738819724
 31
0.0
  0
ARC
  5
A2C6
  8
0
 10
4475.7845045063668294
 20
288.0435239503551088
 30
0.0
 40
0.0826762458821125
 50
183.968789593667907
 51
261.2012228403814902
  0
LINE
  5
A2C7
  8
0
 10
4475.7718579555057659
 20
287.9618206677740773
 30
0.0
 11
4482.9195963115062114
 21
287.9620717799739964
 31
0.0
  0
ARC
  5
A2C8
  8
0
 10
4482.9075261579901053
 20
288.0432549581512944
 30
0.0
 40
0.0820755568051146
 50
278.4566736798342959
 51
356.1706186007623955
  0
LINE
  5
A2C9
  8
0
 10
4482.989418468941949
 20
288.0377734956018116
 30
0.0
 11
4482.9894279928494143
 21
290.4143420445392962
 31
0.0
  0
ARC
  5
A2CA
  8
0
 10
4493.8586178538589593
 20
287.860586166048904
 30
0.0
 40
0.0826573140842531
 50
3.9583061792581051
 51
81.2117058123479865
  0
LINE
  5
A2CB
  8
0
 10
4493.8712465634062028
 20
287.9422730515739772
 30
0.0
 11
4486.7235082044062437
 21
287.942271595374109
 31
0.0
  0
ARC
  5
A2CC
  8
0
 10
4486.7361242057149866
 20
287.8606044619518798
 30
0.0
 40
0.0826358528148742
 50
98.7816787481326344
 51
176.0360300931654081
  0
LINE
  5
A2CD
  8
0
 10
4486.6536860410860754
 20
287.8663170080569103
 30
0.0
 11
4486.6536765263654161
 21
285.4897516738819832
 31
0.0
  0
ARC
  5
A2CE
  8
0
 10
4486.7361545063658923
 20
285.4954739503551195
 30
0.0
 40
0.0826762458821125
 50
183.968789593667907
 51
261.2012228403814902
  0
LINE
  5
A2CF
  8
0
 10
4486.7235079555048287
 20
285.413770667774088
 30
0.0
 11
4493.8712463115052742
 21
285.4140217799741208
 31
0.0
  0
ARC
  5
A2D0
  8
0
 10
4493.8591761579891681
 20
285.4952049581511915
 30
0.0
 40
0.0820755568051146
 50
278.4566736798342959
 51
356.1706186007623955
  0
LINE
  5
A2D1
  8
0
 10
4493.9410684689419213
 20
285.4897234956018224
 30
0.0
 11
4493.9410779928493866
 21
287.866292044539307
 31
0.0
  0
ARC
  5
A2D2
  8
0
 10
4486.5575178538583714
 20
287.860586166048904
 30
0.0
 40
0.0826573140842531
 50
3.9583061792581051
 51
81.2117058123479865
  0
LINE
  5
A2D3
  8
0
 10
4486.5701465634074339
 20
287.9422730515739772
 30
0.0
 11
4479.4224082044047464
 21
287.942271595374109
 31
0.0
  0
ARC
  5
A2D4
  8
0
 10
4479.4350242057162177
 20
287.8606044619518798
 30
0.0
 40
0.0826358528148742
 50
98.7816787481326344
 51
176.0360300931654081
  0
LINE
  5
A2D5
  8
0
 10
4479.3525860410873065
 20
287.8663170080569103
 30
0.0
 11
4479.3525765263630092
 21
285.4897516738819832
 31
0.0
  0
ARC
  5
A2D6
  8
0
 10
4479.4350545063671234
 20
285.4954739503551195
 30
0.0
 40
0.0826762458821125
 50
183.968789593667907
 51
261.2012228403814902
  0
LINE
  5
A2D7
  8
0
 10
4479.4224079555060598
 20
285.413770667774088
 30
0.0
 11
4486.5701463115055958
 21
285.4140217799741208
 31
0.0
  0
ARC
  5
A2D8
  8
0
 10
4486.5580761579876707
 20
285.4952049581511915
 30
0.0
 40
0.0820755568051146
 50
278.4566736798342959
 51
356.1706186007623955
  0
LINE
  5
A2D9
  8
0
 10
4486.6399684689422429
 20
285.4897234956018224
 30
0.0
 11
4486.6399779928478893
 21
287.866292044539307
 31
0.0
  0
ARC
  5
A2DA
  8
0
 10
4479.256417853858693
 20
287.860586166048904
 30
0.0
 40
0.0826573140842531
 50
3.9583061792581051
 51
81.2117058123479865
  0
LINE
  5
A2DB
  8
0
 10
4479.269046563405027
 20
287.9422730515739772
 30
0.0
 11
4472.1213082044059774
 21
287.942271595374109
 31
0.0
  0
ARC
  5
A2DC
  8
0
 10
4472.1339242057138108
 20
287.8606044619518798
 30
0.0
 40
0.0826358528148742
 50
98.7816787481326344
 51
176.0360300931654081
  0
LINE
  5
A2DD
  8
0
 10
4472.0514860410858091
 20
287.8663170080569103
 30
0.0
 11
4472.0514765263642403
 21
285.4897516738819832
 31
0.0
  0
ARC
  5
A2DE
  8
0
 10
4472.133954506365626
 20
285.4954739503551195
 30
0.0
 40
0.0826762458821125
 50
183.968789593667907
 51
261.2012228403814902
  0
LINE
  5
A2DF
  8
0
 10
4472.1213079555063814
 20
285.413770667774088
 30
0.0
 11
4479.2690463115068269
 21
285.4140217799741208
 31
0.0
  0
ARC
  5
A2E0
  8
0
 10
4479.2569761579889018
 20
285.4952049581511915
 30
0.0
 40
0.0820755568051146
 50
278.4566736798342959
 51
356.1706186007623955
  0
LINE
  5
A2E1
  8
0
 10
4479.338868468941655
 20
285.4897234956018224
 30
0.0
 11
4479.3388779928491203
 21
287.866292044539307
 31
0.0
  0
ARC
  5
A2E2
  8
0
 10
4497.5091678538583437
 20
285.3125361660489716
 30
0.0
 40
0.0826573140842531
 50
3.9583061792581051
 51
81.2117058123479865
  0
LINE
  5
A2E3
  8
0
 10
4497.5217965634074062
 20
285.3942230515741016
 30
0.0
 11
4490.3740582044056282
 21
285.3942215953741197
 31
0.0
  0
ARC
  5
A2E4
  8
0
 10
4490.3866742057152806
 20
285.3125544619518905
 30
0.0
 40
0.0826358528148742
 50
98.7816787481326344
 51
176.0360300931654081
  0
LINE
  5
A2E5
  8
0
 10
4490.3042360410863694
 20
285.318267008056921
 30
0.0
 11
4490.304226526363891
 21
282.9417016738819939
 31
0.0
  0
ARC
  5
A2E6
  8
0
 10
4490.3867045063670957
 20
282.9474239503550166
 30
0.0
 40
0.0826762458821125
 50
183.968789593667907
 51
234.6130714902818966
  0
ARC
  5
A2E7
  8
0
 10
4497.5097261579876431
 20
282.9471549581512022
 30
0.0
 40
0.0820755568051146
 50
305.0606055304409097
 51
356.1706186007623955
  0
LINE
  5
A2E8
  8
0
 10
4497.5916184689422153
 20
282.9416734956017763
 30
0.0
 11
4497.5916279928487711
 21
285.318242044539204
 31
0.0
  0
ARC
  5
A2E9
  8
0
 10
4490.2080678538586653
 20
285.3125361660489716
 30
0.0
 40
0.0826573140842531
 50
3.9583061792581051
 51
81.2117058123479865
  0
LINE
  5
A2EA
  8
0
 10
4490.2206965634049993
 20
285.3942230515741016
 30
0.0
 11
4483.0729582044050403
 21
285.3942215953741197
 31
0.0
  0
ARC
  5
A2EB
  8
0
 10
4483.0855742057146927
 20
285.3125544619518905
 30
0.0
 40
0.0826358528148742
 50
98.7816787481326344
 51
176.0360300931654081
  0
LINE
  5
A2EC
  8
0
 10
4483.0031360410857815
 20
285.318267008056921
 30
0.0
 11
4483.0031265263642126
 21
282.9417016738819939
 31
0.0
  0
ARC
  5
A2ED
  8
0
 10
4483.0856045063655984
 20
282.9474239503550166
 30
0.0
 40
0.0826762458821125
 50
183.968789593667907
 51
234.5539354030883885
  0
ARC
  5
A2EE
  8
0
 10
4490.2086261579888742
 20
282.9471549581512022
 30
0.0
 40
0.0820755568051146
 50
305.1206545257571747
 51
356.1706186007623955
  0
LINE
  5
A2EF
  8
0
 10
4490.2905184689407179
 20
282.9416734956017763
 30
0.0
 11
4490.2905279928490927
 21
285.318242044539204
 31
0.0
  0
ARC
  5
A2F0
  8
0
 10
4482.9069678538589869
 20
285.3125361660489716
 30
0.0
 40
0.0826573140842531
 50
3.9583061792581051
 51
81.2117058123479865
  0
LINE
  5
A2F1
  8
0
 10
4482.9195965634062304
 20
285.3942230515741016
 30
0.0
 11
4475.7718582044062714
 21
285.3942215953741197
 31
0.0
  0
ARC
  5
A2F2
  8
0
 10
4475.7844742057150143
 20
285.3125544619518905
 30
0.0
 40
0.0826358528148742
 50
98.7816787481326344
 51
176.0360300931654081
  0
LINE
  5
A2F3
  8
0
 10
4475.7020360410861031
 20
285.318267008056921
 30
0.0
 11
4475.7020265263654437
 21
282.9417016738819939
 31
0.0
  0
ARC
  5
A2F4
  8
0
 10
4475.7845045063668294
 20
282.9474239503550166
 30
0.0
 40
0.0826762458821125
 50
183.968789593667907
 51
261.2012228403814902
  0
LINE
  5
A2F5
  8
0
 10
4475.7718579555057659
 20
282.8657206677740987
 30
0.0
 11
4478.2201547992508495
 21
282.8658066806044076
 31
0.0
  0
ARC
  5
A2F6
  8
0
 10
4482.9075261579901053
 20
282.9471549581512022
 30
0.0
 40
0.0820755568051146
 50
305.1806141771950251
 51
356.1706186007623955
  0
LINE
  5
A2F7
  8
0
 10
4482.989418468941949
 20
282.9416734956017763
 30
0.0
 11
4482.9894279928494143
 21
285.318242044539204
 31
0.0
  0
LINE
  5
A2F8
  8
0
 10
4486.6536804738552746
 20
281.3796469141717012
 30
0.0
 11
4486.6536765263654161
 21
280.3936516738820046
 31
0.0
  0
ARC
  5
A2F9
  8
0
 10
4486.7361545063658923
 20
280.3993739503550842
 30
0.0
 40
0.0826762458821125
 50
183.968789593667907
 51
261.2012228403814902
  0
LINE
  5
A2FA
  8
0
 10
4486.7235079555048287
 20
280.3176706677739958
 30
0.0
 11
4493.8712463115052742
 21
280.3179217799739718
 31
0.0
  0
ARC
  5
A2FB
  8
0
 10
4493.8591761579891681
 20
280.3991049581512129
 30
0.0
 40
0.0820755568051146
 50
278.4566736798342959
 51
356.1706186007623955
  0
LINE
  5
A2FC
  8
0
 10
4493.9410684689419213
 20
280.393623495601787
 30
0.0
 11
4493.9410724205572478
 21
281.3796984798372023
 31
0.0
  0
LINE
  5
A2FD
  8
0
 10
4479.3525772997345484
 20
280.5868226321717884
 30
0.0
 11
4479.3525765263630092
 21
280.3936516738820046
 31
0.0
  0
ARC
  5
A2FE
  8
0
 10
4479.4350545063671234
 20
280.3993739503550842
 30
0.0
 40
0.0826762458821125
 50
183.968789593667907
 51
261.2012228403814902
  0
LINE
  5
A2FF
  8
0
 10
4479.4224079555060598
 20
280.3176706677739958
 30
0.0
 11
4486.5701463115055958
 21
280.3179217799739718
 31
0.0
  0
ARC
  5
A300
  8
0
 10
4486.5580761579876707
 20
280.3991049581512129
 30
0.0
 40
0.0820755568051146
 50
278.4566736798342959
 51
356.1706186007623955
  0
LINE
  5
A301
  8
0
 10
4486.6399684689422429
 20
280.393623495601787
 30
0.0
 11
4486.6399724203511141
 21
281.3796468171734091
 31
0.0
  0
LINE
  5
A302
  8
0
 10
4478.2098496855360281
 20
282.8461728357851825
 30
0.0
 11
4472.1213082044059774
 21
282.8461715953740736
 31
0.0
  0
ARC
  5
A303
  8
0
 10
4472.1339242057138108
 20
282.7645044619519012
 30
0.0
 40
0.0826358528148742
 50
98.7816787481326344
 51
176.0360300931654081
  0
LINE
  5
A304
  8
0
 10
4472.0514860410858091
 20
282.7702170080568749
 30
0.0
 11
4472.0514765263642403
 21
280.3936516738820046
 31
0.0
  0
ARC
  5
A305
  8
0
 10
4472.133954506365626
 20
280.3993739503550842
 30
0.0
 40
0.0826762458821125
 50
183.968789593667907
 51
261.2012228403814902
  0
LINE
  5
A306
  8
0
 10
4472.1213079555063814
 20
280.3176706677739958
 30
0.0
 11
4479.2690463115068269
 21
280.3179217799739718
 31
0.0
  0
ARC
  5
A307
  8
0
 10
4479.2569761579889018
 20
280.3991049581512129
 30
0.0
 40
0.0820755568051146
 50
278.4566736798342959
 51
356.1706186007623955
  0
LINE
  5
A308
  8
0
 10
4479.338868468941655
 20
280.393623495601787
 30
0.0
 11
4479.3388692521766643
 21
280.5890697103249067
 31
0.0
  0
ARC
  5
A309
  8
0
 10
4482.9069678538589869
 20
280.2164361660489931
 30
0.0
 40
0.0826573140842531
 50
3.9583061792581051
 51
81.2117058123479865
  0
LINE
  5
A30A
  8
0
 10
4482.9195965634062304
 20
280.2981230515741231
 30
0.0
 11
4475.7718582044062714
 21
280.2981215953740275
 31
0.0
  0
ARC
  5
A30B
  8
0
 10
4475.7844742057150143
 20
280.216454461951912
 30
0.0
 40
0.0826358528148742
 50
98.7816787481326344
 51
176.0360300931654081
  0
LINE
  5
A30C
  8
0
 10
4475.7020360410861031
 20
280.2221670080568856
 30
0.0
 11
4475.7020265263654437
 21
277.8456016738819017
 31
0.0
  0
ARC
  5
A30D
  8
0
 10
4475.7845045063668294
 20
277.8513239503550949
 30
0.0
 40
0.0826762458821125
 50
183.968789593667907
 51
261.2012228403814902
  0
LINE
  5
A30E
  8
0
 10
4475.7718579555057659
 20
277.7696206677741202
 30
0.0
 11
4482.9195963115062114
 21
277.7698717799739825
 31
0.0
  0
ARC
  5
A30F
  8
0
 10
4482.9075261579901053
 20
277.8510549581512237
 30
0.0
 40
0.0820755568051146
 50
278.4566736798342959
 51
356.1706186007623955
  0
LINE
  5
A310
  8
0
 10
4482.989418468941949
 20
277.8455734956017977
 30
0.0
 11
4482.9894279928494143
 21
280.2221420445392823
 31
0.0
  0
ARC
  5
A311
  8
0
 10
4490.2080678538586653
 20
280.2164361660489931
 30
0.0
 40
0.0826573140842531
 50
3.9583061792581051
 51
81.2117058123479865
  0
LINE
  5
A312
  8
0
 10
4490.2206965634049993
 20
280.2981230515741231
 30
0.0
 11
4483.0729582044050403
 21
280.2981215953740275
 31
0.0
  0
ARC
  5
A313
  8
0
 10
4483.0855742057146927
 20
280.216454461951912
 30
0.0
 40
0.0826358528148742
 50
98.7816787481326344
 51
176.0360300931654081
  0
LINE
  5
A314
  8
0
 10
4483.0031360410857815
 20
280.2221670080568856
 30
0.0
 11
4483.0031265263642126
 21
277.8456016738819017
 31
0.0
  0
ARC
  5
A315
  8
0
 10
4483.0856045063655984
 20
277.8513239503550949
 30
0.0
 40
0.0826762458821125
 50
183.968789593667907
 51
261.2012228403814902
  0
LINE
  5
A316
  8
0
 10
4483.0729579555054443
 20
277.7696206677741202
 30
0.0
 11
4490.2206963115058898
 21
277.7698717799739825
 31
0.0
  0
ARC
  5
A317
  8
0
 10
4490.2086261579888742
 20
277.8510549581512237
 30
0.0
 40
0.0820755568051146
 50
278.4566736798342959
 51
356.1706186007623955
  0
LINE
  5
A318
  8
0
 10
4490.2905184689407179
 20
277.8455734956017977
 30
0.0
 11
4490.2905279928490927
 21
280.2221420445392823
 31
0.0
  0
ARC
  5
A319
  8
0
 10
4497.5091678538583437
 20
280.2164361660489931
 30
0.0
 40
0.0826573140842531
 50
3.9583061792581051
 51
81.2117058123479865
  0
LINE
  5
A31A
  8
0
 10
4497.5217965634074062
 20
280.2981230515741231
 30
0.0
 11
4490.3740582044056282
 21
280.2981215953740275
 31
0.0
  0
ARC
  5
A31B
  8
0
 10
4490.3866742057152806
 20
280.216454461951912
 30
0.0
 40
0.0826358528148742
 50
98.7816787481326344
 51
176.0360300931654081
  0
LINE
  5
A31C
  8
0
 10
4490.3042360410863694
 20
280.2221670080568856
 30
0.0
 11
4490.304226526363891
 21
277.8456016738819017
 31
0.0
  0
ARC
  5
A31D
  8
0
 10
4490.3867045063670957
 20
277.8513239503550949
 30
0.0
 40
0.0826762458821125
 50
183.968789593667907
 51
261.2012228403814902
  0
LINE
  5
A31E
  8
0
 10
4490.3740579555060322
 20
277.7696206677741202
 30
0.0
 11
4497.5217963115055682
 21
277.7698717799739825
 31
0.0
  0
ARC
  5
A31F
  8
0
 10
4497.5097261579876431
 20
277.8510549581512237
 30
0.0
 40
0.0820755568051146
 50
278.4566736798342959
 51
356.1706186007623955
  0
LINE
  5
A320
  8
0
 10
4497.5916184689422153
 20
277.8455734956017977
 30
0.0
 11
4497.5916279928487711
 21
280.2221420445392823
 31
0.0
  0
ARC
  5
A321
  8
0
 10
4493.8586178538589593
 20
277.6683861660488901
 30
0.0
 40
0.0826573140842531
 50
3.9583061792581051
 51
81.2117058123479865
  0
LINE
  5
A322
  8
0
 10
4493.8712465634062028
 20
277.750073051574077
 30
0.0
 11
4486.7235082044062437
 21
277.7500715953740951
 31
0.0
  0
ARC
  5
A323
  8
0
 10
4486.7361242057149866
 20
277.6684044619519227
 30
0.0
 40
0.0826358528148742
 50
98.7816787481326344
 51
176.0360300931654081
  0
LINE
  5
A324
  8
0
 10
4486.6536860410860754
 20
277.6741170080568963
 30
0.0
 11
4486.6536765263654161
 21
275.2975516738820261
 31
0.0
  0
ARC
  5
A325
  8
0
 10
4486.7361545063658923
 20
275.3032739503549919
 30
0.0
 40
0.0826762458821125
 50
183.968789593667907
 51
261.2012228403814902
  0
LINE
  5
A326
  8
0
 10
4486.7235079555048287
 20
275.2215706677740741
 30
0.0
 11
4493.8712463115052742
 21
275.2218217799739932
 31
0.0
  0
ARC
  5
A327
  8
0
 10
4493.8591761579891681
 20
275.3030049581511776
 30
0.0
 40
0.0820755568051146
 50
278.4566736798342959
 51
356.1706186007623955
  0
LINE
  5
A328
  8
0
 10
4493.9410684689419213
 20
275.2975234956016948
 30
0.0
 11
4493.9410779928493866
 21
277.6740920445392931
 31
0.0
  0
ARC
  5
A329
  8
0
 10
4486.5575178538583714
 20
277.6683861660488901
 30
0.0
 40
0.0826573140842531
 50
3.9583061792581051
 51
81.2117058123479865
  0
LINE
  5
A32A
  8
0
 10
4486.5701465634074339
 20
277.750073051574077
 30
0.0
 11
4479.4224082044047464
 21
277.7500715953740951
 31
0.0
  0
ARC
  5
A32B
  8
0
 10
4479.4350242057162177
 20
277.6684044619519227
 30
0.0
 40
0.0826358528148742
 50
98.7816787481326344
 51
176.0360300931654081
  0
LINE
  5
A32C
  8
0
 10
4479.3525860410873065
 20
277.6741170080568963
 30
0.0
 11
4479.3525772798402613
 21
275.4857532352593239
 31
0.0
  0
LINE
  5
A32D
  8
0
 10
4480.4961780853227538
 20
275.2216083911441729
 30
0.0
 11
4486.5701463115055958
 21
275.2218217799739932
 31
0.0
  0
ARC
  5
A32E
  8
0
 10
4486.5580761579876707
 20
275.3030049581511776
 30
0.0
 40
0.0820755568051146
 50
278.4566736798342959
 51
356.1706186007623955
  0
LINE
  5
A32F
  8
0
 10
4486.6399684689422429
 20
275.2975234956016948
 30
0.0
 11
4486.6399779928478893
 21
277.6740920445392931
 31
0.0
  0
ARC
  5
A330
  8
0
 10
4479.256417853858693
 20
277.6683861660488901
 30
0.0
 40
0.0826573140842531
 50
3.9583061792581051
 51
81.2117058123479865
  0
LINE
  5
A331
  8
0
 10
4479.269046563405027
 20
277.750073051574077
 30
0.0
 11
4472.1213082044059774
 21
277.7500715953740951
 31
0.0
  0
ARC
  5
A332
  8
0
 10
4472.1339242057138108
 20
277.6684044619519227
 30
0.0
 40
0.0826358528148742
 50
98.7816787481326344
 51
176.0360300931654081
  0
LINE
  5
A333
  8
0
 10
4472.0514860410858091
 20
277.6741170080568963
 30
0.0
 11
4472.0514765263642403
 21
275.2975516738820261
 31
0.0
  0
ARC
  5
A334
  8
0
 10
4472.133954506365626
 20
275.3032739503549919
 30
0.0
 40
0.0826762458821125
 50
183.968789593667907
 51
261.2012228403814902
  0
LINE
  5
A335
  8
0
 10
4472.1213079555063814
 20
275.2215706677740741
 30
0.0
 11
4478.7010575142630842
 21
275.2218018255620109
 31
0.0
  0
LINE
  5
A336
  8
0
 10
4479.3388692142516447
 20
275.4835061414584061
 30
0.0
 11
4479.3388779928491203
 21
277.6740920445392931
 31
0.0
  0
ARC
  5
A337
  8
0
 10
4482.9069678538589869
 20
275.1203361660490145
 30
0.0
 40
0.0826573140842531
 50
3.9583061792581051
 51
81.2117058123479865
  0
LINE
  5
A338
  8
0
 10
4482.9195965634062304
 20
275.2020230515740877
 30
0.0
 11
4480.5234525679434228
 21
275.2020225634105941
 31
0.0
  0
LINE
  5
A339
  8
0
 10
4478.6735068836833307
 20
275.2020221865233793
 30
0.0
 11
4475.7718582044062714
 21
275.2020215953741058
 31
0.0
  0
ARC
  5
A33A
  8
0
 10
4475.7844742057150143
 20
275.1203544619518766
 30
0.0
 40
0.0826358528148742
 50
98.7816787481326344
 51
176.0360300931654081
  0
LINE
  5
A33B
  8
0
 10
4475.7020360410861031
 20
275.1260670080569071
 30
0.0
 11
4475.7020265263654437
 21
272.74950167388198
 31
0.0
  0
ARC
  5
A33C
  8
0
 10
4475.7845045063668294
 20
272.7552239503550027
 30
0.0
 40
0.0826762458821125
 50
183.968789593667907
 51
261.2012228403814902
  0
LINE
  5
A33D
  8
0
 10
4475.7718579555057659
 20
272.6735206677740848
 30
0.0
 11
4478.6870041480542568
 21
272.6736230818157196
 31
0.0
  0
LINE
  5
A33E
  8
0
 10
4480.5100449858027787
 20
272.6736871283396226
 30
0.0
 11
4482.9195963115062114
 21
272.6737717799740039
 31
0.0
  0
ARC
  5
A33F
  8
0
 10
4482.9075261579901053
 20
272.7549549581511883
 30
0.0
 40
0.0820755568051146
 50
278.4566736798342959
 51
356.1706186007623955
  0
LINE
  5
A340
  8
0
 10
4482.989418468941949
 20
272.7494734956017055
 30
0.0
 11
4482.9894202443092581
 21
273.1924936176089886
 31
0.0
  0
LINE
  5
A341
  8
0
 10
4482.9894262572415755
 20
274.6929437293345018
 30
0.0
 11
4482.9894279928494143
 21
275.1260420445393038
 31
0.0
  0
ARC
  5
A342
  8
0
 10
4490.2080678538586653
 20
275.1203361660490145
 30
0.0
 40
0.0826573140842531
 50
3.9583061792581051
 51
81.2117058123479865
  0
LINE
  5
A343
  8
0
 10
4490.2206965634049993
 20
275.2020230515740877
 30
0.0
 11
4483.0729582044050403
 21
275.2020215953741058
 31
0.0
  0
ARC
  5
A344
  8
0
 10
4483.0855742057146927
 20
275.1203544619518766
 30
0.0
 40
0.0826358528148742
 50
98.7816787481326344
 51
176.0360300931654081
  0
LINE
  5
A345
  8
0
 10
4483.0031360410857815
 20
275.1260670080569071
 30
0.0
 11
4483.0031343070495495
 21
274.6929436364894173
 31
0.0
  0
LINE
  5
A346
  8
0
 10
4483.0031282999098039
 20
273.1924937146072807
 30
0.0
 11
4483.0031265263642126
 21
272.74950167388198
 31
0.0
  0
ARC
  5
A347
  8
0
 10
4483.0856045063655984
 20
272.7552239503550027
 30
0.0
 40
0.0826762458821125
 50
183.968789593667907
 51
261.2012228403814902
  0
LINE
  5
A348
  8
0
 10
4483.0729579555054443
 20
272.6735206677740848
 30
0.0
 11
4490.2206963115058898
 21
272.6737717799740039
 31
0.0
  0
ARC
  5
A349
  8
0
 10
4490.2086261579888742
 20
272.7549549581511883
 30
0.0
 40
0.0820755568051146
 50
278.4566736798342959
 51
356.1706186007623955
  0
LINE
  5
A34A
  8
0
 10
4490.2905184689407179
 20
272.7494734956017055
 30
0.0
 11
4490.2905202445163013
 21
273.1925452802728955
 31
0.0
  0
LINE
  5
A34B
  8
0
 10
4490.2905262570438936
 20
274.6928942787013739
 30
0.0
 11
4490.2905279928490927
 21
275.1260420445393038
 31
0.0
  0
ARC
  5
A34C
  8
0
 10
4497.5091678538583437
 20
275.1203361660490145
 30
0.0
 40
0.0826573140842531
 50
3.9583061792581051
 51
81.2117058123479865
  0
LINE
  5
A34D
  8
0
 10
4497.5217965634074062
 20
275.2020230515740877
 30
0.0
 11
4490.3740582044056282
 21
275.2020215953741058
 31
0.0
  0
ARC
  5
A34E
  8
0
 10
4490.3866742057152806
 20
275.1203544619518766
 30
0.0
 40
0.0826358528148742
 50
98.7816787481326344
 51
176.0360300931654081
  0
LINE
  5
A34F
  8
0
 10
4490.3042360410863694
 20
275.1260670080569071
 30
0.0
 11
4490.3042343068527771
 21
274.6928941858562894
 31
0.0
  0
LINE
  5
A350
  8
0
 10
4490.3042283001159376
 20
273.1925453772711876
 30
0.0
 11
4490.304226526363891
 21
272.74950167388198
 31
0.0
  0
ARC
  5
A351
  8
0
 10
4490.3867045063670957
 20
272.7552239503550027
 30
0.0
 40
0.0826762458821125
 50
183.968789593667907
 51
261.2012228403814902
  0
LINE
  5
A352
  8
0
 10
4490.3740579555060322
 20
272.6735206677740848
 30
0.0
 11
4497.5217963115055682
 21
272.6737717799740039
 31
0.0
  0
ARC
  5
A353
  8
0
 10
4497.5097261579876431
 20
272.7549549581511883
 30
0.0
 40
0.0820755568051146
 50
278.4566736798342959
 51
356.1706186007623955
  0
LINE
  5
A354
  8
0
 10
4497.5916184689422153
 20
272.7494734956017055
 30
0.0
 11
4497.5916202447233445
 21
273.1925969429366887
 31
0.0
  0
LINE
  5
A355
  8
0
 10
4497.5916262568462116
 20
274.6928448280684165
 30
0.0
 11
4497.5916279928487711
 21
275.1260420445393038
 31
0.0
  0
ARC
  5
A356
  8
0
 10
4493.8586178538589593
 20
272.5722861660490253
 30
0.0
 40
0.0826573140842531
 50
3.9583061792581051
 51
81.2117058123479865
  0
LINE
  5
A357
  8
0
 10
4493.8712465634062028
 20
272.6539730515740985
 30
0.0
 11
4486.7235082044062437
 21
272.6539715953741165
 31
0.0
  0
ARC
  5
A358
  8
0
 10
4486.7361242057149866
 20
272.5723044619517736
 30
0.0
 40
0.0826358528148742
 50
98.7816787481326344
 51
176.0360300931654081
  0
LINE
  5
A359
  8
0
 10
4486.6536860410860754
 20
272.5780170080569178
 30
0.0
 11
4486.6536765263654161
 21
270.2014516738819907
 31
0.0
  0
ARC
  5
A35A
  8
0
 10
4486.7361545063658923
 20
270.2071739503551271
 30
0.0
 40
0.0826762458821125
 50
183.968789593667907
 51
261.2012228403814902
  0
LINE
  5
A35B
  8
0
 10
4486.7235079555048287
 20
270.1254706677739819
 30
0.0
 11
4493.8712463115052742
 21
270.1257217799740147
 31
0.0
  0
ARC
  5
A35C
  8
0
 10
4493.8591761579891681
 20
270.206904958151199
 30
0.0
 40
0.0820755568051146
 50
278.4566736798342959
 51
356.1706186007623955
  0
LINE
  5
A35D
  8
0
 10
4493.9410684689419213
 20
270.2014234956017731
 30
0.0
 11
4493.9410779928493866
 21
272.5779920445393145
 31
0.0
  0
ARC
  5
A35E
  8
0
 10
4486.5575178538583714
 20
272.5722861660490253
 30
0.0
 40
0.0826573140842531
 50
3.9583061792581051
 51
81.2117058123479865
  0
LINE
  5
A35F
  8
0
 10
4486.5701465634074339
 20
272.6539730515740985
 30
0.0
 11
4480.4819521771141808
 21
272.6539718112335891
 31
0.0
  0
LINE
  5
A360
  8
0
 10
4479.352585327160341
 20
272.3996942016602816
 30
0.0
 11
4479.3525765263630092
 21
270.2014516738819907
 31
0.0
  0
ARC
  5
A361
  8
0
 10
4479.4350545063671234
 20
270.2071739503551271
 30
0.0
 40
0.0826762458821125
 50
183.968789593667907
 51
261.2012228403814902
  0
LINE
  5
A362
  8
0
 10
4479.4224079555060598
 20
270.1254706677739819
 30
0.0
 11
4486.5701463115055958
 21
270.1257217799740147
 31
0.0
  0
ARC
  5
A363
  8
0
 10
4486.5580761579876707
 20
270.206904958151199
 30
0.0
 40
0.0820755568051146
 50
278.4566736798342959
 51
356.1706186007623955
  0
LINE
  5
A364
  8
0
 10
4486.6399684689422429
 20
270.2014234956017731
 30
0.0
 11
4486.6399779928478893
 21
272.5779920445393145
 31
0.0
  0
LINE
  5
A365
  8
0
 10
4478.715006142949278
 20
272.6539729387001216
 30
0.0
 11
4472.1213082044059774
 21
272.6539715953741165
 31
0.0
  0
ARC
  5
A366
  8
0
 10
4472.1339242057138108
 20
272.5723044619517736
 30
0.0
 40
0.0826358528148742
 50
98.7816787481326344
 51
176.0360300931654081
  0
LINE
  5
A367
  8
0
 10
4472.0514860410858091
 20
272.5780170080569178
 30
0.0
 11
4472.0514765263642403
 21
270.2014516738819907
 31
0.0
  0
ARC
  5
A368
  8
0
 10
4472.133954506365626
 20
270.2071739503551271
 30
0.0
 40
0.0826762458821125
 50
183.968789593667907
 51
261.2012228403814902
  0
LINE
  5
A369
  8
0
 10
4472.1213079555063814
 20
270.1254706677739819
 30
0.0
 11
4479.2690463115068269
 21
270.1257217799740147
 31
0.0
  0
ARC
  5
A36A
  8
0
 10
4479.2569761579889018
 20
270.206904958151199
 30
0.0
 40
0.0820755568051146
 50
278.4566736798342959
 51
356.1706186007623955
  0
LINE
  5
A36B
  8
0
 10
4479.338868468941655
 20
270.2014234956017731
 30
0.0
 11
4479.3388772873386188
 21
272.4019412176539277
 31
0.0
  0
ARC
  5
A36C
  8
0
 10
4482.9069678538589869
 20
270.0242361660489792
 30
0.0
 40
0.0826573140842531
 50
3.9583061792581051
 51
81.2117058123479865
  0
LINE
  5
A36D
  8
0
 10
4482.9195965634062304
 20
270.1059230515741092
 30
0.0
 11
4475.7718582044062714
 21
270.1059215953740136
 31
0.0
  0
ARC
  5
A36E
  8
0
 10
4475.7844742057150143
 20
270.0242544619518981
 30
0.0
 40
0.0826358528148742
 50
98.7816787481326344
 51
176.0360300931654081
  0
LINE
  5
A36F
  8
0
 10
4475.7020360410861031
 20
270.0299670080568717
 30
0.0
 11
4475.7020265263654437
 21
267.6534016738818877
 31
0.0
  0
ARC
  5
A370
  8
0
 10
4475.7845045063668294
 20
267.659123950355081
 30
0.0
 40
0.0826762458821125
 50
183.968789593667907
 51
261.2012228403814902
  0
LINE
  5
A371
  8
0
 10
4475.7718579555057659
 20
267.5774206677739926
 30
0.0
 11
4482.9195963115062114
 21
267.5776717799740254
 31
0.0
  0
ARC
  5
A372
  8
0
 10
4482.9075261579901053
 20
267.6588549581512098
 30
0.0
 40
0.0820755568051146
 50
278.4566736798342959
 51
356.1706186007623955
  0
LINE
  5
A373
  8
0
 10
4482.989418468941949
 20
267.6533734956017838
 30
0.0
 11
4482.9894279928494143
 21
270.0299420445393253
 31
0.0
  0
ARC
  5
A374
  8
0
 10
4490.2080678538586653
 20
270.0242361660489792
 30
0.0
 40
0.0826573140842531
 50
3.9583061792581051
 51
81.2117058123479865
  0
LINE
  5
A375
  8
0
 10
4490.2206965634049993
 20
270.1059230515741092
 30
0.0
 11
4483.0729582044050403
 21
270.1059215953740136
 31
0.0
  0
ARC
  5
A376
  8
0
 10
4483.0855742057146927
 20
270.0242544619518981
 30
0.0
 40
0.0826358528148742
 50
98.7816787481326344
 51
176.0360300931654081
  0
LINE
  5
A377
  8
0
 10
4483.0031360410857815
 20
270.0299670080568717
 30
0.0
 11
4483.0031265263642126
 21
267.6534016738818877
 31
0.0
  0
ARC
  5
A378
  8
0
 10
4483.0856045063655984
 20
267.659123950355081
 30
0.0
 40
0.0826762458821125
 50
183.968789593667907
 51
261.2012228403814902
  0
LINE
  5
A379
  8
0
 10
4483.0729579555054443
 20
267.5774206677739926
 30
0.0
 11
4490.2206963115058898
 21
267.5776717799740254
 31
0.0
  0
ARC
  5
A37A
  8
0
 10
4490.2086261579888742
 20
267.6588549581512098
 30
0.0
 40
0.0820755568051146
 50
278.4566736798342959
 51
356.1706186007623955
  0
LINE
  5
A37B
  8
0
 10
4490.2905184689407179
 20
267.6533734956017838
 30
0.0
 11
4490.2905279928490927
 21
270.0299420445393253
 31
0.0
  0
ARC
  5
A37C
  8
0
 10
4497.5091678538583437
 20
270.0242361660489792
 30
0.0
 40
0.0826573140842531
 50
3.9583061792581051
 51
81.2117058123479865
  0
LINE
  5
A37D
  8
0
 10
4497.5217965634074062
 20
270.1059230515741092
 30
0.0
 11
4490.3740582044056282
 21
270.1059215953740136
 31
0.0
  0
ARC
  5
A37E
  8
0
 10
4490.3866742057152806
 20
270.0242544619518981
 30
0.0
 40
0.0826358528148742
 50
98.7816787481326344
 51
176.0360300931654081
  0
LINE
  5
A37F
  8
0
 10
4490.3042360410863694
 20
270.0299670080568717
 30
0.0
 11
4490.304226526363891
 21
267.6534016738818877
 31
0.0
  0
ARC
  5
A380
  8
0
 10
4490.3867045063670957
 20
267.659123950355081
 30
0.0
 40
0.0826762458821125
 50
183.968789593667907
 51
261.2012228403814902
  0
LINE
  5
A381
  8
0
 10
4490.3740579555060322
 20
267.5774206677739926
 30
0.0
 11
4497.5217963115055682
 21
267.5776717799740254
 31
0.0
  0
ARC
  5
A382
  8
0
 10
4497.5097261579876431
 20
267.6588549581512098
 30
0.0
 40
0.0820755568051146
 50
278.4566736798342959
 51
356.1706186007623955
  0
LINE
  5
A383
  8
0
 10
4497.5916184689422153
 20
267.6533734956017838
 30
0.0
 11
4497.5916279928487711
 21
270.0299420445393253
 31
0.0
  0
ARC
  5
A384
  8
0
 10
4475.6060597225214224
 20
290.4088125092634982
 30
0.0
 40
0.0824538872278029
 50
3.845279495474609
 51
81.3247449837255516
  0
LINE
  5
A385
  8
0
 10
4475.618496563404733
 20
290.4903230515740802
 30
0.0
 11
4471.8076799822683824
 21
290.4901798616450037
 31
0.0
  0
LINE
  5
A386
  8
0
 10
4470.3076799822683824
 20
290.4901234997370807
 30
0.0
 11
4468.9204422913853705
 21
290.4900713748284033
 31
0.0
  0
LINE
  5
A387
  8
0
 10
4471.1002361743603615
 20
287.9620717859252181
 30
0.0
 11
4475.618496311504714
 21
287.9620717799739964
 31
0.0
  0
ARC
  5
A388
  8
0
 10
4475.6068522211171512
 20
288.042861985981915
 30
0.0
 40
0.0816250098177938
 50
278.2014199949196041
 51
356.4258718554834218
  0
LINE
  5
A389
  8
0
 10
4475.6883184686330424
 20
288.037773494696296
 30
0.0
 11
4475.6883279880757982
 21
290.4143420663519919
 31
0.0
  0
LINE
  5
A38A
  8
0
 10
4468.952559563673276
 20
289.4422243596741282
 30
0.0
 11
4468.9525555486716257
 21
290.1400635294741051
 31
0.0
  0
ARC
  5
A38B
  8
0
 10
4467.442209183277555
 20
290.1195281129254795
 30
0.0
 40
1.5104859637853101
 50
0.7789737707169913
 51
10.9736382729838198
  0
LINE
  5
A38C
  8
0
 10
4468.9204116381060885
 20
290.4318651834740876
 30
0.0
 11
4468.9250757156969485
 21
290.4070601873544888
 31
0.0
  0
ARC
  5
A38D
  8
0
 10
4475.6060597225214224
 20
295.5049125092634767
 30
0.0
 40
0.0824538872278029
 50
3.845279495474609
 51
81.3247449837255516
  0
LINE
  5
A38E
  8
0
 10
4475.618496563404733
 20
295.5864230515741156
 30
0.0
 11
4471.8076799822683824
 21
295.5791424272567269
 31
0.0
  0
LINE
  5
A38F
  8
0
 10
4470.3076799822683824
 20
295.5762766539390896
 30
0.0
 11
4469.6414034264953443
 21
295.575003722221993
 31
0.0
  0
LINE
  5
A390
  8
0
 10
4468.920442271124557
 20
293.0581717887961872
 30
0.0
 11
4470.3076799822683824
 21
293.0581717869691261
 31
0.0
  0
LINE
  5
A391
  8
0
 10
4471.8076799822683824
 20
293.0581717849934194
 30
0.0
 11
4475.618496311504714
 21
293.0581717799739749
 31
0.0
  0
ARC
  5
A392
  8
0
 10
4475.6068522211171512
 20
293.1389619859817799
 30
0.0
 40
0.0816250098177938
 50
278.2014199949196041
 51
356.4258718554834218
  0
LINE
  5
A393
  8
0
 10
4475.6883184686330424
 20
293.1338734946963882
 30
0.0
 11
4475.6883279880757982
 21
295.5104420663520273
 31
0.0
  0
ARC
  5
A394
  8
0
 10
4467.4705263138394002
 20
293.4258561569280914
 30
0.0
 40
1.48214524480013
 50
348.9203875080007151
 51
359.3163938465949059
  0
LINE
  5
A395
  8
0
 10
4468.9525660659710411
 20
293.4081728375003877
 30
0.0
 11
4468.9525555486716257
 21
295.2361635294740836
 31
0.0
  0
ARC
  5
A396
  8
0
 10
4467.4422091832766455
 20
295.2156281129254012
 30
0.0
 40
1.510485963787308
 50
0.7789737707202481
 51
10.90673736992089
  0
LINE
  5
A397
  8
0
 10
4468.9204116381060885
 20
295.527965183474123
 30
0.0
 11
4468.9254104390092834
 21
295.5014285359329733
 31
0.0
  0
LINE
  5
A398
  8
0
 10
4468.9204116381060885
 20
293.1164978397741265
 30
0.0
 11
4468.9250460117063994
 21
293.141028182173784
 31
0.0
  0
ARC
  5
A399
  8
0
 10
4475.6060597225214224
 20
285.3127125092635197
 30
0.0
 40
0.0824538872278029
 50
3.845279495474609
 51
81.3247449837255516
  0
LINE
  5
A39A
  8
0
 10
4475.618496563404733
 20
285.3942230515741016
 30
0.0
 11
4468.920442291380823
 21
285.3939713748284248
 31
0.0
  0
LINE
  5
A39B
  8
0
 10
4471.3386465573439637
 20
282.8659717856111797
 30
0.0
 11
4475.618496311504714
 21
282.8659717799740747
 31
0.0
  0
ARC
  5
A39C
  8
0
 10
4475.6068522211171512
 20
282.9467619859818228
 30
0.0
 40
0.0816250098177938
 50
278.2014199949196041
 51
356.4258718554834218
  0
LINE
  5
A39D
  8
0
 10
4475.6883184686330424
 20
282.9416734946963743
 30
0.0
 11
4475.6883279880757982
 21
285.3182420663520134
 31
0.0
  0
LINE
  5
A39E
  8
0
 10
4468.95256368549326
 20
283.6297190167999815
 30
0.0
 11
4468.9525555486716257
 21
285.0439635294740128
 31
0.0
  0
ARC
  5
A39F
  8
0
 10
4467.442209183277555
 20
285.0234281129256146
 30
0.0
 40
1.5104859637853101
 50
0.7789737707169913
 51
10.9736382729838198
  0
LINE
  5
A3A0
  8
0
 10
4468.9204116381060885
 20
285.3357651834741091
 30
0.0
 11
4468.9250757156969485
 21
285.3109601873546239
 31
0.0
  0
ARC
  5
A3A1
  8
0
 10
4475.6060597225214224
 20
280.2166125092634275
 30
0.0
 40
0.0824538872278029
 50
3.845279495474609
 51
81.3247449837255516
  0
LINE
  5
A3A2
  8
0
 10
4475.618496563404733
 20
280.2981230515741231
 30
0.0
 11
4468.920442291380823
 21
280.2978713748283894
 31
0.0
  0
LINE
  5
A3A3
  8
0
 10
4468.9204422711191
 20
277.7698717887961948
 30
0.0
 11
4475.618496311504714
 21
277.7698717799740962
 31
0.0
  0
ARC
  5
A3A4
  8
0
 10
4475.6068522211171512
 20
277.8506619859817874
 30
0.0
 40
0.0816250098177938
 50
278.2014199949196041
 51
356.4258718554834218
  0
LINE
  5
A3A5
  8
0
 10
4475.6883184686330424
 20
277.8455734946963958
 30
0.0
 11
4475.6883279880757982
 21
280.222142066351978
 31
0.0
  0
ARC
  5
A3A6
  8
0
 10
4467.4705263138394002
 20
278.137556156928099
 30
0.0
 40
1.48214524480013
 50
348.9203875080007151
 51
359.3163938465949059
  0
LINE
  5
A3A7
  8
0
 10
4468.9525660659710411
 20
278.1198728375003952
 30
0.0
 11
4468.9525555486716257
 21
279.9478635294739775
 31
0.0
  0
ARC
  5
A3A8
  8
0
 10
4467.442209183277555
 20
279.9273281129255224
 30
0.0
 40
1.5104859637853101
 50
0.7789737707169913
 51
10.9736382729838198
  0
LINE
  5
A3A9
  8
0
 10
4468.9204116381060885
 20
280.2396651834740737
 30
0.0
 11
4468.9250757156969485
 21
280.2148601873544749
 31
0.0
  0
LINE
  5
A3AA
  8
0
 10
4468.9204116381060885
 20
277.8281978397740772
 30
0.0
 11
4468.9250460117063994
 21
277.8527281821739052
 31
0.0
  0
ARC
  5
A3AB
  8
0
 10
4475.6060597225214224
 20
275.1205125092635058
 30
0.0
 40
0.0824538872278029
 50
3.845279495474609
 51
81.3247449837255516
  0
LINE
  5
A3AC
  8
0
 10
4475.618496563404733
 20
275.2020230515740877
 30
0.0
 11
4468.9204422913653616
 21
275.2017713748284109
 31
0.0
  0
LINE
  5
A3AD
  8
0
 10
4468.9204422711927691
 20
272.6737717887962162
 30
0.0
 11
4475.618496311504714
 21
272.6737717799740039
 31
0.0
  0
ARC
  5
A3AE
  8
0
 10
4475.6068522211171512
 20
272.7545619859818089
 30
0.0
 40
0.0816250098177938
 50
278.2014199949196041
 51
356.4258718554834218
  0
LINE
  5
A3AF
  8
0
 10
4475.6883184686330424
 20
272.7494734946964172
 30
0.0
 11
4475.6883279880757982
 21
275.1260420663521131
 31
0.0
  0
ARC
  5
A3B0
  8
0
 10
4467.4705263138394002
 20
273.0414561569281204
 30
0.0
 40
1.48214524480013
 50
348.9203875080007151
 51
359.3163938465949059
  0
LINE
  5
A3B1
  8
0
 10
4468.9525660659710411
 20
273.0237728375004167
 30
0.0
 11
4468.9525555486716257
 21
274.8517635294739989
 31
0.0
  0
ARC
  5
A3B2
  8
0
 10
4467.442209183277555
 20
274.831228112925487
 30
0.0
 40
1.5104859637853101
 50
0.7789737707169913
 51
10.9736382729838198
  0
LINE
  5
A3B3
  8
0
 10
4468.9204116381060885
 20
275.1435651834739815
 30
0.0
 11
4468.9250757156969485
 21
275.1187601873544963
 31
0.0
  0
LINE
  5
A3B4
  8
0
 10
4468.9204116381060885
 20
272.732097839773985
 30
0.0
 11
4468.9250460117063994
 21
272.7566281821739267
 31
0.0
  0
ARC
  5
A3B5
  8
0
 10
4475.6060597225214224
 20
270.0244125092635272
 30
0.0
 40
0.0824538872278029
 50
3.845279495474609
 51
81.3247449837255516
  0
LINE
  5
A3B6
  8
0
 10
4475.618496563404733
 20
270.1059230515741092
 30
0.0
 11
4468.9204422914563111
 21
270.1056713748283755
 31
0.0
  0
LINE
  5
A3B7
  8
0
 10
4468.9104006535062581
 20
267.5776717888094254
 30
0.0
 11
4475.618496311504714
 21
267.5776717799740823
 31
0.0
  0
ARC
  5
A3B8
  8
0
 10
4475.6068522211171512
 20
267.6584619859817735
 30
0.0
 40
0.0816250098177938
 50
278.2014199949196041
 51
356.4258718554817165
  0
LINE
  5
A3B9
  8
0
 10
4475.6883184686330424
 20
267.6533734946963818
 30
0.0
 11
4475.6883279880757982
 21
270.0299420663520209
 31
0.0
  0
ARC
  5
A3BA
  8
0
 10
4467.4705263138394002
 20
267.9453561569280851
 30
0.0
 40
1.48214524480013
 50
348.9203875080007151
 51
359.3163938465949059
  0
LINE
  5
A3BB
  8
0
 10
4468.9525660659710411
 20
267.9276728375003813
 30
0.0
 11
4468.9525555486716257
 21
269.7556635294740772
 31
0.0
  0
ARC
  5
A3BC
  8
0
 10
4467.442209183277555
 20
269.7351281129256222
 30
0.0
 40
1.5104859637853101
 50
0.7789737707169913
 51
10.9736382729838198
  0
LINE
  5
A3BD
  8
0
 10
4468.9204116381060885
 20
270.0474651834741167
 30
0.0
 11
4468.9250757156969485
 21
270.0226601873545178
 31
0.0
  0
LINE
  5
A3BE
  8
0
 10
4468.9104006535062581
 20
267.5803606582741168
 30
0.0
 11
4468.9250460117063994
 21
267.6605281821738913
 31
0.0
  0
ARC
  5
A3BF
  8
0
 10
4467.4158198655795786
 20
292.6565379945860741
 30
0.0
 40
1.552264963746703
 50
1.1658750917399781
 51
14.2305303175402802
  0
LINE
  5
A3C0
  8
0
 10
4468.9677634783256508
 20
292.6881218596740837
 30
0.0
 11
4468.9677634784020483
 21
290.8601218596887179
 31
0.0
  0
ARC
  5
A3C1
  8
0
 10
4467.4158169985203131
 20
290.8917059011463948
 30
0.0
 40
1.5522678338785421
 50
345.7694898359997069
 51
358.8341205529101217
  0
ARC
  5
A3C2
  8
0
 10
4471.9617621938314187
 20
292.9633779120160852
 30
0.0
 40
0.0755817696212508
 50
355.7014757931323174
 51
89.1652228172156214
  0
LINE
  5
A3C3
  8
0
 10
4471.962863351805936
 20
293.0389516597739998
 30
0.0
 11
4471.8076799822683824
 21
293.0389093343973741
 31
0.0
  0
LINE
  5
A3C4
  8
0
 10
4470.3076799822683824
 20
293.0385002179746721
 30
0.0
 11
4468.9204528014051903
 21
293.03812185969349
 31
0.0
  0
LINE
  5
A3C5
  8
0
 10
4468.920452850624315
 20
290.5101218597409911
 30
0.0
 11
4470.3076799822683824
 21
290.5085244670411839
 31
0.0
  0
LINE
  5
A3C6
  8
0
 10
4471.8076799822683824
 20
290.5067972163299146
 30
0.0
 11
4471.9561877861597168
 21
290.5066262095232901
 31
0.0
  0
ARC
  5
A3C7
  8
0
 10
4471.9575807162300407
 20
290.586346581846783
 30
0.0
 40
0.0797325405187388
 50
268.9989899497351757
 51
3.0706347438341721
  0
LINE
  5
A3C8
  8
0
 10
4472.0371987812050065
 20
290.5906176176740132
 30
0.0
 11
4472.0371313568048208
 21
292.9577128284742003
 31
0.0
  0
LINE
  5
A3C9
  8
0
 10
4468.967763478373854
 20
286.3172243596741282
 30
0.0
 11
4468.9677634783965914
 21
285.7640218596886257
 31
0.0
  0
ARC
  5
A3CA
  8
0
 10
4467.4158169985148561
 20
285.7956059011463026
 30
0.0
 40
1.5522678338785421
 50
345.7694898359997069
 51
358.8341205529101217
  0
ARC
  5
A3CB
  8
0
 10
4471.9617621938268712
 20
287.867277912015993
 30
0.0
 40
0.0755817696212508
 50
355.7014757931323174
 51
89.1652228172156214
  0
LINE
  5
A3CC
  8
0
 10
4471.9628633518013885
 20
287.9428516597740781
 30
0.0
 11
4471.0818565178669814
 21
287.9426113701978807
 31
0.0
  0
LINE
  5
A3CD
  8
0
 10
4468.9204528506188581
 20
285.4140218597410126
 30
0.0
 11
4471.9561877861560788
 21
285.4105262095233115
 31
0.0
  0
ARC
  5
A3CE
  8
0
 10
4471.9575807162245837
 20
285.4902465818468045
 30
0.0
 40
0.0797325405187388
 50
268.9989899497351757
 51
3.0706347438341721
  0
LINE
  5
A3CF
  8
0
 10
4472.0371987812013685
 20
285.4945176176740915
 30
0.0
 11
4472.0371313568020923
 21
287.861612828474108
 31
0.0
  0
ARC
  5
A3D0
  8
0
 10
4467.4158169985148561
 20
280.6995059011463809
 30
0.0
 40
1.5522678338785421
 50
345.7694898359997069
 51
357.4107544509694208
  0
ARC
  5
A3D1
  8
0
 10
4471.9617621938268712
 20
282.7711779120160145
 30
0.0
 40
0.0755817696212508
 50
355.7014757931323174
 51
89.1652228172156214
  0
LINE
  5
A3D2
  8
0
 10
4471.9628633518013885
 20
282.8467516597740996
 30
0.0
 11
4471.4161028671796885
 21
282.8466025339783982
 31
0.0
  0
LINE
  5
A3D3
  8
0
 10
4468.9204528506188581
 20
280.3179218597409772
 30
0.0
 11
4471.9561877861560788
 21
280.3144262095232762
 31
0.0
  0
ARC
  5
A3D4
  8
0
 10
4471.9575807162245837
 20
280.3941465818468259
 30
0.0
 40
0.0797325405187388
 50
268.9989899497351757
 51
3.0706347438341721
  0
LINE
  5
A3D5
  8
0
 10
4472.0371987812013685
 20
280.3984176176739993
 30
0.0
 11
4472.0371313568020923
 21
282.7655128284740726
 31
0.0
  0
ARC
  5
A3D6
  8
0
 10
4467.4158198655768501
 20
277.3682379945860248
 30
0.0
 40
1.552264963746703
 50
1.1658750917399781
 51
14.2305303175402802
  0
LINE
  5
A3D7
  8
0
 10
4468.9677634783220128
 20
277.3998218596739775
 30
0.0
 11
4468.9677634783965914
 21
275.5718218596886118
 31
0.0
  0
ARC
  5
A3D8
  8
0
 10
4467.4158169985148561
 20
275.6034059011464024
 30
0.0
 40
1.5522678338785421
 50
345.7694898359997069
 51
358.8341205529101217
  0
ARC
  5
A3D9
  8
0
 10
4471.9617621938268712
 20
277.6750779120159791
 30
0.0
 40
0.0755817696212508
 50
355.7014757931323174
 51
89.1652228172156214
  0
LINE
  5
A3DA
  8
0
 10
4471.9628633518013885
 20
277.7506516597741211
 30
0.0
 11
4468.9204528013988238
 21
277.7498218596936113
 31
0.0
  0
LINE
  5
A3DB
  8
0
 10
4468.9204528506188581
 20
275.2218218597409987
 30
0.0
 11
4471.9561877861560788
 21
275.2183262095232976
 31
0.0
  0
ARC
  5
A3DC
  8
0
 10
4471.9575807162245837
 20
275.2980465818467906
 30
0.0
 40
0.0797325405187388
 50
268.9989899497351757
 51
3.0706347438341721
  0
LINE
  5
A3DD
  8
0
 10
4472.0371987812013685
 20
275.3023176176740776
 30
0.0
 11
4472.0371313568020923
 21
277.6694128284740941
 31
0.0
  0
ARC
  5
A3DE
  8
0
 10
4467.4158198656768946
 20
272.2721379945859894
 30
0.0
 40
1.552264963746703
 50
1.1658750917399781
 51
14.2305303175402802
  0
LINE
  5
A3DF
  8
0
 10
4468.9677634784220572
 20
272.303721859673999
 30
0.0
 11
4468.9677634784975453
 21
270.4757218596885764
 31
0.0
  0
ARC
  5
A3E0
  8
0
 10
4467.41581699861581
 20
270.5073059011464238
 30
0.0
 40
1.5522678338785421
 50
345.7694898359997069
 51
358.8341205529101217
  0
ARC
  5
A3E1
  8
0
 10
4471.9617621939260061
 20
272.5789779120161143
 30
0.0
 40
0.0755817696212508
 50
355.7014757931323174
 51
89.1652228172156214
  0
LINE
  5
A3E2
  8
0
 10
4471.9628633519014329
 20
272.6545516597740857
 30
0.0
 11
4468.9204528014997777
 21
272.653721859693519
 31
0.0
  0
LINE
  5
A3E3
  8
0
 10
4468.920452850719812
 20
270.1257218597410201
 30
0.0
 11
4471.9561877862561232
 21
270.1222262095233191
 31
0.0
  0
ARC
  5
A3E4
  8
0
 10
4471.9575807163264471
 20
270.201946581846812
 30
0.0
 40
0.0797325405187388
 50
268.9989899497351757
 51
3.0706347438341721
  0
LINE
  5
A3E5
  8
0
 10
4472.037198781301413
 20
270.2062176176739854
 30
0.0
 11
4472.0371313569012273
 21
272.5733128284741156
 31
0.0
  0
LINE
  5
A3E6
  8
0
 10
4468.9204116381060885
 20
270.0474651834741167
 30
0.0
 11
4468.920452850719812
 21
270.1257218597410201
 31
0.0
  0
LINE
  5
A3E7
  8
0
 10
4468.9204116381060885
 20
272.732097839773985
 30
0.0
 11
4468.9204528014997777
 21
272.653721859693519
 31
0.0
  0
LINE
  5
A3E8
  8
0
 10
4468.9204528505979397
 20
275.2218218597409987
 30
0.0
 11
4468.9204116381060885
 21
275.1435651834740952
 31
0.0
  0
LINE
  5
A3E9
  8
0
 10
4468.9204116381060885
 20
277.8281978397740772
 30
0.0
 11
4468.9204528013988238
 21
277.7498218596936113
 31
0.0
  0
LINE
  5
A3EA
  8
0
 10
4468.9204528506188581
 20
280.3179218597409772
 30
0.0
 11
4468.9204116381060885
 21
280.2396651834740737
 31
0.0
  0
LINE
  5
A3EB
  8
0
 10
4468.9204528506188581
 20
285.4140218597407852
 30
0.0
 11
4468.9204116381060885
 21
285.3357651834741091
 31
0.0
  0
LINE
  5
A3EC
  8
0
 10
4468.920452850624315
 20
290.5101218597408774
 30
0.0
 11
4468.9204116381060885
 21
290.4318651834740876
 31
0.0
  0
LINE
  5
A3ED
  8
0
 10
4468.9204116381060885
 20
293.1164978397741265
 30
0.0
 11
4468.9204528014070092
 21
293.0381218596814961
 31
0.0
  0
ARC
  5
A3EE
  8
0
 10
4469.2159781686714268
 20
295.6027974855949196
 30
0.0
 40
0.3048925178335519
 50
178.736250374510206
 51
194.2077375342734911
  0
ARC
  5
A3EF
  8
0
 10
4467.3498832164877967
 20
313.0356364712669119
 30
0.0
 40
1.618225219196606
 50
1.306097632395111
 51
13.9566228784838593
  0
LINE
  5
A3F0
  8
0
 10
4468.9676880032811823
 20
313.0725218596907098
 30
0.0
 11
4468.9676880310471461
 21
311.2445218596740801
 31
0.0
  0
ARC
  5
A3F1
  8
0
 10
4467.3498920236579579
 20
311.281406197115416
 30
0.0
 40
1.6182164181199781
 50
346.0433379948999004
 51
358.6939324843667123
  0
ARC
  5
A3F2
  8
0
 10
4469.1742025908961295
 20
266.9419293067156786
 30
0.0
 40
0.0622799297156135
 50
272.8118206547271143
 51
6.8022238238282027
  0
ARC
  5
A3F3
  8
0
 10
4469.0892889578253744
 20
267.0047280026296903
 30
0.0
 40
0.1250036442470351
 50
270.0082357213067894
 51
9.2064206335219385
  0
ARC
  5
A3F4
  8
0
 10
4467.6510487929172086
 20
266.7673597255715094
 30
0.0
 40
1.595404217641563
 50
6.5484836707045213
 51
20.1033847732496014
  0
ARC
  5
A3F5
  8
0
 10
4467.6267975630789806
 20
266.7676847779983973
 30
0.0
 40
1.6065806992969269
 50
9.2065302959275783
 51
19.9452304359087584
  0
ARC
  5
A3F6
  8
0
 10
4468.9231291983087431
 20
267.2332601776896013
 30
0.0
 40
0.2406897594336453
 50
20.0363402094571903
 51
65.795444144881742
  0
ARC
  5
A3F7
  8
0
 10
4468.9114483433731948
 20
267.233886410380876
 30
0.0
 40
0.2399528833841081
 50
19.9413713469135487
 51
65.8221682422982468
  0
ARC
  5
A3F8
  8
0
 10
4469.1034680707243751
 20
267.638598620186599
 30
0.0
 40
0.2029596491775437
 50
207.7914695539546983
 51
246.2759624702621863
  0
ARC
  5
A3F9
  8
0
 10
4469.090085712436121
 20
267.633567500245988
 30
0.0
 40
0.197833514560077
 50
206.9302288959237899
 51
246.033694005150295
  0
LINE
  5
A3FA
  8
0
 10
4468.9104006535062581
 20
267.5803606582741168
 30
0.0
 11
4468.9104006535062581
 21
267.5576597316739935
 31
0.0
  0
ARC
  5
A3FB
  8
0
 10
4468.9405232862063713
 20
267.5576855942293832
 30
0.0
 40
0.030122643800803
 50
180.0491928132078101
 51
207.090801162188086
  0
ARC
  5
A3FC
  8
0
 10
4469.6968544401543113
 20
281.1132721540084276
 30
0.0
 40
14.4618378764934992
 50
90.219689700862105
 51
93.0990204830858374
  0
ARC
  5
A3FD
  8
0
 10
4494.0371817330860722
 20
323.5333422265567833
 30
0.0
 40
0.082590736034968
 50
98.7086293287313197
 51
176.0578882937601861
  0
LINE
  5
A3FE
  8
0
 10
4494.0246766948666846
 20
323.6149807817740793
 30
0.0
 11
4501.1657866267669306
 21
323.6174633333740189
 31
0.0
  0
ARC
  5
A3FF
  8
0
 10
4501.1565186757179617
 20
323.5320169645917758
 30
0.0
 40
0.0859475238429649
 50
4.6549835224762512
 51
83.8096064398095137
  0
LINE
  5
A400
  8
0
 10
4501.2421826979680191
 20
323.5389920736740805
 30
0.0
 11
4501.242173552866916
 21
321.1624234784632108
 31
0.0
  0
ARC
  5
A401
  8
0
 10
4501.1599392417456329
 20
321.1679533439174179
 30
0.0
 40
0.0824200299533133
 50
278.6135839955026086
 51
356.1529236846291155
  0
LINE
  5
A402
  8
0
 10
4501.1722832697678314
 20
321.086462937674014
 30
0.0
 11
4494.0311733449680105
 21
321.0839803859740869
 31
0.0
  0
ARC
  5
A403
  8
0
 10
4494.0404354184938711
 20
321.1694210396807989
 30
0.0
 40
0.0859412084614658
 50
184.6514972331646902
 51
263.813091192919785
  0
LINE
  5
A404
  8
0
 10
4493.9547772665682714
 20
321.1624516551740953
 30
0.0
 11
4493.9547864051683064
 21
323.5390202205741161
 31
0.0
  0
ARC
  5
A405
  8
0
 10
4494.0371817330860722
 20
318.4372422265568048
 30
0.0
 40
0.082590736034968
 50
98.7086293287313197
 51
176.0578882937601861
  0
LINE
  5
A406
  8
0
 10
4494.0246766948666846
 20
318.5188807817739871
 30
0.0
 11
4501.1657866267669306
 21
318.5213633333739836
 31
0.0
  0
ARC
  5
A407
  8
0
 10
4501.1565186757179617
 20
318.4359169645917973
 30
0.0
 40
0.0859475238429649
 50
4.6549835224762512
 51
83.8096064398095137
  0
LINE
  5
A408
  8
0
 10
4501.2421826979680191
 20
318.442892073674102
 30
0.0
 11
4501.242173552866916
 21
316.0663234784631186
 31
0.0
  0
ARC
  5
A409
  8
0
 10
4501.1599392417456329
 20
316.0718533439173825
 30
0.0
 40
0.0824200299533133
 50
278.6135839955026086
 51
356.1529236846291155
  0
LINE
  5
A40A
  8
0
 10
4501.1722832697678314
 20
315.9903629376739786
 30
0.0
 11
4494.0311733449680105
 21
315.9878803859739946
 31
0.0
  0
ARC
  5
A40B
  8
0
 10
4494.0404354184938711
 20
316.0733210396807067
 30
0.0
 40
0.0859412084614658
 50
184.6514972331646902
 51
263.813091192919785
  0
LINE
  5
A40C
  8
0
 10
4493.9547772665682714
 20
316.0663516551740031
 30
0.0
 11
4493.9547864051683064
 21
318.4429202205740239
 31
0.0
  0
ARC
  5
A40D
  8
0
 10
4494.0371817330860722
 20
313.3411422265568262
 30
0.0
 40
0.082590736034968
 50
98.7086293287313197
 51
176.0578882937601861
  0
LINE
  5
A40E
  8
0
 10
4494.0246766948666846
 20
313.4227807817741223
 30
0.0
 11
4501.1657866267669306
 21
313.425263333374005
 31
0.0
  0
ARC
  5
A40F
  8
0
 10
4501.1565186757179617
 20
313.3398169645918188
 30
0.0
 40
0.0859475238429649
 50
4.6549835224762512
 51
83.8096064398095137
  0
LINE
  5
A410
  8
0
 10
4501.2421826979680191
 20
313.3467920736741235
 30
0.0
 11
4501.242173552866916
 21
310.9702234784630832
 31
0.0
  0
ARC
  5
A411
  8
0
 10
4501.1599392417456329
 20
310.975753343917404
 30
0.0
 40
0.0824200299533133
 50
278.6135839955026086
 51
356.1529236846291155
  0
LINE
  5
A412
  8
0
 10
4501.1722832697678314
 20
310.8942629376738864
 30
0.0
 11
4494.0311733449680105
 21
310.8917803859740729
 31
0.0
  0
ARC
  5
A413
  8
0
 10
4494.0404354184938711
 20
310.9772210396807282
 30
0.0
 40
0.0859412084614658
 50
184.6514972331646902
 51
263.813091192919785
  0
LINE
  5
A414
  8
0
 10
4493.9547772665682714
 20
310.9702516551740246
 30
0.0
 11
4493.9547864051683064
 21
313.3468202205741022
 31
0.0
  0
ARC
  5
A415
  8
0
 10
4494.0371817330860722
 20
308.2450422265567909
 30
0.0
 40
0.082590736034968
 50
98.7086293287313197
 51
176.0578882937601861
  0
LINE
  5
A416
  8
0
 10
4494.0246766948666846
 20
308.3266807817739732
 30
0.0
 11
4501.1657866267669306
 21
308.3291633333740265
 31
0.0
  0
ARC
  5
A417
  8
0
 10
4501.1565186757179617
 20
308.2437169645917834
 30
0.0
 40
0.0859475238429649
 50
4.6549835224762512
 51
83.8096064398095137
  0
LINE
  5
A418
  8
0
 10
4501.2421826979680191
 20
308.2506920736740881
 30
0.0
 11
4501.242173552866916
 21
305.8741234784632184
 31
0.0
  0
ARC
  5
A419
  8
0
 10
4501.1599392417456329
 20
305.8796533439174254
 30
0.0
 40
0.0824200299533133
 50
278.6135839955026086
 51
356.1529236846291155
  0
LINE
  5
A41A
  8
0
 10
4501.1722832697678314
 20
305.7981629376740216
 30
0.0
 11
4494.0311733449680105
 21
305.7956803859739807
 31
0.0
  0
ARC
  5
A41B
  8
0
 10
4494.0404354184938711
 20
305.8811210396806928
 30
0.0
 40
0.0859412084614658
 50
184.6514972331646902
 51
263.813091192919785
  0
LINE
  5
A41C
  8
0
 10
4493.9547772665682714
 20
305.8741516551739892
 30
0.0
 11
4493.9547864051683064
 21
308.2507202205741237
 31
0.0
  0
ARC
  5
A41D
  8
0
 10
4494.0371817330860722
 20
303.1489422265568123
 30
0.0
 40
0.082590736034968
 50
98.7086293287313197
 51
176.0578882937601861
  0
LINE
  5
A41E
  8
0
 10
4494.0246766948666846
 20
303.2305807817741083
 30
0.0
 11
4501.1657866267669306
 21
303.2330633333739911
 31
0.0
  0
ARC
  5
A41F
  8
0
 10
4501.1565186757179617
 20
303.1476169645916912
 30
0.0
 40
0.0859475238429649
 50
4.6549835224762512
 51
83.8096064398095137
  0
LINE
  5
A420
  8
0
 10
4501.2421826979680191
 20
303.1545920736741095
 30
0.0
 11
4501.242173552866916
 21
300.778023478463183
 31
0.0
  0
ARC
  5
A421
  8
0
 10
4501.1599392417456329
 20
300.7835533439173901
 30
0.0
 40
0.0824200299533133
 50
278.6135839955026086
 51
356.1529236846291155
  0
LINE
  5
A422
  8
0
 10
4501.1722832697678314
 20
300.7020629376739862
 30
0.0
 11
4494.0311733449680105
 21
300.6995803859741159
 31
0.0
  0
ARC
  5
A423
  8
0
 10
4494.0404354184938711
 20
300.7850210396807142
 30
0.0
 40
0.0859412084614658
 50
184.6514972331646902
 51
263.813091192919785
  0
LINE
  5
A424
  8
0
 10
4493.9547772665682714
 20
300.7780516551741243
 30
0.0
 11
4493.9547864051683064
 21
303.1546202205740883
 31
0.0
  0
ARC
  5
A425
  8
0
 10
4494.0372485439138472
 20
292.9567143670490168
 30
0.0
 40
0.0826573140842531
 50
98.7882941876520562
 51
176.041693820741898
  0
LINE
  5
A426
  8
0
 10
4494.0246198343684227
 20
293.03840125257409
 30
0.0
 11
4501.1723581933665628
 21
293.0383997963739944
 31
0.0
  0
ARC
  5
A427
  8
0
 10
4501.1597421920587294
 20
292.956732662951822
 30
0.0
 40
0.0826358528148742
 50
3.9639699068346048
 51
81.2183212518673656
  0
LINE
  5
A428
  8
0
 10
4501.2421803566876406
 20
292.9624452090569093
 30
0.0
 11
4501.2421898714092094
 21
290.5858798748819822
 31
0.0
  0
ARC
  5
A429
  8
0
 10
4501.1597118914060047
 20
290.5916021513551186
 30
0.0
 40
0.0826762458821125
 50
278.7987771596183961
 51
356.031210406332093
  0
LINE
  5
A42A
  8
0
 10
4501.1723584422679778
 20
290.5098988687739734
 30
0.0
 11
4494.0246200862666228
 21
290.5101499809740062
 31
0.0
  0
ARC
  5
A42B
  8
0
 10
4494.0366902397836384
 20
290.5913331591511906
 30
0.0
 40
0.0820755568051146
 50
183.8293813992376045
 51
261.5433263201658178
  0
LINE
  5
A42C
  8
0
 10
4493.9547979288308852
 20
290.5858516966018215
 30
0.0
 11
4493.9547884049252389
 21
292.9624202455393061
 31
0.0
  0
ARC
  5
A42D
  8
0
 10
4494.0372485371153743
 20
287.8606143460489761
 30
0.0
 40
0.0826573140842531
 50
98.7882941876520562
 51
176.041693820741898
  0
LINE
  5
A42E
  8
0
 10
4494.0246198275672214
 20
287.9423012315741062
 30
0.0
 11
4501.1723581865671804
 21
287.9422997753741242
 31
0.0
  0
ARC
  5
A42F
  8
0
 10
4501.1597421852584375
 20
287.8606326419517814
 30
0.0
 40
0.0826358528148742
 50
3.9639699068346048
 51
81.2183212518673656
  0
LINE
  5
A430
  8
0
 10
4501.2421803498873487
 20
287.8663451880569255
 30
0.0
 11
4501.2421898646089176
 21
285.4897798538818847
 31
0.0
  0
ARC
  5
A431
  8
0
 10
4501.1597118846057128
 20
285.495502130355078
 30
0.0
 40
0.0826762458821125
 50
278.7987771596183961
 51
356.031210406332093
  0
LINE
  5
A432
  8
0
 10
4501.1723584354667764
 20
285.4137988477741033
 30
0.0
 11
4494.0246200794672404
 21
285.4140499599740224
 31
0.0
  0
ARC
  5
A433
  8
0
 10
4494.036690232984256
 20
285.4952331381512067
 30
0.0
 40
0.0820755568051146
 50
183.8293813992376045
 51
261.5433263201658178
  0
LINE
  5
A434
  8
0
 10
4493.9547979220324123
 20
285.4897516756017239
 30
0.0
 11
4493.954788398124947
 21
287.8663202245393222
 31
0.0
  0
LINE
  5
A435
  8
0
 10
4501.2421859236283126
 20
281.3797501425966061
 30
0.0
 11
4501.2421898714210329
 21
280.3936798749332979
 31
0.0
  0
ARC
  5
A436
  8
0
 10
4501.1597118914178282
 20
280.3994021514063775
 30
0.0
 40
0.0826762458821125
 50
278.7987771596183961
 51
356.031210406332093
  0
LINE
  5
A437
  8
0
 10
4501.1723584422779822
 20
280.3176988688254028
 30
0.0
 11
4494.0246200862784463
 21
280.3179499810253787
 31
0.0
  0
ARC
  5
A438
  8
0
 10
4494.0366902397963713
 20
280.3991331592025062
 30
0.0
 40
0.0820755568051146
 50
183.8293813992376045
 51
261.5433263201658178
  0
LINE
  5
A439
  8
0
 10
4493.9547979288417991
 20
280.393651696653194
 30
0.0
 11
4493.95479397733925
 21
281.379698576931105
 31
0.0
  0
ARC
  5
A43A
  8
0
 10
4494.0372485439247612
 20
277.6684143672002847
 30
0.0
 40
0.0826573140842531
 50
98.7882941876520562
 51
176.041693820741898
  0
LINE
  5
A43B
  8
0
 10
4494.0246198343784272
 20
277.7501012527254147
 30
0.0
 11
4501.1723581933783862
 21
277.750099796525376
 31
0.0
  0
ARC
  5
A43C
  8
0
 10
4501.1597421920687339
 20
277.6684326631032036
 30
0.0
 40
0.0826358528148742
 50
3.9639699068346048
 51
81.2183212518673656
  0
LINE
  5
A43D
  8
0
 10
4501.242180356697645
 20
277.6741452092081772
 30
0.0
 11
4501.2421898714210329
 21
275.297579875033307
 31
0.0
  0
ARC
  5
A43E
  8
0
 10
4501.1597118914178282
 20
275.3033021515063865
 30
0.0
 40
0.0826762458821125
 50
278.7987771596183961
 51
356.031210406332093
  0
LINE
  5
A43F
  8
0
 10
4501.1723584422779822
 20
275.2215988689254118
 30
0.0
 11
4494.0246200862784463
 21
275.2218499811253878
 31
0.0
  0
ARC
  5
A440
  8
0
 10
4494.0366902397963713
 20
275.3030331593025721
 30
0.0
 40
0.0820755568051146
 50
183.8293813992376045
 51
261.5433263201658178
  0
LINE
  5
A441
  8
0
 10
4493.9547979288417991
 20
275.2975516967530893
 30
0.0
 11
4493.9547884049361528
 21
277.6741202456905739
 31
0.0
  0
ARC
  5
A442
  8
0
 10
4494.0372485439138472
 20
272.572314367048989
 30
0.0
 40
0.0826573140842531
 50
98.7882941876520562
 51
176.041693820741898
  0
LINE
  5
A443
  8
0
 10
4494.0246198343684227
 20
272.654001252574119
 30
0.0
 11
4501.1723581933665628
 21
272.6539997963740802
 31
0.0
  0
ARC
  5
A444
  8
0
 10
4501.1597421920587294
 20
272.5723326629517942
 30
0.0
 40
0.0826358528148742
 50
3.9639699068346048
 51
81.2183212518673656
  0
LINE
  5
A445
  8
0
 10
4501.2421803566876406
 20
272.5780452090568815
 30
0.0
 11
4501.2421898714092094
 21
270.2014798748820112
 31
0.0
  0
ARC
  5
A446
  8
0
 10
4501.1597118914060047
 20
270.2072021513550908
 30
0.0
 40
0.0826762458821125
 50
278.7987771596183961
 51
356.031210406332093
  0
LINE
  5
A447
  8
0
 10
4501.1723584422679778
 20
270.1254988687741161
 30
0.0
 11
4494.0246200862666228
 21
270.1257499809739784
 31
0.0
  0
ARC
  5
A448
  8
0
 10
4494.0366902397836384
 20
270.2069331591512196
 30
0.0
 40
0.0820755568051146
 50
183.8293813992376045
 51
261.5433263201658178
  0
LINE
  5
A449
  8
0
 10
4493.9547979288308852
 20
270.2014516966017936
 30
0.0
 11
4493.9547884049252389
 21
272.5780202455392782
 31
0.0
  0
LINE
  5
A44A
  8
0
 10
4467.7797555377528624
 20
267.4103939810332804
 30
0.0
 11
4467.7808265445455618
 21
267.3797243596741282
 31
0.0
  0
LINE
  5
A44B
  8
0
 10
4467.8388161902739739
 20
267.4083315369305183
 30
0.0
 11
4467.8398530678277893
 21
267.3786392491879269
 31
0.0
  0
LINE
  5
A44C
  8
0
 10
4467.935486704151117
 20
267.3995667389751247
 30
0.0
 11
4467.9371716005061899
 21
267.351317619044778
 31
0.0
  0
LINE
  5
A44D
  8
0
 10
4467.989322230056132
 20
267.3177796743740942
 30
0.0
 11
4468.0699858688731183
 21
267.3177796743740942
 31
0.0
  0
LINE
  5
A44E
  8
0
 10
4468.0439186273288215
 20
267.2577796743740919
 30
0.0
 11
4468.1091800128224349
 21
267.2577796743740919
 31
0.0
  0
LINE
  5
A44F
  8
0
 10
4468.0919062227585528
 20
267.0677796743740942
 30
0.0
 11
4468.1369110929881572
 21
267.0677796743740942
 31
0.0
  0
LINE
  5
A450
  8
0
 10
4468.0940027492770241
 20
267.0077796743740919
 30
0.0
 11
4468.1390069303606651
 21
267.0077796743740919
 31
0.0
  0
LINE
  5
A451
  8
0
 10
4468.0960992757973145
 20
266.9477796743740896
 30
0.0
 11
4468.1411027677340826
 21
266.9477796743740896
 31
0.0
  0
LINE
  5
A452
  8
0
 10
4527.4559454318668941
 20
267.3797243596741282
 30
0.0
 11
4527.4570814900207552
 21
267.4117866143000128
 31
0.0
  0
LINE
  5
A453
  8
0
 10
4527.4172017040209539
 20
267.4103939810332804
 30
0.0
 11
4527.4161306972273451
 21
267.3797243596741282
 31
0.0
  0
LINE
  5
A454
  8
0
 10
4527.3581410514989329
 20
267.4083315369305183
 30
0.0
 11
4527.357104173946027
 21
267.3786392491879269
 31
0.0
  0
LINE
  5
A455
  8
0
 10
4527.2614705376226993
 20
267.3995667389751247
 30
0.0
 11
4527.2597856412676265
 21
267.351317619044778
 31
0.0
  0
LINE
  5
A456
  8
0
 10
4527.2383589895216573
 20
267.3395282203106831
 30
0.0
 11
4527.1447568129060528
 21
267.3362595601998919
 31
0.0
  0
LINE
  5
A457
  8
0
 10
4527.1671637349500088
 20
267.2770054545255221
 30
0.0
 11
4527.0964293613651535
 21
267.2745353558071884
 31
0.0
  0
LINE
  5
A458
  8
0
 10
4527.1050510190152636
 20
267.0677796743740942
 30
0.0
 11
4527.0600470186036546
 21
267.0677796743740942
 31
0.0
  0
LINE
  5
A459
  8
0
 10
4527.1029544924949732
 20
267.0077796743740919
 30
0.0
 11
4527.0579517724218022
 21
267.0077796743740919
 31
0.0
  0
LINE
  5
A45A
  8
0
 10
4527.1008579659755924
 20
266.9477796743740896
 30
0.0
 11
4527.0558565262390402
 21
266.9477796743740896
 31
0.0
  0
LINE
  5
A45C
  8
0
 10
4468.7626792036771803
 20
307.4410113398757858
 30
0.0
 11
4469.1196799822682806
 21
307.4410113398757858
 31
0.0
  0
ARC
  5
A45D
  8
0
 10
4469.1196799822682806
 20
307.2530074011187935
 30
0.0
 40
0.1880039387569461
 50
0.3708809318511073
 51
90.0
  0
LINE
  5
A45E
  8
0
 10
4469.3076799822683824
 20
307.2542243596740832
 30
0.0
 11
4469.3076799822683824
 21
304.5052243596741164
 31
0.0
  0
ARC
  5
A45F
  8
0
 10
4469.1187099267563099
 20
304.5055739452939179
 30
0.0
 40
0.1889703788696737
 50
274.6455080933906743
 51
359.8940056524378974
  0
LINE
  5
A460
  8
0
 10
4469.1340147523678752
 20
304.3172243596741282
 30
0.0
 11
4468.7626790535314285
 21
304.3181942547328731
 31
0.0
  0
ARC
  5
A461
  8
0
 10
4469.1826799822683824
 20
304.0047243596741282
 30
0.0
 40
1.125000000000006
 50
0.0
 51
83.6206297915456958
  0
ARC
  5
A462
  8
0
 10
4469.1826799822683824
 20
304.0047243596741282
 30
0.0
 40
2.6249999999999991
 50
0.0
 51
87.2705973632088643
  0
LINE
  5
A463
  8
0
 10
4471.8076799822683824
 20
304.0047243596741282
 30
0.0
 11
4471.8076799822683824
 21
289.7547243596741282
 31
0.0
  0
ARC
  5
A464
  8
0
 10
4469.1826799822683824
 20
289.7547243596741282
 30
0.0
 40
2.624999999999996
 50
272.7294026367911215
 51
0.0
  0
ARC
  5
A465
  8
0
 10
4469.1826799822683824
 20
289.7547243596741282
 30
0.0
 40
1.1250000000000011
 50
276.3793702084543042
 51
0.0
  0
LINE
  5
A466
  8
0
 10
4470.3076799822683824
 20
289.7547243596741282
 30
0.0
 11
4470.3076799822683824
 21
304.0047243596741282
 31
0.0
  0
LINE
  5
A467
  8
0
 10
4468.7626783382957001
 20
289.4422243596741282
 30
0.0
 11
4469.1196799822682806
 21
289.4422243596741282
 31
0.0
  0
ARC
  5
A468
  8
0
 10
4469.1196799822682806
 20
289.2542243596740832
 30
0.0
 40
0.1879999999999882
 50
359.9999999999919282
 51
90.0
  0
LINE
  5
A469
  8
0
 10
4469.3076799822683824
 20
289.2542243596740832
 30
0.0
 11
4469.3076799822683824
 21
286.5056085135324224
 31
0.0
  0
ARC
  5
A46A
  8
0
 10
4469.1183466970123845
 20
286.5057417596510732
 30
0.0
 40
0.1893333321422008
 50
275.3211709016836153
 51
359.9596772486723921
  0
LINE
  5
A46B
  8
0
 10
4469.1359051868676033
 20
286.3172243596741282
 30
0.0
 11
4468.7626781880480848
 21
286.3172243596741851
 31
0.0
  0
ARC
  5
A46C
  8
0
 10
4515.5984799823681897
 20
273.9427243596741164
 30
0.0
 40
1.5625
 50
208.6854020141157093
 51
151.3145979858842907
  0
LINE
  5
A46D
  8
0
 10
4515.599228067061631
 20
274.6927228618837944
 30
0.0
 11
4479.5977291747112758
 21
274.6929667014302936
 31
0.0
  0
LINE
  5
A46E
  8
0
 10
4515.5984786199787777
 20
273.1927243596643962
 30
0.0
 11
4479.5984786217941291
 21
273.1924696232687779
 31
0.0
  0
ARC
  5
A46F
  8
0
 10
4479.5984799823681897
 20
273.9427243596741164
 30
0.0
 40
1.5625
 50
28.6951441775990688
 51
331.3043575303194075
  0
ARC
  5
A470
  8
0
 10
4479.5987288546239142
 20
273.9427184744939154
 30
0.0
 40
0.7502488929555794
 50
90.0763446070095881
 51
269.9808899612974074
  0
ARC
  5
A471
  8
0
 10
4515.598480544332233
 20
273.9427237970364786
 30
0.0
 40
0.7499994373744922
 50
269.9998529902248947
 51
89.9428934176093406
  0
ARC
  5
A472
  8
0
 10
4471.1956854769678102
 20
282.1297243596741282
 30
0.0
 40
0.7499987617999997
 50
270.001403927218405
 51
89.998596072781595
  0
LINE
  5
A473
  8
0
 10
4469.3071693664833219
 20
282.8799060904407838
 30
0.0
 11
4471.0293510251676707
 21
282.8797545824422741
 31
0.0
  0
LINE
  5
A474
  8
0
 10
4471.0293510251676707
 20
282.8797545824422741
 30
0.0
 11
4471.1957038543014278
 21
282.8797231212490146
 31
0.0
  0
LINE
  5
A475
  8
0
 10
4471.1957038543014278
 20
281.3797255980992986
 30
0.0
 11
4471.0293510251676707
 21
281.3796368449059742
 31
0.0
  0
LINE
  5
A476
  8
0
 10
4471.0293510251676707
 20
281.3796368449059742
 30
0.0
 11
4469.3069731292653159
 21
281.3787179161213885
 31
0.0
  0
LINE
  5
A477
  8
0
 10
4469.3072673826791288
 20
283.6297167396010082
 30
0.0
 11
4468.7626780588316251
 21
283.6297202358663867
 31
0.0
  0
LINE
  5
A478
  8
0
 10
4468.7626779145348337
 20
280.628531800011217
 30
0.0
 11
4469.306875360534832
 21
280.6308003512202163
 31
0.0
  0
LINE
  5
A479
  8
0
 10
4469.306875360534832
 20
280.6308003512202163
 30
0.0
 11
4469.3072673826791288
 21
283.6297167396010082
 31
0.0
  0
LINE
  5
A47A
  8
0
 10
4469.4252894094852309
 20
283.1258576416699952
 30
0.0
 11
4469.446635611396232
 21
282.879893820973507
 31
0.0
  0
LINE
  5
A47B
  8
0
 10
4469.4252894094852309
 20
283.1258576416699952
 30
0.0
 11
4469.3072015152665699
 21
283.1258399447273177
 31
0.0
  0
LINE
  5
A47C
  8
0
 10
4469.5130759073681475
 20
283.6327403879740814
 30
0.0
 11
4469.3072673826791288
 21
283.6297167396010082
 31
0.0
  0
LINE
  5
A47D
  8
0
 10
4469.5130759073681475
 20
283.6327403879740814
 30
0.0
 11
4469.5760934890677163
 21
283.5697197453741865
 31
0.0
  0
LINE
  5
A47E
  8
0
 10
4469.5760934890677163
 20
283.5697197453741865
 30
0.0
 11
4469.5760934890677163
 21
283.1897292123741181
 31
0.0
  0
LINE
  5
A47F
  8
0
 10
4469.5760934890677163
 20
283.1897292123741181
 30
0.0
 11
4469.5130759073681475
 21
283.1267083314741058
 31
0.0
  0
LINE
  5
A480
  8
0
 10
4469.5130759073681475
 20
283.1267083314741058
 30
0.0
 11
4469.4252894094852309
 21
283.1258576416699952
 31
0.0
  0
LINE
  5
A481
  8
0
 10
4469.4465626262035585
 20
281.3787923903742012
 30
0.0
 11
4469.4241913715677583
 21
281.1337584781741725
 31
0.0
  0
LINE
  5
A482
  8
0
 10
4469.306941107856801
 20
281.1337584781741725
 30
0.0
 11
4469.5120516973001941
 21
281.1337584781741725
 31
0.0
  0
LINE
  5
A483
  8
0
 10
4469.5120516973001941
 20
281.1337584781741725
 30
0.0
 11
4469.5760934890677163
 21
281.0697197453741865
 31
0.0
  0
LINE
  5
A484
  8
0
 10
4469.5760934890677163
 20
281.0697197453741865
 30
0.0
 11
4469.5760845515151232
 21
280.6897246161843213
 31
0.0
  0
LINE
  5
A485
  8
0
 10
4469.5760845515151232
 20
280.6897246161843213
 30
0.0
 11
4469.5130726513007176
 21
280.6267301280720972
 31
0.0
  0
LINE
  5
A486
  8
0
 10
4469.5130726513007176
 20
280.6267301280720972
 30
0.0
 11
4469.306875360534832
 21
280.6308003512202163
 31
0.0
  0
CIRCLE
  5
A487
  8
0
 10
4471.0293510251676707
 20
282.1296957136740957
 30
0.0
 40
0.7500588687681708
  0
LINE
  5
A488
  8
0
 10
4469.4241913714995462
 20
281.1337584781741725
 30
0.0
 11
4469.4882331632679779
 21
281.0697197453741865
 31
0.0
  0
LINE
  5
A489
  8
0
 10
4469.4882331632679779
 20
281.0697197453741865
 30
0.0
 11
4469.4882242257162943
 21
280.6897246161843213
 31
0.0
  0
LINE
  5
A48A
  8
0
 10
4469.4882242257162943
 20
280.6897246161843213
 30
0.0
 11
4469.4269135301110509
 21
280.6284308625880044
 31
0.0
  0
LINE
  5
A48B
  8
0
 10
4469.4264887890631144
 20
283.6314682880948794
 30
0.0
 11
4469.4882070549665514
 21
283.5697529701740791
 31
0.0
  0
LINE
  5
A48C
  8
0
 10
4469.4882070549665514
 20
283.5697529701740791
 30
0.0
 11
4469.4881981174148677
 21
283.1897578409843277
 31
0.0
  0
LINE
  5
A48D
  8
0
 10
4469.4881981174148677
 20
283.1897578409843277
 30
0.0
 11
4469.4252894094852309
 21
283.1258576416699952
 31
0.0
  0
LINE
  5
A48E
  8
0
 10
4469.3495496132891276
 20
283.1258462911176252
 30
0.0
 11
4469.3699727937018906
 21
282.8799005653434051
 31
0.0
  0
LINE
  5
A48F
  8
0
 10
4469.3495625715695496
 20
281.1337584781741725
 30
0.0
 11
4469.3699066394274269
 21
281.3787514926170843
 31
0.0
  0
LINE
  5
A490
  8
0
 10
4469.3699836324431089
 20
283.1258493534099898
 30
0.0
 11
4469.3698958428085461
 21
281.1337584781741725
 31
0.0
  0
ARC
  5
A491
  8
0
 10
4523.9983733093058618
 20
282.1297765674740958
 30
0.0
 40
0.7499987617999997
 50
90.0014039272184192
 51
269.998596072781595
  0
LINE
  5
A492
  8
0
 10
4525.8868894197912596
 20
282.8799582982408083
 30
0.0
 11
4524.1647077611060013
 21
282.8798067902421849
 31
0.0
  0
LINE
  5
A493
  8
0
 10
4524.1647077611060013
 20
282.8798067902421849
 30
0.0
 11
4523.9983549319722442
 21
282.8797753290489254
 31
0.0
  0
LINE
  5
A494
  8
0
 10
4523.9983549319722442
 20
281.3797778058993231
 30
0.0
 11
4524.1647077611060013
 21
281.3796890527058849
 31
0.0
  0
LINE
  5
A495
  8
0
 10
4524.1647077611060013
 20
281.3796890527058849
 30
0.0
 11
4525.8870856570083561
 21
281.3787701239212993
 31
0.0
  0
LINE
  5
A496
  8
0
 10
4525.8867914035936337
 20
283.6297689474008052
 30
0.0
 11
4526.4342799822670713
 21
283.6297724622795045
 31
0.0
  0
LINE
  5
A497
  8
0
 10
4526.4342799822670713
 20
280.6285719225269872
 30
0.0
 11
4525.88718342573884
 21
280.630852559020127
 31
0.0
  0
LINE
  5
A498
  8
0
 10
4525.88718342573884
 20
280.630852559020127
 30
0.0
 11
4525.8867914035936337
 21
283.6297689474008052
 31
0.0
  0
LINE
  5
A499
  8
0
 10
4525.7687693767902601
 20
283.125909849469906
 30
0.0
 11
4525.74742317487744
 21
282.8799460287734746
 31
0.0
  0
LINE
  5
A49A
  8
0
 10
4525.7687693767902601
 20
283.125909849469906
 30
0.0
 11
4525.8868572710061926
 21
283.1258921525272854
 31
0.0
  0
LINE
  5
A49B
  8
0
 10
4525.6809828789064341
 20
283.6327925957741058
 30
0.0
 11
4525.8867914035936337
 21
283.6297689474008052
 31
0.0
  0
LINE
  5
A49C
  8
0
 10
4525.6809828789064341
 20
283.6327925957741058
 30
0.0
 11
4525.6179652972059557
 21
283.5697719531740972
 31
0.0
  0
LINE
  5
A49D
  8
0
 10
4525.6179652972059557
 20
283.5697719531740972
 30
0.0
 11
4525.6179652972059557
 21
283.1897814201740857
 31
0.0
  0
LINE
  5
A49E
  8
0
 10
4525.6179652972059557
 20
283.1897814201740857
 30
0.0
 11
4525.6809828789064341
 21
283.1267605392740734
 31
0.0
  0
LINE
  5
A49F
  8
0
 10
4525.6809828789064341
 20
283.1267605392740734
 30
0.0
 11
4525.7687693767902601
 21
283.125909849469906
 31
0.0
  0
LINE
  5
A4A0
  8
0
 10
4525.7474961600692041
 20
281.378844598174112
 30
0.0
 11
4525.7698674147050042
 21
281.1338106859740833
 31
0.0
  0
LINE
  5
A4A1
  8
0
 10
4525.8871176784159616
 20
281.1338106859740833
 30
0.0
 11
4525.6820070889725685
 21
281.1338106859740833
 31
0.0
  0
LINE
  5
A4A2
  8
0
 10
4525.6820070889725685
 20
281.1338106859740833
 30
0.0
 11
4525.6179652972059557
 21
281.0697719531740972
 31
0.0
  0
LINE
  5
A4A3
  8
0
 10
4525.6179652972059557
 20
281.0697719531740972
 30
0.0
 11
4525.6179742347585488
 21
280.689776823984289
 31
0.0
  0
LINE
  5
A4A4
  8
0
 10
4525.6179742347585488
 20
280.689776823984289
 30
0.0
 11
4525.6809861349729545
 21
280.6267823358720079
 31
0.0
  0
LINE
  5
A4A5
  8
0
 10
4525.6809861349729545
 20
280.6267823358720079
 30
0.0
 11
4525.88718342573884
 21
280.630852559020127
 31
0.0
  0
CIRCLE
  5
A4A6
  8
0
 10
4524.1647077611060013
 20
282.1297479214741202
 30
0.0
 40
0.7500588687681708
  0
LINE
  5
A4A7
  8
0
 10
4525.7698674147732163
 20
281.1338106859740833
 30
0.0
 11
4525.7058256230047846
 21
281.0697719531740972
 31
0.0
  0
LINE
  5
A4A8
  8
0
 10
4525.7058256230047846
 20
281.0697719531740972
 30
0.0
 11
4525.7058345605591967
 21
280.689776823984289
 31
0.0
  0
LINE
  5
A4A9
  8
0
 10
4525.7058345605591967
 20
280.689776823984289
 30
0.0
 11
4525.7671452561617116
 21
280.6284830703879152
 31
0.0
  0
LINE
  5
A4AA
  8
0
 10
4525.7675699972096481
 20
283.6315204958947902
 30
0.0
 11
4525.7058517313062111
 21
283.5698051779741036
 31
0.0
  0
LINE
  5
A4AB
  8
0
 10
4525.7058517313062111
 20
283.5698051779741036
 30
0.0
 11
4525.7058606688588043
 21
283.1898100487841816
 31
0.0
  0
LINE
  5
A4AC
  8
0
 10
4525.7058606688588043
 20
283.1898100487841816
 30
0.0
 11
4525.7687693767902601
 21
283.125909849469906
 31
0.0
  0
LINE
  5
A4AD
  8
0
 10
4525.8445091729854539
 20
283.1258984989175929
 30
0.0
 11
4525.8240859925699624
 21
282.8799527731433159
 31
0.0
  0
LINE
  5
A4AE
  8
0
 10
4525.8444962147032129
 20
281.1338106859740833
 30
0.0
 11
4525.8241521468462452
 21
281.3788037004171088
 31
0.0
  0
LINE
  5
A4AF
  8
0
 10
4525.8240751538305631
 20
283.1259015612100143
 30
0.0
 11
4525.8241629434660354
 21
281.1338106859740833
 31
0.0
  0
ARC
  5
A4B0
  8
0
 10
4515.5984786209874073
 20
282.129851727881487
 30
0.0
 40
1.5625
 50
208.6854020141157093
 51
151.3145979858842907
  0
LINE
  5
A4B1
  8
0
 10
4515.5992267056808487
 20
282.8798502300912219
 30
0.0
 11
4479.597727813329584
 21
282.8800940696376074
 31
0.0
  0
LINE
  5
A4B2
  8
0
 10
4515.5984772585979954
 20
281.3798517278718805
 30
0.0
 11
4479.5984772604133468
 21
281.3795969914762054
 31
0.0
  0
ARC
  5
A4B3
  8
0
 10
4479.5984786209883168
 20
282.129851727881487
 30
0.0
 40
1.5625
 50
28.6951441775990688
 51
331.3043575303194075
  0
ARC
  5
A4B4
  8
0
 10
4479.5987274932440414
 20
282.1298458427012861
 30
0.0
 40
0.7502488929555794
 50
90.0763446070095881
 51
269.9808899612974074
  0
ARC
  5
A4B5
  8
0
 10
4515.5984791829496316
 20
282.1298511652440197
 30
0.0
 40
0.7499994373744922
 50
269.9998529902248947
 51
89.9428934176093406
  0
ENDSEC
  0
EOF
