  0
SECTION
  2
HEADER
  9
$ACADVER
  1
AC1009
  9
$INSBASE
 10
482.8592031168760172
 20
55.4702921617674676
 30
0.0
  9
$EXTMIN
 10
453.4821640759179786
 20
55.4695756669473781
 30
-0.0000000000000058
  9
$EXTMAX
 10
482.8766780263424039
 20
72.0857990006142302
 30
0.0000000000000104
  9
$LIMMIN
 10
0.0
 20
0.0
  9
$LIMMAX
 10
11.6929133858000007
 20
8.2677165353999982
  9
$ORTHOMODE
 70
     1
  9
$REGENMODE
 70
     1
  9
$FILLMODE
 70
     1
  9
$QTEXTMODE
 70
     0
  9
$MIRRTEXT
 70
     0
  9
$DRAGMODE
 70
     2
  9
$LTSCALE
 40
0.6431102362
  9
$OSMODE
 70
    23
  9
$ATTMODE
 70
     1
  9
$TEXTSIZE
 40
0.2
  9
$TRACEWID
 40
0.05
  9
$TEXTSTYLE
  7
STANDARD
  9
$CLAYER
  8
0
  9
$CELTYPE
  6
BYLAYER
  9
$CECOLOR
 62
   256
  9
$DIMSCALE
 40
1.0
  9
$DIMASZ
 40
0.1875
  9
$DIMEXO
 40
0.0625
  9
$DIMDLI
 40
0.4443307087
  9
$DIMRND
 40
0.0
  9
$DIMDLE
 40
0.0
  9
$DIMEXE
 40
0.125
  9
$DIMTP
 40
0.01
  9
$DIMTM
 40
0.01
  9
$DIMTXT
 40
2.0
  9
$DIMCEN
 40
0.1052362205
  9
$DIMTSZ
 40
0.0
  9
$DIMTOL
 70
     1
  9
$DIMLIM
 70
     0
  9
$DIMTIH
 70
     1
  9
$DIMTOH
 70
     1
  9
$DIMSE1
 70
     0
  9
$DIMSE2
 70
     0
  9
$DIMTAD
 70
     0
  9
$DIMZIN
 70
     0
  9
$DIMBLK
  1

  9
$DIMASO
 70
     1
  9
$DIMSHO
 70
     1
  9
$DIMPOST
  1
\X
  9
$DIMAPOST
  1

  9
$DIMALT
 70
     1
  9
$DIMALTD
 70
     2
  9
$DIMALTF
 40
25.3999999999999986
  9
$DIMLFAC
 40
1.0
  9
$DIMTOFL
 70
     0
  9
$DIMTVP
 40
0.0
  9
$DIMTIX
 70
     0
  9
$DIMSOXD
 70
     0
  9
$DIMSAH
 70
     0
  9
$DIMBLK1
  1

  9
$DIMBLK2
  1

  9
$DIMSTYLE
  2
STANDARD
  9
$DIMCLRD
 70
     0
  9
$DIMCLRE
 70
     0
  9
$DIMCLRT
 70
     0
  9
$DIMTFAC
 40
1.0
  9
$DIMGAP
 40
0.09
  9
$LUNITS
 70
     2
  9
$LUPREC
 70
     4
  9
$SKETCHINC
 40
0.1
  9
$FILLETRAD
 40
0.0
  9
$AUNITS
 70
     0
  9
$AUPREC
 70
     0
  9
$MENU
  1
.
  9
$ELEVATION
 40
0.0
  9
$PELEVATION
 40
0.0
  9
$THICKNESS
 40
0.0
  9
$LIMCHECK
 70
     0
  9
$BLIPMODE
 70
     0
  9
$CHAMFERA
 40
0.0
  9
$CHAMFERB
 40
0.0
  9
$SKPOLY
 70
     0
  9
$TDCREATE
 40
2458106.4931018520146608
  9
$TDUPDATE
 40
2459718.7739467602223158
  9
$TDINDWG
 40
0.2715031944
  9
$TDUSRTIMER
 40
0.2715031944
  9
$USRTIMER
 70
     1
  9
$ANGBASE
 50
0.0
  9
$ANGDIR
 70
     0
  9
$PDMODE
 70
     0
  9
$PDSIZE
 40
0.3125
  9
$PLINEWID
 40
0.0
  9
$COORDS
 70
     1
  9
$SPLFRAME
 70
     0
  9
$SPLINETYPE
 70
     6
  9
$SPLINESEGS
 70
     8
  9
$ATTDIA
 70
     1
  9
$ATTREQ
 70
     1
  9
$HANDLING
 70
     1
  9
$HANDSEED
  5
3D18
  9
$SURFTAB1
 70
     6
  9
$SURFTAB2
 70
     6
  9
$SURFTYPE
 70
     6
  9
$SURFU
 70
     6
  9
$SURFV
 70
     6
  9
$UCSNAME
  2

  9
$UCSORG
 10
0.0
 20
0.0
 30
0.0
  9
$UCSXDIR
 10
1.0
 20
0.0
 30
0.0
  9
$UCSYDIR
 10
0.0
 20
1.0
 30
0.0
  9
$PUCSNAME
  2

  9
$PUCSORG
 10
0.0
 20
0.0
 30
0.0
  9
$PUCSXDIR
 10
1.0
 20
0.0
 30
0.0
  9
$PUCSYDIR
 10
0.0
 20
1.0
 30
0.0
  9
$USERI1
 70
     0
  9
$USERI2
 70
     0
  9
$USERI3
 70
     0
  9
$USERI4
 70
     0
  9
$USERI5
 70
     0
  9
$USERR1
 40
0.0
  9
$USERR2
 40
0.0
  9
$USERR3
 40
0.0
  9
$USERR4
 40
0.0
  9
$USERR5
 40
0.0
  9
$WORLDVIEW
 70
     1
  9
$SHADEDGE
 70
     3
  9
$SHADEDIF
 70
    70
  9
$TILEMODE
 70
     1
  9
$MAXACTVP
 70
    64
  9
$PLIMCHECK
 70
     0
  9
$PEXTMIN
 10
1.0000000000000000E+20
 20
1.0000000000000000E+20
 30
1.0000000000000000E+20
  9
$PEXTMAX
 10
-1.0000000000000000E+20
 20
-1.0000000000000000E+20
 30
-1.0000000000000000E+20
  9
$PLIMMIN
 10
0.0
 20
0.0
  9
$PLIMMAX
 10
12.0
 20
9.0
  9
$UNITMODE
 70
     0
  9
$VISRETAIN
 70
     1
  9
$PLINEGEN
 70
     0
  9
$PSLTSCALE
 70
     1
  0
ENDSEC
  0
SECTION
  2
TABLES
  0
TABLE
  2
VPORT
 70
     1
  0
VPORT
  2
*ACTIVE
 70
     0
 10
0.0
 20
0.0
 11
1.0
 21
1.0
 12
194.6052194946171028
 22
81.3836480678022838
 13
0.0
 23
0.0
 14
1.0
 24
1.0
 15
0.0
 25
0.0
 16
-0.0000000000000568
 26
0.0
 36
193.9250709296327955
 17
273.5742015565131169
 27
-17.6059607340214797
 37
0.0
 40
16.7202915382618507
 41
2.005224660397074
 42
50.0
 43
0.0
 44
0.0
 50
0.0
 51
0.0
 71
     0
 72
   100
 73
     1
 74
     1
 75
     0
 76
     0
 77
     0
 78
     0
  0
ENDTAB
  0
TABLE
  2
LTYPE
 70
     2
  0
LTYPE
  2
CONTINUOUS
 70
     0
  3
Solid line
 72
    65
 73
     0
 40
0.0
  0
LTYPE
  2
PHANTOM2
 70
     0
  3
___ _ _ ___ _ _ ___ _ _ ___ _ _
 72
    65
 73
     6
 40
1.25
 49
0.625
 49
-0.125
 49
0.125
 49
-0.125
 49
0.125
 49
-0.125
  0
ENDTAB
  0
TABLE
  2
LAYER
 70
     2
  0
LAYER
  2
0
 70
     0
 62
   255
  6
CONTINUOUS
  0
LAYER
  2
DEFPOINTS
 70
     0
 62
     7
  6
CONTINUOUS
  0
ENDTAB
  0
TABLE
  2
STYLE
 70
     1
  0
STYLE
  2
STANDARD
 70
     0
 40
0.0
 41
0.8
 50
0.0
 71
     0
 42
0.2
  3
txt
  4

  0
ENDTAB
  0
TABLE
  2
VIEW
 70
     0
  0
ENDTAB
  0
TABLE
  2
UCS
 70
     0
  0
ENDTAB
  0
TABLE
  2
APPID
 70
     9
  0
APPID
  2
ACAD
 70
     0
  0
APPID
  2
ACAD_MLEADERVER
 70
     0
  0
APPID
  2
ACAD_EXEMPT_FROM_CAD_STANDARDS
 70
     0
  0
APPID
  2
ACAD_NAV_VCDISPLAY
 70
     0
  0
APPID
  2
ACAD_DSTYLE_DIMJAG
 70
     0
  0
APPID
  2
ACAD_DSTYLE_DIMTALN
 70
     0
  0
APPID
  2
ACAECLAYERSTANDARD
 70
     0
  0
APPID
  2
ACCMTRANSPARENCY
 70
     0
  0
APPID
  2
ACDBATTR
 70
     0
  0
ENDTAB
  0
TABLE
  2
DIMSTYLE
 70
     1
  0
DIMSTYLE
  2
STANDARD
 70
     0
  3

  4

  5

  6

  7

 40
1.0
 41
0.1875
 42
0.0625
 43
0.38
 44
0.125
 45
0.0
 46
0.0
 47
0.01
 48
0.01
140
0.15625
141
0.09
142
0.0
143
25.3999999999999986
144
1.0
145
0.0
146
1.0
147
0.09
 71
     1
 72
     0
 73
     1
 74
     1
 75
     0
 76
     0
 77
     0
 78
     4
170
     0
171
     2
172
     0
173
     0
174
     0
175
     0
176
     0
177
     0
178
     0
  0
ENDTAB
  0
ENDSEC
  0
SECTION
  2
BLOCKS
  0
BLOCK
  8
0
  2
$MODEL_SPACE
 70
     0
 10
0.0
 20
0.0
 30
0.0
  3
$MODEL_SPACE
  1

  0
ENDBLK
  5
21
  8
0
  0
BLOCK
 67
     1
  8
0
  2
$PAPER_SPACE
 70
     0
 10
0.0
 20
0.0
 30
0.0
  3
$PAPER_SPACE
  1

  0
ENDBLK
  5
1D
 67
     1
  8
0
  0
ENDSEC
  0
SECTION
  2
ENTITIES
  0
ATTDEF
  5
FAA
  8
DEFPOINTS
 10
482.8594067230573046
 20
55.4738649131628989
 30
0.0
 40
0.001
  1
71341920
  3

  2
MODELNUMBER
 70
     0
1001
ACDBATTR
1070
     0
1070
     1
  0
ATTDEF
  5
FAB
  8
DEFPOINTS
 10
482.8594067230573046
 20
55.4721982464962267
 30
0.0
 40
0.001
  1
PERFORMA2
  3

  2
TRADENAME
 70
     0
1001
ACDBATTR
1070
     0
1070
     1
  0
ATTDEF
  5
FAC
  8
DEFPOINTS
 10
482.8594067230573046
 20
55.4705315798295686
 30
0.0
 40
0.001
  1
BATH
  3

  2
PRODUCT
 70
     0
1001
ACDBATTR
1070
     0
1070
     1
  0
LINE
  5
3ACB
  8
0
 10
453.4919737135758737
 20
55.4702921617674676
 30
0.0
 11
453.7607401440229182
 21
55.4702921617674676
 31
0.0
  0
LINE
  5
3ACC
  8
0
 10
454.6979959932759243
 20
72.0492385972674754
 30
0.0
 11
453.7438235824758976
 21
71.1404847931674738
 31
0.0
  0
ARC
  5
3ACD
  8
0
 10
453.7652031169920974
 20
71.1180367306436381
 30
0.0
 40
0.0310000001162093
 50
133.6033909339469972
 51
179.9999999559261141
  0
LINE
  5
3ACE
  8
0
 10
453.7342031168760172
 20
71.1180367306674555
 30
0.0
 11
453.7342031168760172
 21
70.2202921617674463
 31
0.0
  0
ARC
  5
3ACF
  8
0
 10
454.7842038409621068
 20
71.9587222618397107
 30
0.0
 40
0.1249999999277856
 50
89.9999999936295438
 51
133.60342105812569
  0
LINE
  5
3AD0
  8
0
 10
454.7842038409621068
 20
72.0837222617674627
 30
0.0
 11
482.8592031168760172
 21
72.0837222617674627
 31
0.0
  0
ARC
  5
3AD1
  8
0
 10
353.734203116769379
 20
70.2202921617685263
 30
0.0
 40
100.0000000001065956
 50
358.999999999900524
 51
0.0
  0
LINE
  5
3AD2
  8
0
 10
453.7189726324759818
 20
68.4750515178674561
 30
0.0
 11
453.4919737135758737
 21
55.4702921617674676
 31
0.0
  0
LINE
  5
3AD3
  8
0
 10
453.838878220324716
 20
65.95746387878782
 30
0.0
 11
454.0027493425760099
 21
55.7242950905675016
 31
0.0
  0
ARC
  5
3AD4
  8
0
 10
453.7525547152828835
 20
55.7203834475684801
 30
0.0
 40
0.2502252035212654
 50
271.8746081441969977
 51
0.8957121860324516
  0
ARC
  5
3AD5
  8
0
 10
361.3716793227657718
 20
70.2202921615449611
 30
0.0
 40
92.5225237941102137
 50
358.9174433578023127
 51
0.000009462337652
  0
LINE
  5
3AD6
  8
0
 10
453.8776888024759728
 20
68.4722591608674804
 30
0.0
 11
453.8467637343575802
 21
66.8357027590496102
 31
0.0
  0
LINE
  5
3AD7
  8
0
 10
453.8467637343575802
 20
66.8357027590495534
 30
0.0
 11
453.838878220324716
 21
65.9574638787877632
 31
0.0
  0
LINE
  5
3AD8
  8
0
 10
453.8942031168758717
 20
70.2202967036674437
 30
0.0
 11
453.8942050301760105
 21
70.3810088293674454
 31
0.0
  0
ARC
  5
3AD9
  8
0
 10
454.1444085959390122
 20
70.3676721257179167
 30
0.0
 40
0.2505587595450232
 50
87.0537454058698046
 51
176.9488270143316981
  0
LINE
  5
3ADA
  8
0
 10
456.1639421785758941
 20
70.5127353578674558
 30
0.0
 11
454.1572871118759167
 21
70.6178996937674981
 31
0.0
  0
ARC
  5
3ADB
  8
0
 10
456.1623200558786948
 20
70.4817778264240076
 30
0.0
 40
0.0310000005664449
 50
30.0042803115594694
 51
87.000540385262596
  0
LINE
  5
3ADC
  8
0
 10
456.1891656858758779
 20
70.4972798322674805
 30
0.0
 11
456.288909862175899
 21
70.3245178511674851
 31
0.0
  0
ARC
  5
3ADD
  8
0
 10
456.6136693880856114
 20
70.5120178508849165
 30
0.0
 40
0.3749999994174265
 50
210.0000000015384956
 51
270.000000044368619
  0
LINE
  5
3ADE
  8
0
 10
456.6136693883759108
 20
70.1370178514675047
 30
0.0
 11
457.1047368460759799
 21
70.1370178514675047
 31
0.0
  0
ARC
  5
3ADF
  8
0
 10
457.1047368460759799
 20
70.5120178501022394
 30
0.0
 40
0.3749999986347632
 50
270.0
 51
330.0000000498598069
  0
LINE
  5
3AE0
  8
0
 10
457.4294963714759206
 20
70.3245178510674975
 30
0.0
 11
457.4933203304760241
 21
70.4350641907674628
 31
0.0
  0
ARC
  5
3AE1
  8
0
 10
457.5202611662027721
 20
70.4195098920044131
 30
0.0
 40
0.0311085975201939
 50
88.1462884297444162
 51
149.9999999936727022
  0
ARC
  5
3AE2
  8
0
 10
459.43700091867629
 20
126.1047702206866035
 30
0.0
 40
55.6871300364191626
 50
268.0285372247996065
 51
270.000744360998624
  0
LINE
  5
3AE3
  8
0
 10
459.4377243808253866
 20
70.4176401889668853
 30
0.0
 11
474.1647610791758893
 21
70.4176401887674643
 31
0.0
  0
ARC
  5
3AE4
  8
0
 10
454.4365866903444271
 20
69.1530872123166489
 30
0.0
 40
0.549343127743417
 50
87.3769990908045173
 51
176.1820043224236088
  0
LINE
  5
3AE5
  8
0
 10
454.9321058643760125
 20
69.5759208175674928
 30
0.0
 11
454.112402868376023
 21
68.8116239670674474
 31
0.0
  0
LINE
  5
3AE6
  8
0
 10
454.112402868376023
 20
68.8116239670674474
 30
0.0
 11
454.0857161164400964
 21
69.5757782488516625
 31
0.0
  0
LINE
  5
3AE7
  8
0
 10
454.112402868376023
 20
68.8116239670674474
 30
0.0
 11
453.8740038057954962
 21
68.2772489224113457
 31
0.0
  0
LINE
  5
3AE8
  8
0
 10
455.0192031168759854
 20
70.8383486680256453
 30
0.0
 11
455.0192031168759854
 21
70.7371182895674622
 31
0.0
  0
ARC
  5
3AE9
  8
0
 10
454.8632031168759795
 20
70.7371182895674622
 30
0.0
 40
0.1559999999999981
 50
266.99999999808648
 51
0.0000000000032569
  0
ARC
  5
3AEA
  8
0
 10
455.0288024960559028
 20
70.8265159599456808
 30
0.0
 40
0.0152368323856063
 50
107.5353908621998045
 51
129.0509688281470915
  0
LINE
  5
3AEB
  8
0
 10
455.0242117170466827
 20
70.8410447523674804
 30
0.0
 11
482.8231908920890874
 21
70.8410447523674804
 31
0.0
  0
ARC
  5
3AEC
  8
0
 10
474.1570041349374947
 20
70.3733121684602736
 30
0.0
 40
0.0450015951747679
 50
39.4942661581142218
 51
80.0743305370504146
  0
LINE
  5
3AED
  8
0
 10
474.1917313364758115
 20
70.4019332278674739
 30
0.0
 11
474.2734629357760241
 21
70.2603699453675006
 31
0.0
  0
ARC
  5
3AEE
  8
0
 10
474.5982224605450028
 20
70.447869944509506
 30
0.0
 40
0.3749999981420014
 50
210.0000000125270958
 51
270.0000001575095894
  0
LINE
  5
3AEF
  8
0
 10
474.5982224615759151
 20
70.07286994636749
 30
0.0
 11
475.120183772175892
 21
70.07286994636749
 31
0.0
  0
ARC
  5
3AF0
  8
0
 10
475.120183772175892
 20
70.4478699461942739
 30
0.0
 40
0.3749999998267981
 50
270.0
 51
330.0000000152780899
  0
LINE
  5
3AF1
  8
0
 10
475.4449432983760175
 20
70.2603699460674704
 30
0.0
 11
475.5266748971758943
 21
70.4019332278674739
 31
0.0
  0
ARC
  5
3AF2
  8
0
 10
475.55388169387669
 20
70.3862253764789614
 30
0.0
 40
0.0314157027927787
 50
90.4314031034653567
 51
150.0000000165680092
  0
LINE
  5
3AF3
  8
0
 10
475.5536451545759746
 20
70.4176401887674643
 30
0.0
 11
479.7175261890758975
 21
70.4176401885674466
 31
0.0
  0
ARC
  5
3AF4
  8
0
 10
479.7175261934360151
 20
161.1912814865509915
 30
0.0
 40
90.7736412979835734
 50
269.9999999972479259
 51
271.6727126684575069
  0
ARC
  5
3AF5
  8
0
 10
482.3592882475763872
 20
70.6139962370491787
 30
0.0
 40
0.1578748767785427
 50
272.8822034740304048
 51
346.3486167364829953
  0
LINE
  5
3AF6
  8
0
 10
482.5127031168760254
 20
70.8410447523674804
 30
0.0
 11
482.5127031168760254
 21
70.2360818937674765
 31
0.0
  0
ARC
  5
3AF7
  8
0
 10
482.3567031168759058
 20
70.2360818937674765
 30
0.0
 40
0.1559999999999917
 50
269.9999999999968168
 51
0.0
  0
LINE
  5
3AF8
  8
0
 10
482.3567031168759058
 20
70.0800818937674705
 30
0.0
 11
482.2175048483758815
 21
70.0800818937674705
 31
0.0
  0
ARC
  5
3AF9
  8
0
 10
482.2175048483758815
 20
70.2680830370351543
 30
0.0
 40
0.1880011432676696
 50
186.0003137239164914
 51
270.0
  0
LINE
  5
3AFA
  8
0
 10
482.0305337026758821
 20
70.248430542667478
 30
0.0
 11
482.0160256308759017
 21
70.3864656254674799
 31
0.0
  0
ARC
  5
3AFB
  8
0
 10
481.9845446538574834
 20
70.3828828413536769
 30
0.0
 40
0.0316841956823672
 50
6.4927769306895566
 51
84.1604983612333655
  0
ARC
  5
3AFC
  8
0
 10
482.8102031168759254
 20
70.8882921617675663
 30
0.0
 40
0.0490000000000826
 50
285.37031820392599
 51
359.9999290232880753
  0
LINE
  5
3AFD
  8
0
 10
482.8592031168760172
 20
70.888292101067492
 30
0.0
 11
482.8592031168760172
 21
72.0837222617674627
 31
0.0
  0
LINE
  5
3AFF
  8
0
 10
464.0648687752250794
 20
55.4702921617627567
 30
0.0
 11
464.1812733000223261
 21
55.4702921617627567
 31
0.0
  0
LINE
  5
3B00
  8
0
 10
465.4667126500219752
 20
55.4702921617627567
 30
0.0
 11
465.9980363180220024
 21
55.4702921617627567
 31
0.0
  0
LINE
  5
3B01
  8
0
 10
468.2883887797220837
 20
55.4702921617627567
 30
0.0
 11
469.1642507359396745
 21
55.4702921617627567
 31
0.0
  0
LINE
  5
3B02
  8
0
 10
471.4703699158220047
 20
55.4702921617627567
 30
0.0
 11
472.0016935838219752
 21
55.4702921617627567
 31
0.0
  0
LINE
  5
3B03
  8
0
 10
474.3111275151663904
 20
55.4702921617627567
 30
0.0
 11
475.1441074807819973
 21
55.4702921617627567
 31
0.0
  0
ARC
  5
3B04
  8
0
 10
139.6436103564703899
 20
18.5711508934595599
 30
0.0
 40
320.7768684502602241
 50
8.4755613676720838
 51
8.9829794208808469
  0
ARC
  5
3B05
  8
0
 10
315.5616329339742947
 20
44.1179720205976693
 30
0.0
 40
143.0163193944109992
 50
8.0023174028320323
 51
8.7400969263849717
  0
ARC
  5
3B06
  8
0
 10
372.828871698764317
 20
52.6777965970376769
 30
0.0
 40
85.1165765816863029
 50
6.4616432698716526
 51
7.6629697656028872
  0
ARC
  5
3B07
  8
0
 10
498.8159764737205251
 20
67.2648953853950786
 30
0.0
 40
41.712985824759599
 50
186.8958212729397985
 51
190.6362798315402074
  0
ARC
  5
3B08
  8
0
 10
460.5930568781644752
 20
60.0722398753201787
 30
0.0
 40
2.819246976737769
 50
190.3491127067647994
 51
214.9745042890388902
  0
ARC
  5
3B09
  8
0
 10
460.9647081393671897
 20
60.4687998380612726
 30
0.0
 40
3.3529616449530568
 50
216.8871758320881042
 51
243.2240731262160978
  0
ARC
  5
3B0A
  8
0
 10
458.8525209600991275
 20
56.6705413742784785
 30
0.0
 40
1.004857022979958
 50
43.9357638771691086
 51
53.2187550332354604
  0
ARC
  5
3B0B
  8
0
 10
458.7284608483154216
 20
56.7643676860525304
 30
0.0
 40
1.0405233398961999
 50
32.2554312158526884
 51
35.4354157197207869
  0
ARC
  5
3B0C
  8
0
 10
461.2999701202833762
 20
58.3834990543449521
 30
0.0
 40
1.998267776982446
 50
212.1654480046177014
 51
221.6113756936622963
  0
ARC
  5
3B0D
  8
0
 10
461.401223750729514
 20
58.2691020476220771
 30
0.0
 40
2.0038355897303188
 50
217.2389505601944961
 51
237.9372248712043074
  0
ARC
  5
3B0E
  8
0
 10
461.6756724971364179
 20
58.12181844404261
 30
0.0
 40
2.0046267784054308
 50
243.1999124315885012
 51
254.0780450568734068
  0
ARC
  5
3B0F
  8
0
 10
461.8836716035092991
 20
58.0504339041025332
 30
0.0
 40
2.0051026225718629
 50
245.7366930864637027
 51
257.425535296318003
  0
ARC
  5
3B10
  8
0
 10
462.1271661581362764
 20
57.9938265679909577
 30
0.0
 40
2.0184025557818219
 50
247.8259345426372988
 51
269.0812725415934779
  0
ARC
  5
3B11
  8
0
 10
464.0648687752250794
 20
55.5192921615869679
 30
0.0
 40
0.0489999998052929
 50
183.9999558381717861
 51
270.0
  0
ARC
  5
3B12
  8
0
 10
464.0702364906214825
 20
55.5192921617640991
 30
0.0
 40
0.0490000000012714
 50
270.0000000006415917
 51
0.0003272860195954
  0
ARC
  5
3B13
  8
0
 10
464.1812733000223261
 20
56.2203206563622189
 30
0.0
 40
0.7500284945994028
 50
270.0
 51
304.4712830522103104
  0
ARC
  5
3B14
  8
0
 10
465.4442329879443037
 20
54.3807283675419626
 30
0.0
 40
1.4813762115001119
 50
105.8473776494146961
 51
124.4712830522098983
  0
ARC
  5
3B15
  8
0
 10
470.4057902106338247
 20
328.2013137718540747
 30
0.0
 40
272.448362338632819
 50
268.8714414904961814
 51
268.9582478096288014
  0
ARC
  5
3B16
  8
0
 10
470.4057902106338247
 20
328.2013137718540747
 30
0.0
 40
272.448362338632819
 50
269.071256772630818
 51
269.4616601979258235
  0
ARC
  5
3B17
  8
0
 10
467.8438017601326919
 20
55.51451695084058
 30
0.0
 40
0.2504696867589318
 50
24.3082040786805287
 51
89.5069764209481349
  0
ARC
  5
3B18
  8
0
 10
468.3007462148798936
 20
55.7209140562998684
 30
0.0
 40
0.2509263641490051
 50
204.3082040786804896
 51
267.1771982130366041
  0
LINE
  5
3B19
  8
0
 10
468.4570291766979722
 20
56.1462924416628013
 30
0.0
 11
468.476783086922012
 21
55.5178066604627816
 31
0.0
  0
ARC
  5
3B1A
  8
0
 10
468.1376428116599868
 20
55.5071471566978403
 30
0.0
 40
0.3393077531170338
 50
353.7643334319988071
 51
1.8002685669148271
  0
LINE
  5
3B1B
  8
0
 10
468.9641420501631046
 20
56.1462924416628013
 30
0.0
 11
468.9883591792220159
 21
55.5157945657627394
 31
0.0
  0
ARC
  5
3B1C
  8
0
 10
469.4204645233623978
 20
55.532391530298348
 30
0.0
 40
0.4324239674977531
 50
182.1996228716789119
 51
188.256656748711805
  0
ARC
  5
3B1D
  8
0
 10
474.311388317652586
 20
55.7199700912442211
 30
0.0
 40
0.249678065692749
 50
191.940150129989604
 51
269.9401513928664258
  0
ARC
  5
3B1E
  8
0
 10
469.161988754224808
 20
55.7204931775015595
 30
0.0
 40
0.2502112404309586
 50
270.5179774130018018
 51
335.7339706662247067
  0
ARC
  5
3B1F
  8
0
 10
469.6180106270541046
 20
55.5147126126629971
 30
0.0
 40
0.2500902926836411
 50
90.4422174672697281
 51
155.6913210400130083
  0
ARC
  5
3B20
  8
0
 10
466.3789074602872233
 20
371.7228446339610741
 30
0.0
 40
315.974632096893572
 50
270.5870078595023074
 51
270.9207527996164231
  0
ARC
  5
3B21
  8
0
 10
466.3789074602872233
 20
371.7228446339610741
 30
0.0
 40
315.974632096893572
 50
271.018078624229986
 51
271.5038624921622272
  0
ARC
  5
3B22
  8
0
 10
473.8042047179740734
 20
55.629276165400448
 30
0.0
 40
0.2657900081863621
 50
8.4459077137267435
 51
52.217194363831851
  0
LINE
  5
3B23
  8
0
 10
471.4138981157220201
 20
56.7637093091628131
 30
0.0
 11
471.4703699158220047
 21
55.4702921617627567
 31
0.0
  0
LINE
  5
3B24
  8
0
 10
471.9674463853580164
 20
56.7781145912017493
 30
0.0
 11
472.0016935838219752
 21
55.4702921617627567
 31
0.0
  0
LINE
  5
3B25
  8
0
 10
465.9641120786218949
 20
56.7657828846627979
 30
0.0
 11
465.9980363180220024
 21
55.4702921617627567
 31
0.0
  0
LINE
  5
3B26
  8
0
 10
465.4095824185220067
 20
56.7788024818627832
 30
0.0
 11
465.4667126500219752
 21
55.4702921617627567
 31
0.0
  0
ARC
  5
3B27
  8
0
 10
475.1441074807889891
 20
55.7202871496241983
 30
0.0
 40
0.2499949878614447
 50
269.9999999983813268
 51
348.1835500370689829
  0
ARC
  5
3B28
  8
0
 10
475.6478457347220115
 20
55.7278146663627965
 30
0.0
 40
0.249977552399925
 50
103.7604037257915053
 51
127.7322638344957966
  0
ARC
  5
3B29
  8
0
 10
475.0862679914135924
 20
58.0104305154629785
 30
0.0
 40
2.100704354416151
 50
283.8289083680833187
 51
287.3410678423687727
  0
ARC
  5
3B2A
  8
0
 10
475.6378271666708883
 20
58.0629207219287835
 30
0.0
 40
2.0174607686768731
 50
282.329930537122209
 51
292.8658459041188848
  0
ARC
  5
3B2B
  8
0
 10
475.3948350641048819
 20
57.9960840836594116
 30
0.0
 40
2.0197937938652171
 50
278.3321818161559236
 51
290.3389109587993744
  0
ARC
  5
3B2C
  8
0
 10
475.8395030967104731
 20
58.1243632673661565
 30
0.0
 40
2.0066960097772402
 50
286.8674007296589821
 51
297.9629832264953961
  0
ARC
  5
3B2D
  8
0
 10
479.0741199089102906
 20
56.5739904249788026
 30
0.0
 40
1.379008602673331
 50
143.2101004787018041
 51
147.2721805469543028
  0
ARC
  5
3B2E
  8
0
 10
475.9946559893979838
 20
58.1932371916763103
 30
0.0
 40
2.0019519657318399
 50
293.1108550678472966
 51
305.2221974617497722
  0
ARC
  5
3B2F
  8
0
 10
475.1418621500835116
 20
55.7203026313040368
 30
0.0
 40
0.2500205519356295
 50
270.5145565073034959
 51
351.9982712869214083
  0
ARC
  5
3B30
  8
0
 10
476.3112331778418138
 20
60.8870786347951594
 30
0.0
 40
3.833330994757727
 50
296.3195307648784933
 51
312.4434341370659922
  0
ARC
  5
3B31
  8
0
 10
477.0825393625021889
 20
60.0064052643635293
 30
0.0
 40
2.6630369534441889
 50
312.9845978405925848
 51
349.8668574393254858
  0
ARC
  5
3B32
  8
0
 10
1267.9387227972729306
 20
-56.9032881814391729
 30
0.0
 40
796.7528514509916704
 50
170.8611649762586921
 51
171.1345022277720034
  0
ARC
  5
3B33
  8
0
 10
628.784032550034226
 20
41.9523540705259919
 30
0.0
 40
150.001349208548902
 50
170.8178481811405902
 51
171.5107054868670957
  0
ARC
  5
3B34
  8
0
 10
631.6709561038338734
 20
42.7662204958747267
 30
0.0
 40
152.741457034914788
 50
171.9725272627698871
 51
172.6590786188309039
  0
ARC
  5
3B35
  8
0
 10
403.7647239284360126
 20
74.1612804726167667
 30
0.0
 40
77.3344884930784104
 50
349.1001506004513999
 51
351.1642039046275272
  0
ARC
  5
3B36
  8
0
 10
481.5926816217049122
 20
69.5955696913904092
 30
0.0
 40
0.2969157617001796
 50
153.0151833711340998
 51
170.8441291140684086
  0
ARC
  5
3B37
  8
0
 10
509.8488299945797735
 20
55.1480855716542919
 30
0.0
 40
32.0323800254547493
 50
151.6952454009513076
 51
152.9200440368992986
  0
ARC
  5
3B38
  8
0
 10
481.7591901433145836
 20
70.2737861975909652
 30
0.0
 40
0.1291842165702363
 50
99.066138195207273
 51
150.906806250706893
  0
LINE
  5
3B39
  8
0
 10
454.9321058643760125
 20
69.5759208175674928
 30
0.0
 11
456.7649125515220021
 21
69.4798738091627968
 31
0.0
  0
LINE
  5
3B3A
  8
0
 10
454.4617268362760001
 20
69.7018547815674481
 30
0.0
 11
458.0955998947219996
 21
69.5114118443628115
 31
0.0
  0
LINE
  5
3B3B
  8
0
 10
456.7540193929798988
 20
69.4804446595134948
 30
0.0
 11
457.4316791105219977
 21
68.8631569073628214
 31
0.0
  0
LINE
  5
3B3C
  8
0
 10
457.4316791105219977
 20
68.8631569073628214
 30
0.0
 11
457.748179292921975
 21
68.2661058890627999
 31
0.0
  0
LINE
  5
3B3D
  8
0
 10
457.748179292921975
 20
68.2661058890627999
 30
0.0
 11
457.7592421592220262
 21
68.2654755170628107
 31
0.0
  0
LINE
  5
3B3E
  8
0
 10
457.7592421592220262
 20
68.2654755170628107
 30
0.0
 11
457.5808011067476855
 21
69.5383913056058134
 31
0.0
  0
LINE
  5
3B3F
  8
0
 10
456.7649125449220833
 20
69.4798738061627716
 30
0.0
 11
456.7613684513419798
 21
69.5813359513279153
 31
0.0
  0
LINE
  5
3B40
  8
0
 10
456.4677867199648063
 20
69.4954445349985406
 30
0.0
 11
456.6555126616220264
 21
68.3542667452627768
 31
0.0
  0
LINE
  5
3B41
  8
0
 10
456.6555126616220264
 20
68.3542667452627768
 30
0.0
 11
456.6525186577219984
 21
68.3544485007627998
 31
0.0
  0
LINE
  5
3B42
  8
0
 10
456.6525186577219984
 20
68.3544485007627998
 30
0.0
 11
456.3325870014219845
 21
68.9371359229627529
 31
0.0
  0
LINE
  5
3B43
  8
0
 10
456.3325870014219845
 20
68.9371359229627529
 30
0.0
 11
455.661179065748172
 21
69.5377142241547688
 31
0.0
  0
ARC
  5
3B44
  8
0
 10
461.147019570298994
 20
60.8056572816118219
 30
0.0
 40
3.735847578318825
 50
243.0552457619247093
 51
246.3425971293314944
  0
ARC
  5
3B45
  8
0
 10
459.1212363743421747
 20
56.5279818557290525
 30
0.0
 40
1.0048836269275421
 50
32.0267775118714795
 51
62.6925452230899722
  0
ARC
  5
3B46
  8
0
 10
461.6740982188459839
 20
58.1238929278667911
 30
0.0
 40
2.005769988513828
 50
212.0036400228580078
 51
243.2667704744359867
  0
ARC
  5
3B47
  8
0
 10
458.8447726605975845
 20
56.6654561258582987
 30
0.0
 40
1.0139665701191629
 50
32.1461495981109024
 51
43.8389008666571272
  0
ARC
  5
3B48
  8
0
 10
461.4444263273931028
 20
58.2989595128887927
 30
0.0
 40
2.0562993000669612
 50
212.1420056885515919
 51
217.1728153026350867
  0
ARC
  5
3B49
  8
0
 10
460.8507941271013806
 20
59.8993175565027514
 30
0.0
 40
2.7842204060163009
 50
242.8950362957222922
 51
250.1226274178941082
  0
ARC
  5
3B4A
  8
0
 10
459.3274799450870205
 20
56.4565691788454771
 30
0.0
 40
1.00606965843939
 50
32.0144326478618524
 51
62.6756116448355485
  0
ARC
  5
3B4B
  8
0
 10
461.8849535275505218
 20
58.0550994465131609
 30
0.0
 40
2.0098829630942681
 50
212.0034951000218086
 51
245.7580313564342021
  0
ARC
  5
3B4C
  8
0
 10
458.9611938436190144
 20
56.6006137903279622
 30
0.0
 40
1.0033968818464429
 50
33.0860118282178917
 51
56.9651417253951919
  0
ARC
  5
3B4D
  8
0
 10
461.5148161635343058
 20
58.2000356596755708
 30
0.0
 40
2.01000481840989
 50
211.5483369363147972
 51
248.3421280134847962
  0
ARC
  5
3B4E
  8
0
 10
461.0660639328224875
 20
59.8598552479639423
 30
0.0
 40
2.815597663401233
 50
243.0338990025040005
 51
251.5516311156596032
  0
ARC
  5
3B4F
  8
0
 10
459.5566983224641149
 20
56.3815333970786909
 30
0.0
 40
1.017009488852721
 50
32.4037045038368632
 51
62.5023925422196882
  0
ARC
  5
3B50
  8
0
 10
462.1236681952889853
 20
57.9868629571002714
 30
0.0
 40
2.010633848896497
 50
211.8274293540648898
 51
247.8433470044053024
  0
ARC
  5
3B51
  8
0
 10
461.3205152076213835
 20
59.8433087184614294
 30
0.0
 40
2.868263096998481
 50
243.1772505117002936
 51
252.8434155834852106
  0
ARC
  5
3B52
  8
0
 10
459.8249238065697
 20
56.3287657257090402
 30
0.0
 40
1.0103406867405991
 50
31.9212636451941698
 51
62.5556800812986609
  0
ARC
  5
3B53
  8
0
 10
462.3901214414955803
 20
57.9240561405943311
 30
0.0
 40
2.010452769239683
 50
211.8553327779009976
 51
238.8249067160805907
  0
ARC
  5
3B54
  8
0
 10
462.0016335607268729
 20
57.1509605172990689
 30
0.0
 40
1.1498988102182881
 50
235.4441492925238038
 51
268.8520596423797997
  0
LINE
  5
3B55
  8
0
 10
462.0948028252220752
 20
55.9756834878627885
 30
0.0
 11
462.489625614262593
 21
55.9698424194681721
 31
0.0
  0
ARC
  5
3B56
  8
0
 10
461.5795336096859955
 20
59.7806602228588417
 30
0.0
 40
2.8619498741271112
 50
243.2321003181176025
 51
257.7681240163701091
  0
ARC
  5
3B57
  8
0
 10
460.2400247915712725
 20
56.2610067895638011
 30
0.0
 40
1.0294516029172129
 50
31.8796160625566714
 51
62.7905690373250991
  0
ARC
  5
3B58
  8
0
 10
462.8226837230935189
 20
57.8958579556486725
 30
0.0
 40
2.0272073940950479
 50
212.5651266712187919
 51
234.640638765270495
  0
ARC
  5
3B59
  8
0
 10
462.7715391407796801
 20
57.8148819771141689
 30
0.0
 40
1.9315777195544841
 50
234.487856263673109
 51
245.2909926228431061
  0
ARC
  5
3B5A
  8
0
 10
462.2618956590280277
 20
56.7823354675488119
 30
0.0
 40
0.7811626145663875
 50
247.5922899072402004
 51
269.34338136442409
  0
ARC
  5
3B5B
  8
0
 10
462.2932710452814149
 20
60.5721910001190622
 30
0.0
 40
3.7463129771054291
 50
245.0122324369552018
 51
251.9150573460609905
  0
ARC
  5
3B5C
  8
0
 10
462.0027729691818763
 20
59.7353082748901727
 30
0.0
 40
2.8606429029353362
 50
252.2426536715198893
 51
267.7924767129969723
  0
ARC
  5
3B5D
  8
0
 10
464.2481671197444939
 20
103.3444601749605027
 30
0.0
 40
46.5273392497383469
 50
267.0979921202966807
 51
268.4119812986554052
  0
ARC
  5
3B5E
  8
0
 10
462.9562705801167226
 20
56.780090541823391
 30
0.0
 40
0.0549570619000894
 50
9.0087353816051206
 51
87.3899003805152859
  0
ARC
  5
3B5F
  8
0
 10
462.240780629218591
 20
55.001268101236171
 30
0.0
 40
1.0000300178094921
 50
64.5003181312127651
 51
89.303116346420822
  0
ARC
  5
3B60
  8
0
 10
462.8866397075180998
 20
56.3553591667243481
 30
0.0
 40
0.5002021517751912
 50
244.5003181312090987
 51
268.6633270355613945
  0
LINE
  5
3B61
  8
0
 10
461.978596489722122
 20
56.0012924925628113
 30
0.0
 11
462.2482273271663757
 21
56.0012924424213168
 31
0.0
  0
LINE
  5
3B62
  8
0
 10
462.8749713778220212
 20
55.8552931283628027
 30
0.0
 11
463.0921424504975903
 21
55.8500588065224619
 31
0.0
  0
ARC
  5
3B63
  8
0
 10
463.12267350163728
 20
55.888453825242749
 30
0.0
 40
0.0490542816299739
 50
183.575668673180104
 51
267.3968634462303271
  0
LINE
  5
3B64
  8
0
 10
463.073714713822028
 20
55.8853944720627922
 30
0.0
 11
463.0105497180219913
 21
56.7886959959627902
 31
0.0
  0
LINE
  5
3B65
  8
0
 10
463.073714713822028
 20
55.8853944720627922
 30
0.0
 11
463.0368583620220875
 21
56.9558620259628015
 31
0.0
  0
ARC
  5
3B66
  8
0
 10
463.4845596873821023
 20
56.9578585602268674
 30
0.0
 40
0.4477057771329688
 50
160.7590351341077906
 51
180.2555101407753
  0
ARC
  5
3B67
  8
0
 10
462.577963278267589
 20
56.9960178810458373
 30
0.0
 40
0.4134562149273657
 50
337.0787004021253779
 51
355.070269612918878
  0
ARC
  5
3B68
  8
0
 10
464.2564879379690979
 20
56.8512401407104377
 30
0.0
 40
1.2713006302354339
 50
172.9493012699180952
 51
175.0702696129187927
  0
ARC
  5
3B69
  8
0
 10
463.1233551300011868
 20
56.9913892456753217
 30
0.0
 40
0.1295336959989295
 50
118.3414152824126973
 51
172.9493012699165035
  0
LINE
  5
3B6A
  8
0
 10
463.0618623079220129
 20
57.1053963122627906
 30
0.0
 11
463.2120528469220062
 21
57.102761798362792
 31
0.0
  0
ARC
  5
3B6B
  8
0
 10
464.3766428302670874
 20
57.0587723344374922
 30
0.0
 40
1.165420483020712
 50
177.8368241076030074
 51
186.5733138276557099
  0
LINE
  5
3B6C
  8
0
 10
463.2188835987220159
 20
56.9253614502627769
 30
0.0
 11
463.2304069873219987
 21
56.8274214537627813
 31
0.0
  0
ARC
  5
3B6D
  8
0
 10
463.5303780953580031
 20
56.8737275890742282
 30
0.0
 40
0.3921577528969242
 50
144.2655597674950911
 51
175.1273570883786022
  0
LINE
  5
3B6E
  8
0
 10
463.1396376136220283
 20
56.907037934162787
 30
0.0
 11
463.1770056185220028
 21
55.8369435862628123
 31
0.0
  0
LINE
  5
3B6F
  8
0
 10
463.1770056185220028
 20
55.8369435862628123
 30
0.0
 11
463.1770073573219975
 21
56.7756026076627904
 31
0.0
  0
ARC
  5
3B70
  8
0
 10
463.2307427606432952
 20
56.7736516956831494
 30
0.0
 40
0.0537708064628592
 50
90.3577874405656161
 51
177.9207386214197868
  0
LINE
  5
3B71
  8
0
 10
463.1204455702221026
 20
55.8394501634628
 30
0.0
 11
463.1770056185220028
 21
55.8369435862628123
 31
0.0
  0
LINE
  5
3B72
  8
0
 10
463.1770056384194163
 20
55.8476847914785068
 30
0.0
 11
465.0397049819653716
 21
55.8058011980938318
 31
0.0
  0
ARC
  5
3B73
  8
0
 10
456.0872676920237723
 20
-238.8023563756260046
 30
0.0
 40
295.7160631052121857
 50
88.3848748238415141
 51
88.6158629978179135
  0
ARC
  5
3B74
  8
0
 10
463.9044920425527039
 20
55.8062085793278015
 30
0.0
 40
1.0038058165199051
 50
43.65015404811097
 51
88.3774679468597668
  0
ARC
  5
3B75
  8
0
 10
465.3549014242015005
 20
57.1887924678833315
 30
0.0
 40
1.000000026220536
 50
223.6068242445215901
 51
270.0000000015502906
  0
ARC
  5
3B76
  8
0
 10
464.0684927202204904
 20
55.9425658453083372
 30
0.0
 40
0.9236036426221753
 50
39.0668798469596368
 51
78.5703923573026799
  0
ARC
  5
3B77
  8
0
 10
465.4890991685966242
 20
57.0921166379799487
 30
0.0
 40
0.9038529530345797
 50
218.8905910920987878
 51
266.5873463410708268
  0
LINE
  5
3B78
  8
0
 10
464.2515175923219886
 20
56.8478534155627813
 30
0.0
 11
464.3046394599219866
 21
56.8576788294627917
 31
0.0
  0
ARC
  5
3B79
  8
0
 10
464.1041699156641016
 20
55.9508889095581026
 30
0.0
 40
0.9286850903377807
 50
38.6279337822484976
 51
77.5337872602852087
  0
ARC
  5
3B7A
  8
0
 10
465.5410422878849772
 20
57.0966767594084104
 30
0.0
 40
0.909094983847315
 50
218.5097819481871966
 51
263.309366419172477
  0
ARC
  5
3B7B
  8
0
 10
464.9259672944767772
 20
59.8155598852863974
 30
0.0
 40
3.0224342206891408
 50
258.1370148259322264
 51
268.0661965361589978
  0
ARC
  5
3B7C
  8
0
 10
465.9696207253794
 20
90.725748249141617
 30
0.0
 40
33.9502365540726814
 50
268.0661965361589978
 51
269.3608871845801218
  0
LINE
  5
3B7D
  8
0
 10
465.5907826210220151
 20
56.7796812616628017
 30
0.0
 11
465.6823441130509877
 21
55.4702921617627567
 31
0.0
  0
LINE
  5
3B7E
  8
0
 10
465.6823441130509877
 20
55.4702921617627567
 30
0.0
 11
465.6280828072032136
 21
57.0241298772626806
 31
0.0
  0
ARC
  5
3B7F
  8
0
 10
465.5929574101901949
 20
56.7795425780286109
 30
0.0
 40
0.002179206524518
 50
118.3110984584494929
 51
176.3512589743089052
  0
ARC
  5
3B80
  8
0
 10
465.5838179356638875
 20
56.7923060238712125
 30
0.0
 40
0.0135395214108383
 50
306.7760840918691088
 51
313.2196513653057082
  0
ARC
  5
3B81
  8
0
 10
465.6022125097215962
 20
56.7729957648063817
 30
0.0
 40
0.0131303172703698
 50
110.4678907187435044
 51
134.010097502625797
  0
ARC
  5
3B82
  8
0
 10
465.5660700094879871
 20
56.914604981996213
 30
0.0
 40
0.1331014147424526
 50
283.7122145206290043
 51
288.4275778333201856
  0
ARC
  5
3B83
  8
0
 10
465.6061295200793211
 20
56.7937388330387805
 30
0.0
 40
0.0057732636838198
 50
290.4233940041081041
 51
324.0662971747299252
  0
ARC
  5
3B84
  8
0
 10
465.5980062497272911
 20
56.7990483283720877
 30
0.0
 40
0.0154735990755606
 50
325.7996640984272858
 51
355.252502780789996
  0
ARC
  5
3B85
  8
0
 10
461.559392293651797
 20
57.2938217379585808
 30
0.0
 40
4.0842704498474331
 50
353.0239317989647816
 51
354.5501750418995925
  0
ARC
  5
3B86
  8
0
 10
464.2712669396315164
 20
56.9980709488801196
 30
0.0
 40
1.3570660876475911
 50
356.1064500538986977
 51
1.1002842092499781
  0
LINE
  5
3B87
  8
0
 10
465.6280828072032136
 20
57.0241298772626806
 30
0.0
 11
465.7281444334365119
 21
57.0241298772626806
 31
0.0
  0
ARC
  5
3B88
  8
0
 10
467.1283108125074932
 20
57.0925204822503076
 30
0.0
 40
1.4018356408406301
 50
182.7963685545763894
 51
187.7590842755643905
  0
ARC
  5
3B89
  8
0
 10
467.5076871572334198
 20
57.1607012105169972
 30
0.0
 40
1.7870182371828141
 50
188.2829128635931113
 51
191.9399218477227009
  0
ARC
  5
3B8A
  8
0
 10
465.772437987269484
 20
56.7938893481244023
 30
0.0
 40
0.0134234076861021
 50
192.463750435751507
 51
237.6753160996927932
  0
ARC
  5
3B8B
  8
0
 10
465.7980753609584781
 20
56.8863643511539507
 30
0.0
 40
0.1088808985508183
 50
252.4591799737831082
 51
257.8674256560245794
  0
ARC
  5
3B8C
  8
0
 10
465.7690685743060044
 20
56.7578204211388879
 30
0.0
 40
0.0229276694902818
 50
62.9143988934312688
 51
74.5112728719021646
  0
ARC
  5
3B8D
  8
0
 10
465.7776449904179117
 20
56.7734070759903986
 30
0.0
 40
0.0051735637522091
 50
23.0656611175700696
 51
68.893223313630628
  0
LINE
  5
3B8E
  8
0
 10
465.7824049612220279
 20
56.7754340046627988
 30
0.0
 11
465.7824055733220234
 21
55.4702921617627567
 31
0.0
  0
LINE
  5
3B8F
  8
0
 10
465.7824055733220234
 20
55.4702921617627567
 30
0.0
 11
465.7281444334365119
 21
57.0241298772626806
 31
0.0
  0
LINE
  5
3B90
  8
0
 10
464.0159881343220718
 20
55.5158741320628124
 30
0.0
 11
463.9940703912919844
 21
55.8293127401880724
 31
0.0
  0
LINE
  5
3B91
  8
0
 10
464.0159881343220718
 20
55.5158741320628124
 30
0.0
 11
464.0013087104454144
 21
55.8291499834784304
 31
0.0
  0
LINE
  5
3B92
  8
0
 10
464.119236490622086
 20
55.5192924416627989
 30
0.0
 11
464.119236490622086
 21
55.8264983267788182
 31
0.0
  0
LINE
  5
3B93
  8
0
 10
464.119236490622086
 20
55.5192924416627989
 30
0.0
 11
464.1108258787900809
 21
55.8266874429919469
 31
0.0
  0
ARC
  5
3B94
  8
0
 10
465.6969157371423194
 20
52.4989185303784112
 30
0.0
 40
4.2752222518557756
 50
86.4167461033967328
 51
88.8542120175132197
  0
LINE
  5
3B95
  8
0
 10
465.9641973848263206
 20
56.7625252317768627
 30
0.0
 11
466.127832352593316
 21
56.7578869952551202
 31
0.0
  0
ARC
  5
3B96
  8
0
 10
465.7671433044492915
 20
56.1375438198550114
 30
0.0
 40
0.7175808280023172
 50
31.5446422504812212
 51
73.6330791358294476
  0
ARC
  5
3B97
  8
0
 10
467.0465613386868995
 20
56.9427190565889418
 30
0.0
 40
0.7941976999324742
 50
212.7605514215507867
 51
236.021997858051293
  0
ARC
  5
3B98
  8
0
 10
466.9216858640957071
 20
56.7598290337849107
 30
0.0
 40
0.5727475877127787
 50
236.1561152474758956
 51
265.5701541284281006
  0
LINE
  5
3B99
  8
0
 10
465.9693486548219994
 20
56.8260459919627792
 30
0.0
 11
466.0612375472218787
 21
56.8392803180628121
 31
0.0
  0
ARC
  5
3B9A
  8
0
 10
465.8374245745678763
 20
56.1428495735936224
 30
0.0
 40
0.7315107849992103
 50
31.0912233929390496
 51
72.1840764000300368
  0
ARC
  5
3B9B
  8
0
 10
466.6181060253438204
 20
58.8900501639213303
 30
0.0
 40
2.125031638025273
 50
254.8081532656414083
 51
265.7679458771801819
  0
ARC
  5
3B9C
  8
0
 10
467.0419924194545729
 20
56.8552029648241728
 30
0.0
 40
0.6679852988199252
 50
210.0601368160174047
 51
266.064962437958286
  0
LINE
  5
3B9D
  8
0
 10
465.3549014242285011
 20
56.1887924416627911
 30
0.0
 11
465.435342559398407
 21
56.1887924416627911
 31
0.0
  0
LINE
  5
3B9E
  8
0
 10
465.9792213816635922
 20
56.1887924416627911
 30
0.0
 11
471.4389995228594898
 21
56.1887924416627911
 31
0.0
  0
LINE
  5
3B9F
  8
0
 10
471.9828786276565893
 20
56.1887924416627911
 30
0.0
 11
472.0350228767705971
 21
56.1887924416627911
 31
0.0
  0
ARC
  5
3BA0
  8
0
 10
466.2154500093076877
 20
48.6636577503989187
 30
0.0
 40
8.1108814520101991
 50
84.5159131555449932
 51
88.2631266002577632
  0
ARC
  5
3BA1
  8
0
 10
466.8070107784673155
 20
55.8349297519818322
 30
0.0
 40
0.9209685669812127
 50
69.8561384239828271
 51
78.5013449195407702
  0
ARC
  5
3BA2
  8
0
 10
467.1719988059660977
 20
56.8374371772361471
 30
0.0
 40
0.1459332128652693
 50
250.8691275958832136
 51
267.5584979723043944
  0
ARC
  5
3BA3
  8
0
 10
461.0316212595841989
 20
-1029.7906117301240556
 30
0.0
 40
1086.4995644328851085
 50
89.6694708493173067
 51
89.6765176827668284
  0
LINE
  5
3BA4
  8
0
 10
467.2378601979220889
 20
57.1787317507628075
 30
0.0
 11
467.1230359051220944
 21
57.1515297122627999
 31
0.0
  0
ARC
  5
3BA5
  8
0
 10
466.0190400141464124
 20
56.4696740305197125
 30
0.0
 40
1.2975877997332199
 50
11.4226625570843403
 51
31.7005230427447913
  0
ARC
  5
3BA6
  8
0
 10
468.7617613632106099
 20
57.0564506238594618
 30
0.0
 40
1.5073555535983461
 50
192.6380291780027108
 51
205.6201191684426988
  0
ARC
  5
3BA7
  8
0
 10
467.9029661884611073
 20
56.645376056827331
 30
0.0
 40
0.5552472770370411
 50
205.6910176840991937
 51
225.6055252371357085
  0
ARC
  5
3BA8
  8
0
 10
467.6699152447528149
 20
56.4073463547765925
 30
0.0
 40
0.2221243546469205
 50
225.6055252371357085
 51
259.7131130890199984
  0
ARC
  5
3BA9
  8
0
 10
466.0704779140298797
 20
56.4836371150676371
 30
0.0
 40
1.3586529907659879
 50
11.0100363959643506
 51
30.7708449639472903
  0
ARC
  5
3BAA
  8
0
 10
468.6968965321976839
 20
56.99463864211328
 30
0.0
 40
1.317014649001935
 50
191.0100363959643062
 51
206.247453044659494
  0
ARC
  5
3BAB
  8
0
 10
468.106136894281974
 20
56.7033408754202526
 30
0.0
 40
0.6583407246124982
 50
206.247453044659494
 51
222.0768364591893942
  0
ARC
  5
3BAC
  8
0
 10
467.7936108936394817
 20
56.4211813836248481
 30
0.0
 40
0.2372867139584997
 50
222.0768364591887973
 51
258.3386170581874808
  0
ARC
  5
3BAD
  8
0
 10
468.1563779574581758
 20
57.771117753054483
 30
0.0
 40
1.092975777542406
 50
212.8194630832099961
 51
226.4619442633585038
  0
ARC
  5
3BAE
  8
0
 10
468.0089537859950042
 20
57.5633170113976007
 30
0.0
 40
0.8415683413229348
 50
223.9918133016385866
 51
252.7094602091378874
  0
ARC
  5
3BAF
  8
0
 10
467.6653706331396734
 20
56.405156724694109
 30
0.0
 40
0.3667299813934136
 50
52.880414639390132
 51
75.236367974654982
  0
ARC
  5
3BB0
  8
0
 10
467.923194962473417
 20
56.7717520590301987
 30
0.0
 40
0.0826717085491723
 50
243.7923832679068141
 51
271.11159228322731
  0
LINE
  5
3BB1
  8
0
 10
467.9247987711514725
 20
56.6890959086712485
 30
0.0
 11
468.5830654300247033
 21
56.68843909110808
 31
0.0
  0
ARC
  5
3BB2
  8
0
 10
468.5831483225003922
 20
56.7715144473079079
 30
0.0
 40
0.0830753975548165
 50
269.9428303693006796
 51
289.9468579702090096
  0
LINE
  5
3BB3
  8
0
 10
467.1241725499219797
 20
56.6995634964627868
 30
0.0
 11
467.1414680147231024
 21
56.1887924416627911
 31
0.0
  0
LINE
  5
3BB4
  8
0
 10
467.8866850586219925
 20
56.697579029462787
 30
0.0
 11
467.8945525379916148
 21
56.1887924416627911
 31
0.0
  0
LINE
  5
3BB5
  8
0
 10
468.646573933621994
 20
56.1887924416627911
 30
0.0
 11
468.6058235333219955
 21
56.7749156111627826
 31
0.0
  0
ARC
  5
3BB6
  8
0
 10
471.7432993220323851
 20
56.8882916878849798
 30
0.0
 40
3.1395236039114338
 50
179.5878453990378034
 51
182.0695443820710864
  0
ARC
  5
3BB7
  8
0
 10
470.329595777587997
 20
56.9170952276052731
 30
0.0
 40
1.7257500394076171
 50
175.6919663873592867
 51
180.2064980940027112
  0
ARC
  5
3BB8
  8
0
 10
466.561119411739412
 20
57.1573036293160612
 30
0.0
 40
2.050585583482162
 50
356.9089728092778842
 51
1.1949689766746019
  0
LINE
  5
3BB9
  8
0
 10
468.6092479856220052
 20
57.2576559089627892
 30
0.0
 11
468.7344078718219862
 21
57.2547808506627973
 31
0.0
  0
LINE
  5
3BBA
  8
0
 10
467.1544200514247223
 20
56.1462924416628013
 30
0.0
 11
470.3103203268086077
 21
56.1462924416628013
 31
0.0
  0
ARC
  5
3BBB
  8
0
 10
467.1562529791734164
 20
56.2623860377935614
 30
0.0
 40
0.1161080646927772
 50
221.8563963718669925
 51
269.0954686318598874
  0
ARC
  5
3BBC
  8
0
 10
466.8466994606158096
 20
55.1640369020725529
 30
0.0
 40
1.025216744864732
 50
74.609750864896256
 51
88.2813272157127358
  0
ARC
  5
3BBD
  8
0
 10
467.2183628592300124
 20
56.5143167502595034
 30
0.0
 40
0.3750098059276008
 50
240.6133714694327068
 51
254.0359759430617999
  0
ARC
  5
3BBE
  8
0
 10
466.9871945056851814
 20
55.318721936938573
 30
0.0
 40
0.8701166094453912
 50
73.0442161514030346
 51
89.4101745355916648
  0
LINE
  5
3BBF
  8
0
 10
467.2409497629220141
 20
56.1510146639627905
 30
0.0
 11
467.2444916437219717
 21
56.1510146639627905
 31
0.0
  0
ARC
  5
3BC0
  8
0
 10
467.2740307098707717
 20
56.189258640144061
 30
0.0
 40
0.0483234740379494
 50
207.1369030294659979
 51
232.3180474427834952
  0
ARC
  5
3BC1
  8
0
 10
467.3370226040935904
 20
56.2221849194981971
 30
0.0
 40
0.1194008060488165
 50
196.2403375422663032
 51
207.4104153981282934
  0
ARC
  5
3BC2
  8
0
 10
467.3476330901723941
 20
56.4292947029476792
 30
0.0
 40
0.2967792750063871
 50
234.1325058258765921
 51
249.6633276203627929
  0
ARC
  5
3BC3
  8
0
 10
467.3768559224234878
 20
55.6337802669042603
 30
0.0
 40
0.5553784346978694
 50
68.6413394375402532
 51
86.7201452637291652
  0
LINE
  5
3BC4
  8
0
 10
467.5791274830220914
 20
56.1510146639627905
 30
0.0
 11
467.5856913081220227
 21
56.1510146639627905
 31
0.0
  0
ARC
  5
3BC5
  8
0
 10
467.5018591110609236
 20
56.211159969495192
 30
0.0
 40
0.1031760390869807
 50
324.3424986785180977
 51
347.4794393438371003
  0
ARC
  5
3BC6
  8
0
 10
467.9777899695043857
 20
56.0030831373527676
 30
0.0
 40
0.1864665835309239
 50
52.4990922774039603
 51
84.8352231119446571
  0
LINE
  5
3BC7
  8
0
 10
468.0913059117219746
 20
56.1510146639627905
 30
0.0
 11
468.0999178499220079
 21
56.1510146639627905
 31
0.0
  0
ARC
  5
3BC8
  8
0
 10
468.0635447759581211
 20
56.2596084903503595
 30
0.0
 40
0.1145234458051157
 50
288.5180705829004069
 51
321.8039544026955809
  0
ARC
  5
3BC9
  8
0
 10
467.9892780903422249
 20
56.0082607090783213
 30
0.0
 40
0.1806096565387594
 50
52.2229504873485908
 51
88.3191525012094729
  0
ARC
  5
3BCA
  8
0
 10
468.7398216944611136
 20
56.3400915899505605
 30
0.0
 40
0.1925246998423131
 50
231.8011000343728938
 51
259.1403945418015837
  0
LINE
  5
3BCB
  8
0
 10
468.7035494446220127
 20
56.1510146639627905
 30
0.0
 11
468.8318491111219828
 21
56.1510146639627905
 31
0.0
  0
ARC
  5
3BCC
  8
0
 10
468.8815888128693814
 20
56.3437319926782365
 30
0.0
 40
0.199032677510869
 50
236.6061934727254084
 51
255.5279783964026024
  0
LINE
  5
3BCD
  8
0
 10
468.7720431194221078
 20
56.1775581446627825
 30
0.0
 11
468.7716502029219896
 21
56.7529808399627811
 31
0.0
  0
LINE
  5
3BCE
  8
0
 10
468.7720431194221078
 20
56.1775581446627825
 30
0.0
 11
468.7344078718219862
 21
57.2547808506627973
 31
0.0
  0
ARC
  5
3BCF
  8
0
 10
466.140938846746792
 20
56.7028023355432609
 30
0.0
 40
2.6311898680662371
 50
1.0927340736380919
 51
7.5090733558618199
  0
ARC
  5
3BD0
  8
0
 10
470.5229603356571033
 20
57.2804123879716016
 30
0.0
 40
1.788736115696101
 50
183.180885505726593
 51
187.5090733558598117
  0
LINE
  5
3BD1
  8
0
 10
468.646573933621994
 20
56.1887924416627911
 30
0.0
 11
468.6092479856220052
 21
57.2576559089627892
 31
0.0
  0
ARC
  5
3BD2
  8
0
 10
468.8009386847026008
 20
56.7684871680017906
 30
0.0
 40
0.081302355711046
 50
258.471274381882381
 51
269.5036857879646277
  0
ARC
  5
3BD3
  8
0
 10
467.5359023425634746
 20
-100.8089422987415986
 30
0.0
 40
157.5012049204881066
 50
89.300442676544435
 51
89.5400564052968235
  0
ARC
  5
3BD4
  8
0
 10
469.4598221421676953
 20
56.7620964743452205
 30
0.0
 40
0.0815788238106482
 50
269.3368132938711028
 51
296.6355141352324267
  0
LINE
  5
3BD5
  8
0
 10
469.4963950084220983
 20
56.6891750786627995
 30
0.0
 11
469.5236435369862988
 21
56.1887924416627911
 31
0.0
  0
ARC
  5
3BD6
  8
0
 10
469.7362152055450792
 20
56.4061975943656719
 30
0.0
 40
0.3709312383276903
 50
110.0832582650838987
 51
130.2808965004167021
  0
ARC
  5
3BD7
  8
0
 10
469.2667084250107905
 20
57.690347715567377
 30
0.0
 40
0.9963573744933878
 50
290.0832582650838276
 51
313.8380087299865977
  0
ARC
  5
3BD8
  8
0
 10
469.2505521293313109
 20
57.6715237782167875
 30
0.0
 40
0.9942764893223127
 50
315.2610129544253255
 51
330.0451215769620035
  0
ARC
  5
3BD9
  8
0
 10
471.2740872987778857
 20
56.5627119611772784
 30
0.0
 40
1.3135423918236391
 50
152.2131546857613955
 51
172.2812464199087117
  0
LINE
  5
3BDA
  8
0
 10
470.1120120667683864
 20
57.1750637965365911
 30
0.0
 11
470.2285495097219723
 21
57.1483854763627903
 31
0.0
  0
ARC
  5
3BDB
  8
0
 10
471.3261195078397918
 20
56.5465091274654128
 30
0.0
 40
1.251764770286576
 50
151.2608819956323032
 51
171.8803709875988091
  0
ARC
  5
3BDC
  8
0
 10
468.8978626136719186
 20
56.8929500511966566
 30
0.0
 40
1.2010810988439029
 50
335.9900461221574801
 51
351.8803709875987806
  0
ARC
  5
3BDD
  8
0
 10
469.4220219513142069
 20
56.6608773774917225
 30
0.0
 40
0.6278467872097534
 50
322.8069500343183904
 51
335.8727381067628812
  0
ARC
  5
3BDE
  8
0
 10
469.7255464551320188
 20
56.4249349053421767
 30
0.0
 40
0.2434714280339989
 50
284.0938752108476137
 51
323.8592153489993279
  0
ARC
  5
3BDF
  8
0
 10
468.5837581252981181
 20
56.949414848395719
 30
0.0
 40
1.4045188839658109
 50
337.4837746429956269
 51
351.3894755187096735
  0
ARC
  5
3BE0
  8
0
 10
469.3857027279539125
 20
56.616972422980183
 30
0.0
 40
0.5363984361332729
 50
316.6541439547946766
 51
337.4837746429956269
  0
ARC
  5
3BE1
  8
0
 10
469.6322079894659964
 20
56.3843048497312225
 30
0.0
 40
0.1974308217588061
 50
277.9938055594652155
 51
316.6541439547946766
  0
ARC
  5
3BE2
  8
0
 10
470.7546151676464206
 20
58.8233275432490572
 30
0.0
 40
2.0602320819125479
 50
274.2543811643723757
 51
285.6974033906785735
  0
ARC
  5
3BE3
  8
0
 10
470.0357775580400812
 20
73.1333736048816547
 30
0.0
 40
16.3878000546826712
 50
271.8873795178583919
 51
273.0490304805209121
  0
ARC
  5
3BE4
  8
0
 10
470.6089502771682191
 20
55.8660529762419671
 30
0.0
 40
0.8890401648486729
 50
92.1556113534556545
 51
113.1883851599777984
  0
ARC
  5
3BE5
  8
0
 10
470.2135738020340909
 20
56.7964096738363722
 30
0.0
 40
0.121873963999132
 50
272.0021110984052939
 51
291.8262719227947741
  0
ARC
  5
3BE6
  8
0
 10
452.0186731518712122
 20
-3298.5206096885540319
 30
0.0
 40
3355.2445771242091723
 50
89.6892208420018875
 51
89.691590441315725
  0
LINE
  5
3BE7
  8
0
 10
471.3120250022220148
 20
56.8399338587628122
 30
0.0
 11
471.4048008917960146
 21
56.8263161005479489
 31
0.0
  0
ARC
  5
3BE8
  8
0
 10
471.6032799601051124
 20
56.1673257324798598
 30
0.0
 40
0.6882312443963896
 50
106.7615973913531064
 51
149.915950735983813
  0
ARC
  5
3BE9
  8
0
 10
471.5326481517225261
 20
56.1735483590241031
 30
0.0
 40
0.7019574426116876
 50
108.3183118664459954
 51
150.3987125328052912
  0
ARC
  5
3BEA
  8
0
 10
470.3178714656178272
 20
56.8636736692324405
 30
0.0
 40
0.6951665106914224
 50
303.7794378112963045
 51
330.3987125328052912
  0
ARC
  5
3BEB
  8
0
 10
470.3524323951608039
 20
56.9154135503796113
 30
0.0
 40
0.7693776737685831
 50
304.7473081457392823
 51
328.4039189932278191
  0
ARC
  5
3BEC
  8
0
 10
470.489027586181578
 20
56.7184926424665719
 30
0.0
 40
0.5297193958324554
 50
270.4877647225164878
 51
304.7473081457392823
  0
ARC
  5
3BED
  8
0
 10
470.3855961470612215
 20
56.7483703817847029
 30
0.0
 40
0.5617279007768176
 50
275.0145100295387124
 51
304.5767551112377873
  0
ARC
  5
3BEE
  8
0
 10
470.4775850492274003
 20
55.2995289438184727
 30
0.0
 40
0.8896246138722714
 50
91.6325718705812164
 51
106.8376767065899031
  0
LINE
  5
3BEF
  8
0
 10
470.2198952706219757
 20
56.1510146639627905
 30
0.0
 11
470.1684905852220027
 21
56.1510146639627905
 31
0.0
  0
ARC
  5
3BF0
  8
0
 10
470.1359774291289
 20
56.2584629782567092
 30
0.0
 40
0.1122597236934943
 50
286.8354712580522232
 51
321.6386363091825729
  0
ARC
  5
3BF1
  8
0
 10
470.6166187924222868
 20
55.188792441660901
 30
0.0
 40
1.0000000000019369
 50
90.0
 51
105.7991101340857938
  0
ARC
  5
3BF2
  8
0
 10
470.3103203268086077
 20
56.2712924418772502
 30
0.0
 40
0.1250000002228483
 50
270.0
 51
285.7991101340858222
  0
ARC
  5
3BF3
  8
0
 10
470.0929683538116137
 20
55.7124811993522826
 30
0.0
 40
0.4760426655892024
 50
95.2942016963878302
 51
102.3785427025244985
  0
ARC
  5
3BF4
  8
0
 10
470.0100264617021821
 20
56.0718187468822933
 30
0.0
 40
0.1073525109447706
 50
100.2506630617514958
 51
116.2589390560837046
  0
ARC
  5
3BF5
  8
0
 10
469.9817789120656926
 20
56.1290765894635513
 30
0.0
 40
0.0435059401869785
 50
116.2589390560837046
 51
149.7181103060810869
  0
LINE
  5
3BF6
  8
0
 10
469.9442091407220232
 20
56.1510146639627905
 30
0.0
 11
469.856705894221875
 21
56.1510146639627905
 31
0.0
  0
ARC
  5
3BF7
  8
0
 10
469.7780122778992791
 20
56.2587577236466174
 30
0.0
 40
0.133421333226671
 50
306.1437283401878062
 51
328.372576011002991
  0
ARC
  5
3BF8
  8
0
 10
470.096968014668505
 20
55.6882332304743883
 30
0.0
 40
0.5005592840907968
 50
90.0309229364213053
 51
95.4939687350167645
  0
ARC
  5
3BF9
  8
0
 10
468.9569090989838855
 20
57.3263861634024181
 30
0.0
 40
1.20440819794507
 50
282.6066820903262737
 51
287.3644288581256205
  0
ARC
  5
3BFA
  8
0
 10
469.3776768779429744
 20
56.0289176670803215
 30
0.0
 40
0.1601521243755833
 50
93.3724684612204641
 51
112.5103096499056932
  0
LINE
  5
3BFB
  8
0
 10
469.219779686122024
 20
56.1510146639627905
 30
0.0
 11
469.3328097341220086
 21
56.1510146639627905
 31
0.0
  0
ARC
  5
3BFC
  8
0
 10
469.2220945428035179
 20
56.4585045288409617
 30
0.0
 40
0.3268147343549725
 50
289.8019840517155785
 51
299.2156161532564056
  0
ARC
  5
3BFD
  8
0
 10
469.4458978545559944
 20
56.058311816558053
 30
0.0
 40
0.1317069437757055
 50
97.8247868520458894
 51
119.2156161532564056
  0
LINE
  5
3BFE
  8
0
 10
470.2588857541221046
 20
56.683272190662791
 30
0.0
 11
470.2767141592403846
 21
56.1887924416627911
 31
0.0
  0
LINE
  5
3BFF
  8
0
 10
470.7895129071595761
 20
56.2822459115930869
 30
0.0
 11
470.7911409473502999
 21
56.1887924416627911
 31
0.0
  0
LINE
  5
3C00
  8
0
 10
471.2460881094802971
 20
56.7556081711185172
 30
0.0
 11
471.4140439076077769
 21
56.7603701252765802
 31
0.0
  0
LINE
  5
3C01
  8
0
 10
471.4138981157220201
 20
56.7637093091628131
 30
0.0
 11
471.5044139491445776
 21
56.7684693963054698
 31
0.0
  0
LINE
  5
3C02
  8
0
 10
471.5044139491445776
 20
56.7684693963054698
 30
0.0
 11
471.5950891209220117
 21
56.7712492497628034
 31
0.0
  0
LINE
  5
3C03
  8
0
 10
471.5948762055219845
 20
56.7734416129627917
 30
0.0
 11
471.6860014653220219
 21
55.4702896855627898
 31
0.0
  0
LINE
  5
3C04
  8
0
 10
471.6860014653220219
 20
55.4702896855627898
 30
0.0
 11
471.6338770385847283
 21
56.9629353440271586
 31
0.0
  0
LINE
  5
3C05
  8
0
 10
471.7339379918030886
 20
56.9629353440271586
 30
0.0
 11
471.7860622270221143
 21
55.4702896990627821
 31
0.0
  0
LINE
  5
3C06
  8
0
 10
471.7860622270221143
 20
55.4702896990627821
 30
0.0
 11
471.7860622270221143
 21
56.7776422872628075
 31
0.0
  0
ARC
  5
3C07
  8
0
 10
471.5970408533244722
 20
56.7734304745173119
 30
0.0
 40
0.0021646764592672
 50
128.7950860756191105
 51
179.7051805458544891
  0
ARC
  5
3C08
  8
0
 10
471.6091771955065042
 20
56.7561935274713321
 30
0.0
 40
0.0232415740467827
 50
114.6796605734719066
 51
125.4883161979904997
  0
ARC
  5
3C09
  8
0
 10
471.6042013492050273
 20
56.7683156038212928
 30
0.0
 40
0.0101634983784419
 50
103.8084360834404976
 51
117.7262648331727064
  0
ARC
  5
3C0A
  8
0
 10
471.5773916956254084
 20
56.8817323204940166
 30
0.0
 40
0.1063792470267752
 50
283.2509411820971081
 51
289.0239759401301853
  0
ARC
  5
3C0B
  8
0
 10
471.6092861039169861
 20
56.7877108141290066
 30
0.0
 40
0.007113817652908
 50
293.0156095663963924
 51
335.4813818976260791
  0
ARC
  5
3C0C
  8
0
 10
471.5970431981505726
 20
56.7931146271966369
 30
0.0
 40
0.0204959171228021
 50
335.9402299985392801
 51
350.7199175831731282
  0
ARC
  5
3C0D
  8
0
 10
468.7623468013661068
 20
57.1510121572094079
 30
0.0
 40
2.8776828857464229
 50
352.7892949470552253
 51
356.2526468252307268
  0
LINE
  5
3C0E
  8
0
 10
471.6338770385847283
 20
56.9629353440271586
 30
0.0
 11
471.7339379918030886
 21
56.9629353440271586
 31
0.0
  0
ARC
  5
3C0F
  8
0
 10
475.1619326040855071
 20
57.4509878456060221
 30
0.0
 40
3.4625629678223708
 50
188.1028934268541946
 51
190.8969409666622994
  0
ARC
  5
3C10
  8
0
 10
471.7774963463133986
 20
56.799435543626231
 30
0.0
 40
0.0159807208510225
 50
190.8969409666559045
 51
231.6665851099571114
  0
ARC
  5
3C11
  8
0
 10
471.8127993030769858
 20
56.9181331365874428
 30
0.0
 40
0.1388038365602311
 50
250.9892269389821138
 51
255.8421598410317017
  0
ARC
  5
3C12
  8
0
 10
471.7759483614410101
 20
56.7742761766446904
 30
0.0
 40
0.0097123786619997
 50
50.7903240106599725
 51
72.6249607441513945
  0
ARC
  5
3C13
  8
0
 10
471.8174795221723912
 20
56.820283512995843
 30
0.0
 40
0.0522819307843542
 50
227.3955345747725119
 51
231.4611109248839114
  0
ARC
  5
3C14
  8
0
 10
471.7835109239389908
 20
56.7772095285608103
 30
0.0
 40
0.002587745643496
 50
9.6270288093781016
 51
57.390400538604581
  0
ARC
  5
3C15
  8
0
 10
472.467599761219617
 20
59.7395781016963383
 30
0.0
 40
2.9475429208332349
 50
273.7831553056217899
 51
283.9595794225314762
  0
ARC
  5
3C16
  8
0
 10
471.59748181795959
 20
81.279978482613302
 30
0.0
 40
24.5046568622045307
 50
270.4409352986440922
 51
272.489983938294813
  0
LINE
  5
3C17
  8
0
 10
473.1786571125811065
 20
56.8790874596509965
 30
0.0
 11
473.2314149023496839
 21
56.8669183569442396
 31
0.0
  0
ARC
  5
3C18
  8
0
 10
473.4460534463906924
 20
55.9713793496382479
 30
0.0
 40
0.9209016332891636
 50
103.4781390806188028
 51
142.1636230540676991
  0
ARC
  5
3C19
  8
0
 10
473.4115795538563134
 20
55.9821703868431371
 30
0.0
 40
0.9266677393455744
 50
104.5577003946661989
 51
142.7099940810215912
  0
ARC
  5
3C1A
  8
0
 10
471.9510808402765178
 20
57.0943697096725202
 30
0.0
 40
0.9091001724750402
 50
298.5451525342347736
 51
322.7099940810214207
  0
ARC
  5
3C1B
  8
0
 10
471.9888518073224191
 20
57.1089269192197335
 30
0.0
 40
0.9277389319180532
 50
296.9529341147364221
 51
321.8834855880148211
  0
ARC
  5
3C1C
  8
0
 10
471.9685575955933245
 20
57.0541143569009179
 30
0.0
 40
0.8653956547085583
 50
270.9481270248655278
 51
298.8022886955882882
  0
ARC
  5
3C1D
  8
0
 10
473.4678819010219968
 20
55.8069199661627167
 30
0.0
 40
1.0000056446000549
 50
91.4999351842991615
 51
136.2956640828965931
  0
ARC
  5
3C1E
  8
0
 10
398.3645127678465201
 20
2915.321880115644035
 30
0.0
 40
2859.5010559514180386
 50
271.4963618421070919
 51
271.5044934725626149
  0
ARC
  5
3C1F
  8
0
 10
472.0220547625867766
 20
57.1887689837633602
 30
0.0
 40
0.9999750607944367
 50
286.9046498576286126
 51
316.2966066029867989
  0
ARC
  5
3C20
  8
0
 10
472.0184097715256826
 20
57.0541393389212601
 30
0.0
 40
0.8655063534490809
 50
271.0998408860615996
 51
296.8526807018027966
  0
ARC
  5
3C21
  8
0
 10
472.0220462159221029
 20
57.188792431861863
 30
0.0
 40
0.9999999808990763
 50
271.4193974262904021
 51
286.9047277299774805
  0
ARC
  5
3C22
  8
0
 10
465.5665387520601257
 20
372.1054008999141729
 30
0.0
 40
315.3971509863795859
 50
271.4307698705414964
 51
271.6334603623072894
  0
ARC
  5
3C23
  8
0
 10
474.5585192898176956
 20
56.785264067531557
 30
0.0
 40
0.0511718907343873
 50
11.67712240653157
 51
91.6334603623073036
  0
LINE
  5
3C24
  8
0
 10
474.608632111922077
 20
56.7956210681628022
 30
0.0
 11
474.6709650026219833
 21
55.9042239116627968
 31
0.0
  0
LINE
  5
3C25
  8
0
 10
474.6709650026219833
 20
55.9042239116627968
 30
0.0
 11
474.6343518804005726
 21
56.8753244899980928
 31
0.0
  0
LINE
  5
3C26
  8
0
 10
474.5570606146173986
 20
56.8364151639811084
 30
0.0
 11
474.5607390299219901
 21
56.9286817792628028
 31
0.0
  0
ARC
  5
3C27
  8
0
 10
486.3235907493046852
 20
48.4849139065302097
 30
0.0
 40
14.4797063665246792
 50
143.4398790795881098
 51
144.3279518351297952
  0
ARC
  5
3C28
  8
0
 10
475.6573355944071864
 20
56.7442110208310098
 30
0.0
 40
1.031351744517796
 50
159.2278814719940954
 51
172.6963503097526882
  0
LINE
  5
3C29
  8
0
 10
474.6930233953220863
 20
57.1099819923627976
 30
0.0
 11
474.6988390234220105
 21
57.1100940191628013
 31
0.0
  0
ARC
  5
3C2A
  8
0
 10
474.573800516217716
 20
56.9277472373648834
 30
0.0
 40
0.2210994733505926
 50
21.7524809176654301
 51
55.5608581009057119
  0
ARC
  5
3C2B
  8
0
 10
475.3832115163472736
 20
57.0921477331384608
 30
0.0
 40
0.60965781063117
 50
187.7735820367325914
 51
203.9337576721925132
  0
ARC
  5
3C2C
  8
0
 10
474.8252487145527994
 20
56.7933797125453665
 30
0.0
 40
0.0514470587710506
 50
89.1910367906976091
 51
172.6423690749022057
  0
LINE
  5
3C2D
  8
0
 10
474.7742252640219931
 20
56.7999681381627965
 30
0.0
 11
474.7741655200221089
 21
55.9077862489627933
 31
0.0
  0
LINE
  5
3C2E
  8
0
 10
474.7741655200221089
 20
55.9077862489627933
 30
0.0
 11
474.7371185691220035
 21
56.9539783965628033
 31
0.0
  0
ARC
  5
3C2F
  8
0
 10
474.3426803522982027
 20
56.9400130413277665
 30
0.0
 40
0.3946853658776893
 50
2.0277492976459301
 51
25.5264681773203215
  0
ARC
  5
3C30
  8
0
 10
473.5199036946939941
 20
97.7082289015305889
 30
0.0
 40
40.8842741795605278
 50
271.8306577082150852
 51
272.896311753645989
  0
ARC
  5
3C31
  8
0
 10
475.5009332068464118
 20
59.7804377966592071
 30
0.0
 40
2.9054956741653819
 50
271.6724304267925163
 51
287.465714763740209
  0
ARC
  5
3C32
  8
0
 10
475.2402464082192068
 20
60.5370394761711168
 30
0.0
 40
3.7055196510381521
 50
287.7994792027835729
 51
294.9573614865781224
  0
ARC
  5
3C33
  8
0
 10
477.2755673220823951
 20
56.2591083511521788
 30
0.0
 40
1.0325214828711939
 50
117.1898222477632032
 51
147.2459568554392035
  0
ARC
  5
3C34
  8
0
 10
474.6456225407699776
 20
57.9521402449543288
 30
0.0
 40
2.0952520052449488
 50
270.7063550264555829
 51
327.2199192582862111
  0
ARC
  5
3C35
  8
0
 10
476.1245563345585765
 20
55.514971573343189
 30
0.0
 40
0.7517207666717401
 50
146.9004434372781986
 51
168.1689765794025107
  0
ARC
  5
3C36
  8
0
 10
475.8855138547608021
 20
55.6176940721917674
 30
0.0
 40
0.5006779188709566
 50
143.3867864205672049
 51
171.5264308089631982
  0
LINE
  5
3C37
  8
0
 10
475.400471325021897
 20
55.7626752019627929
 30
0.0
 11
475.3894484692219748
 21
55.6854990256627502
 31
0.0
  0
ARC
  5
3C38
  8
0
 10
475.6469456274706999
 20
55.7285802958856777
 30
0.0
 40
0.2488213101564356
 50
127.6762321173109029
 51
172.1242292253749895
  0
ARC
  5
3C39
  8
0
 10
475.1102853110065212
 20
57.9280083841323901
 30
0.0
 40
2.0148706094404831
 50
287.3877320587458826
 51
328.1148551072475925
  0
ARC
  5
3C3A
  8
0
 10
477.6793533515215131
 20
56.3286865705216826
 30
0.0
 40
1.0113386914715481
 50
117.4490733038215069
 51
148.0599291225537968
  0
ARC
  5
3C3B
  8
0
 10
475.9211435396235856
 20
59.7901801182580428
 30
0.0
 40
2.8711449480935349
 50
282.5204307730098776
 51
296.7438600436051956
  0
ARC
  5
3C3C
  8
0
 10
475.3987538067016771
 20
57.9880060601933565
 30
0.0
 40
2.0108575496416208
 50
290.314215262311393
 51
328.0525059081559789
  0
ARC
  5
3C3D
  8
0
 10
477.9585443510878235
 20
56.3917312734003531
 30
0.0
 40
1.0058659753237631
 50
117.3331356439324935
 51
148.0525059081560073
  0
ARC
  5
3C3E
  8
0
 10
476.2081474090956021
 20
59.8310131030460823
 30
0.0
 40
2.8532473721855438
 50
286.5373647761597908
 51
296.8466907915155275
  0
ARC
  5
3C3F
  8
0
 10
478.6599144200724254
 20
56.6630888835456119
 30
0.0
 40
1.00952375121045
 50
126.1865043647872966
 51
147.7318077659045059
  0
ARC
  5
3C40
  8
0
 10
476.1014601961171024
 20
58.2784892506002805
 30
0.0
 40
2.0162334039416421
 50
300.6636016701233984
 51
327.7318077659044775
  0
ARC
  5
3C41
  8
0
 10
476.002732304676897
 20
58.1882949192191177
 30
0.0
 40
1.9932600338448161
 50
305.1144831465192055
 51
327.9123501959772966
  0
ARC
  5
3C42
  8
0
 10
478.5358748559278865
 20
56.6000183745037191
 30
0.0
 40
0.9966285205082506
 50
118.2960921377380004
 51
147.9123501959761882
  0
ARC
  5
3C43
  8
0
 10
476.1573712900352007
 20
61.196996574196902
 30
0.0
 40
4.1793402129288344
 50
294.3213483227291931
 51
296.3264051209565082
  0
ARC
  5
3C44
  8
0
 10
476.2567876544799788
 20
58.3573390941432066
 30
0.0
 40
1.955367638433011
 50
314.9917278566384766
 51
327.9446211913602269
  0
ARC
  5
3C45
  8
0
 10
476.6778210422210122
 20
59.87736738766489
 30
0.0
 40
2.760633737802328
 50
290.1349228370117999
 51
296.9946128583001723
  0
ARC
  5
3C46
  8
0
 10
478.3914768802590061
 20
56.5242453024648626
 30
0.0
 40
1.005015113822074
 50
117.2766428767567959
 51
147.8843981873631037
  0
ARC
  5
3C47
  8
0
 10
475.8367545427018968
 20
58.1277891722119975
 30
0.0
 40
2.0112672277728461
 50
298.0719949057194071
 51
327.8843981873631037
  0
ARC
  5
3C48
  8
0
 10
476.4640420269220726
 20
59.8551402843626192
 30
0.0
 40
2.8097197251998329
 50
288.1901694342348037
 51
296.9097770036017891
  0
ARC
  5
3C49
  8
0
 10
478.1964851926480264
 20
56.4554591743249716
 30
0.0
 40
1.0059451537930191
 50
117.2631241208429032
 51
147.9445863112991049
  0
ARC
  5
3C4A
  8
0
 10
475.6409583349069976
 20
58.0548647350736076
 30
0.0
 40
2.0088211658521402
 50
292.8728406873646009
 51
327.9664287111737053
  0
ARC
  5
3C4B
  8
0
 10
474.7223575574956271
 20
55.9120222371827822
 30
0.0
 40
0.0519808481783759
 50
188.6282624919342936
 51
355.3257076778400005
  0
LINE
  5
3C4C
  8
0
 10
474.4691351597693938
 20
55.8518007813505619
 30
0.0
 11
474.4806117672147252
 21
55.5178133338226871
 31
0.0
  0
ARC
  5
3C4D
  8
0
 10
474.173807195548477
 20
55.5072707950012614
 30
0.0
 40
0.306985651651744
 50
353.0815101589336109
 51
1.968045647956969
  0
ARC
  5
3C4E
  8
0
 10
474.7335231471622023
 20
55.5192924039735303
 30
0.0
 40
0.0489999998052929
 50
183.9999558381717861
 51
270.0
  0
ARC
  5
3C4F
  8
0
 10
474.738890862558776
 20
55.519292404150633
 30
0.0
 40
0.0490000000012714
 50
270.0000000006415917
 51
0.0003272860195954
  0
LINE
  5
3C50
  8
0
 10
474.6846425062591948
 20
55.5158743744493393
 30
0.0
 11
474.6608049159274856
 21
55.8567681026224179
 31
0.0
  0
LINE
  5
3C51
  8
0
 10
474.6846425062591948
 20
55.5158743744493393
 30
0.0
 11
474.6686593143891741
 21
55.8569741399099371
 31
0.0
  0
LINE
  5
3C52
  8
0
 10
474.7878908625593226
 20
55.5192926840493612
 30
0.0
 11
474.7878908625593226
 21
55.8617238533954108
 31
0.0
  0
LINE
  5
3C53
  8
0
 10
474.7878908625593226
 20
55.5192926840493612
 30
0.0
 11
474.7785384690553201
 21
55.8611083653573175
 31
0.0
  0
LINE
  5
3C54
  8
0
 10
466.6227210691790219
 20
56.2713007842115687
 30
0.0
 11
466.6270481613349261
 21
56.1887924416628266
 31
0.0
  0
CIRCLE
  5
3C55
  8
0
 10
468.7491575402145827
 20
67.8520106909299159
 30
0.0
 40
1.2348105250536789
  0
ARC
  5
3C56
  8
0
 10
458.0460590905753975
 20
68.6563817482530965
 30
0.0
 40
0.8564641011325603
 50
49.2891305331018117
 51
86.6839658143064753
  0
ARC
  5
3C57
  8
0
 10
459.3124302765124867
 20
70.1281092394678751
 30
0.0
 40
1.085101707427325
 50
229.2891305330977048
 51
268.435864276025427
  0
LINE
  5
3C58
  8
0
 10
459.282811418822007
 20
69.0434118444627813
 30
0.0
 11
461.4528744803013751
 21
68.9986543721348369
 31
0.0
  0
LINE
  5
3C59
  8
0
 10
461.3673924823808079
 20
69.0004174352569919
 30
0.0
 11
462.0676133679132818
 21
68.3826866284968133
 31
0.0
  0
LINE
  5
3C5A
  8
0
 10
462.0676133679132818
 20
68.3826866284968133
 30
0.0
 11
462.4002714404219887
 21
67.7729693213627939
 31
0.0
  0
LINE
  5
3C5B
  8
0
 10
462.4002714404219887
 20
67.7729693213627939
 30
0.0
 11
462.4888244988219981
 21
67.7714316590627561
 31
0.0
  0
LINE
  5
3C5C
  8
0
 10
462.4888244988219981
 20
67.7714316590627561
 30
0.0
 11
462.2193812103220125
 21
69.6325876866627738
 31
0.0
  0
ARC
  5
3C5D
  8
0
 10
461.9183272063658023
 20
69.5840533421057614
 30
0.0
 40
0.3049411351386909
 50
9.1581265276874522
 51
88.9098387060764992
  0
LINE
  5
3C5E
  8
0
 10
461.4528744803013751
 20
68.9986543721348369
 30
0.0
 11
462.1547639186081256
 21
68.3815677228875245
 31
0.0
  0
LINE
  5
3C5F
  8
0
 10
462.1547639186081256
 20
68.3815677228875245
 30
0.0
 11
462.0676133679132818
 21
68.3826866284968133
 31
0.0
  0
LINE
  5
3C60
  8
0
 10
462.1547645211219901
 20
68.3815667462627914
 30
0.0
 11
462.4888244988219981
 21
67.7714316590627561
 31
0.0
  0
LINE
  5
3C61
  8
0
 10
462.1547645211219901
 20
68.3815667462627914
 30
0.0
 11
462.1152347283892823
 21
69.8168977615582946
 31
0.0
  0
ARC
  5
3C62
  8
0
 10
458.5768169340245777
 20
69.9748907927033486
 30
0.0
 40
0.4613955265040929
 50
33.7586348182997611
 51
76.0493039047864414
  0
LINE
  5
3C63
  8
0
 10
458.9604146575886716
 20
70.2312862262710667
 30
0.0
 11
459.039759372308481
 21
70.1005232094607607
 31
0.0
  0
ARC
  5
3C64
  8
0
 10
459.3303577596499849
 20
70.3023291440023002
 30
0.0
 40
0.3537980468312791
 50
214.7780307433918097
 51
265.0956524187233185
  0
ARC
  5
3C65
  8
0
 10
459.41498817995938
 20
70.7781666095630442
 30
0.0
 40
0.8362680876198529
 50
262.1043562367353843
 51
268.9486193477778784
  0
LINE
  5
3C66
  8
0
 10
459.3996434765219874
 20
69.9420393139627947
 30
0.0
 11
461.4280677709219844
 21
69.8993670033628121
 31
0.0
  0
LINE
  5
3C67
  8
0
 10
461.4280677709219844
 20
69.8993670033628121
 30
0.0
 11
461.9241289419812801
 21
69.8889392810460492
 31
0.0
  0
LINE
  5
3C68
  8
0
 10
461.9241289419812801
 20
69.8889392810460492
 30
0.0
 11
464.1988585271220131
 21
69.872736242062814
 31
0.0
  0
ARC
  5
3C69
  8
0
 10
464.1259963446167944
 20
59.6490059159548593
 30
0.0
 40
10.2239899588476906
 50
76.5649691218457065
 51
89.5916730260044289
  0
LINE
  5
3C6A
  8
0
 10
466.5014649520057901
 20
69.5932062143160977
 30
0.0
 11
466.5694144901220284
 21
70.1111855606627756
 31
0.0
  0
ARC
  5
3C6B
  8
0
 10
465.862597232016924
 20
70.2039072233305035
 30
0.0
 40
0.7128730203081109
 50
352.5265029586832952
 51
17.4467397091214202
  0
LINE
  5
3C6C
  8
0
 10
480.8400018280220252
 20
70.3742421304628181
 30
0.0
 11
478.5202463823221137
 21
69.0537061726627996
 31
0.0
  0
LINE
  5
3C6D
  8
0
 10
478.5202463823221137
 20
69.0537061726627996
 30
0.0
 11
477.7201737253220131
 21
67.1368080470627717
 31
0.0
  0
LINE
  5
3C6E
  8
0
 10
477.7201737253220131
 20
67.1368080470627717
 30
0.0
 11
477.6665279570220264
 21
67.1457013675627934
 31
0.0
  0
LINE
  5
3C6F
  8
0
 10
477.6665279570220264
 20
67.1457013675627934
 30
0.0
 11
477.9315491625220034
 21
69.6371321380628103
 31
0.0
  0
LINE
  5
3C70
  8
0
 10
477.6665279570220264
 20
67.1457013675627934
 30
0.0
 11
478.462888738721972
 21
69.0537061726627996
 31
0.0
  0
LINE
  5
3C71
  8
0
 10
478.462888738721972
 20
69.0537061726627996
 30
0.0
 11
480.7793917817509737
 21
70.3723906789209366
 31
0.0
  0
LINE
  5
3C72
  8
0
 10
478.462888738721972
 20
69.0537061726627996
 30
0.0
 11
478.5202463823221137
 21
69.0537061726627996
 31
0.0
  0
LINE
  5
3C73
  8
0
 10
478.462888738721972
 20
69.0537061726627996
 30
0.0
 11
478.4248918390479162
 21
69.8991301070261954
 31
0.0
  0
ARC
  5
3C74
  8
0
 10
478.2033645084870273
 20
69.6224539336774626
 30
0.0
 40
0.2722113737264804
 50
95.7437054215848633
 51
176.908993067777601
  0
LINE
  5
3C75
  8
0
 10
477.2704835911266059
 20
69.8955722692774941
 30
0.0
 11
478.1761219337464013
 21
69.8932986753793131
 31
0.0
  0
LINE
  5
3C76
  8
0
 10
478.1761219337464013
 20
69.8932986753793131
 30
0.0
 11
478.9322373576220002
 21
69.9110228265627995
 31
0.0
  0
ARC
  5
3C77
  8
0
 10
478.9261019917968838
 20
70.1727586176605485
 30
0.0
 40
0.2618076909782841
 50
271.3428282029806269
 51
313.1782952298208897
  0
LINE
  5
3C78
  8
0
 10
479.1052493785219895
 20
69.9818411462627807
 30
0.0
 11
479.458374702022013
 21
70.3047981305627729
 31
0.0
  0
ARC
  5
3C79
  8
0
 10
479.5343766640248759
 20
70.2216966070671162
 30
0.0
 40
0.1126151030527506
 50
92.287534492190872
 51
132.4450261246373941
  0
LINE
  5
3C7A
  8
0
 10
479.52988169945138
 20
70.3342219674489968
 30
0.0
 11
480.8400018280220252
 21
70.3742421304628181
 31
0.0
  0
LINE
  5
3C7B
  8
0
 10
481.7388340078068723
 20
70.4013565294007151
 30
0.0
 11
481.9877682729601247
 21
70.4144026214277972
 31
0.0
  0
LINE
  5
3C7C
  8
0
 10
478.0442204208220005
 20
70.4046595425628254
 30
0.0
 11
475.9666413125220856
 21
69.0376972335627954
 31
0.0
  0
LINE
  5
3C7D
  8
0
 10
475.9666413125220856
 20
69.0376972335627954
 30
0.0
 11
475.3436730676219781
 21
66.634909790762805
 31
0.0
  0
LINE
  5
3C7E
  8
0
 10
475.3436730676219781
 20
66.634909790762805
 30
0.0
 11
475.2685558858220247
 21
66.6611298224628115
 31
0.0
  0
LINE
  5
3C7F
  8
0
 10
475.2685558858220247
 20
66.6611298224628115
 30
0.0
 11
475.8847261081219813
 21
69.0376972335627954
 31
0.0
  0
LINE
  5
3C80
  8
0
 10
475.8847261081219813
 20
69.0376972335627954
 30
0.0
 11
477.9595889290225159
 21
70.4028723361875848
 31
0.0
  0
LINE
  5
3C81
  8
0
 10
475.8847261081219813
 20
69.0376972335627954
 30
0.0
 11
475.842451210422098
 21
69.8962305442628065
 31
0.0
  0
LINE
  5
3C82
  8
0
 10
475.8847261081219813
 20
69.0376972335627954
 30
0.0
 11
475.9666413125220856
 21
69.0376972335627954
 31
0.0
  0
LINE
  5
3C83
  8
0
 10
475.2685558858220247
 20
66.6611298224628115
 30
0.0
 11
475.4545939963221031
 21
69.6346991587627997
 31
0.0
  0
LINE
  5
3C84
  8
0
 10
478.0442204208220005
 20
70.4046595425628254
 30
0.0
 11
477.0359967576220015
 21
70.3833683692627972
 31
0.0
  0
ARC
  5
3C85
  8
0
 10
477.1030693052534843
 20
70.119044305907579
 30
0.0
 40
0.272701186492488
 50
104.2383492228976962
 51
174.8861509561440073
  0
ARC
  5
3C86
  8
0
 10
476.5123349197268112
 20
70.183251149529525
 30
0.0
 40
0.3216033365536766
 50
324.8943587092035159
 51
352.8732554421550844
  0
ARC
  5
3C87
  8
0
 10
476.6280300133105925
 20
70.1019222568352518
 30
0.0
 40
0.1801828873029647
 50
275.1145096091086089
 51
324.8943587092035159
  0
LINE
  5
3C88
  8
0
 10
476.6440926928220279
 20
69.9224567637627672
 30
0.0
 11
475.842451210422098
 21
69.8962305442628065
 31
0.0
  0
LINE
  5
3C89
  8
0
 10
475.842451210422098
 20
69.8962305442628065
 30
0.0
 11
473.2918743513620257
 21
69.8731955087611425
 31
0.0
  0
ARC
  5
3C8A
  8
0
 10
473.3856376707950062
 20
59.4911601627570903
 30
0.0
 40
10.3824587399010806
 50
90.5174415462295059
 51
103.2922313859171055
  0
LINE
  5
3C8B
  8
0
 10
470.9985257669221141
 20
69.5954734122628054
 30
0.0
 11
470.9657094460220037
 21
70.1123517005628116
 31
0.0
  0
ARC
  5
3C8C
  8
0
 10
472.0921466779483922
 20
70.1838685866718777
 30
0.0
 40
1.1287052327639351
 50
168.0466722206095938
 51
183.6328018921749106
  0
ARC
  5
3C8D
  8
0
 10
475.7000247904093726
 20
69.6526309869909426
 30
0.0
 40
0.2460849957839088
 50
100.5749758358394956
 51
184.1787573631071098
  0
LINE
  5
3C8E
  8
0
 10
454.9321058643760125
 20
69.5759208175674928
 30
0.0
 11
454.9285625089837026
 21
69.6773892405796857
 31
0.0
  0
LINE
  5
3C8F
  8
0
 10
462.8736541142333181
 20
55.4702921617627567
 30
0.0
 11
463.4049777822331748
 21
55.4702921617627567
 31
0.0
  0
LINE
  5
3C90
  8
0
 10
463.3952237170659032
 20
55.8427780644176508
 30
0.0
 11
463.4049777822331748
 21
55.4702921617627567
 31
0.0
  0
LINE
  5
3C91
  8
0
 10
462.856811853731017
 20
55.8560471482639684
 30
0.0
 11
462.8736541142333181
 21
55.4702921617627567
 31
0.0
  0
LINE
  5
3C92
  8
0
 10
474.9787164095399135
 20
55.8835345696090116
 30
0.0
 11
474.9920186037758754
 21
55.5157984375674829
 31
0.0
  0
ARC
  5
3C93
  8
0
 10
475.3091545129216797
 20
55.5272702596026733
 30
0.0
 40
0.3173433275972679
 50
182.0716686601338097
 51
190.343385123501605
  0
ENDSEC
  0
EOF
