  0
SECTION
  2
HEADER
  9
$ACADVER
  1
AC1009
  9
$INSBASE
 10
372.2519992226709746
 20
71.5298263549387485
 30
0.0
  9
$EXTMIN
 10
342.2520583771877796
 20
42.1625914518661418
 30
0.0
  9
$EXTMAX
 10
402.2519400681542834
 20
71.5343039489306562
 30
0.0
  9
$LIMMIN
 10
0.0
 20
0.0
  9
$LIMMAX
 10
11.6929133858000007
 20
8.2677165353999982
  9
$ORTHOMODE
 70
     1
  9
$REGENMODE
 70
     1
  9
$FILLMODE
 70
     1
  9
$QTEXTMODE
 70
     0
  9
$MIRRTEXT
 70
     0
  9
$DRAGMODE
 70
     2
  9
$LTSCALE
 40
0.6431102362
  9
$OSMODE
 70
    23
  9
$ATTMODE
 70
     1
  9
$TEXTSIZE
 40
0.2
  9
$TRACEWID
 40
0.05
  9
$TEXTSTYLE
  7
STANDARD
  9
$CLAYER
  8
0
  9
$CELTYPE
  6
BYLAYER
  9
$CECOLOR
 62
   256
  9
$DIMSCALE
 40
1.0
  9
$DIMASZ
 40
0.1875
  9
$DIMEXO
 40
0.0625
  9
$DIMDLI
 40
0.4443307087
  9
$DIMRND
 40
0.0
  9
$DIMDLE
 40
0.0
  9
$DIMEXE
 40
0.125
  9
$DIMTP
 40
0.01
  9
$DIMTM
 40
0.01
  9
$DIMTXT
 40
2.0
  9
$DIMCEN
 40
0.1052362205
  9
$DIMTSZ
 40
0.0
  9
$DIMTOL
 70
     1
  9
$DIMLIM
 70
     0
  9
$DIMTIH
 70
     1
  9
$DIMTOH
 70
     1
  9
$DIMSE1
 70
     0
  9
$DIMSE2
 70
     0
  9
$DIMTAD
 70
     0
  9
$DIMZIN
 70
     0
  9
$DIMBLK
  1

  9
$DIMASO
 70
     1
  9
$DIMSHO
 70
     1
  9
$DIMPOST
  1
\X
  9
$DIMAPOST
  1

  9
$DIMALT
 70
     1
  9
$DIMALTD
 70
     2
  9
$DIMALTF
 40
25.3999999999999986
  9
$DIMLFAC
 40
1.0
  9
$DIMTOFL
 70
     0
  9
$DIMTVP
 40
0.0
  9
$DIMTIX
 70
     0
  9
$DIMSOXD
 70
     0
  9
$DIMSAH
 70
     0
  9
$DIMBLK1
  1

  9
$DIMBLK2
  1

  9
$DIMSTYLE
  2
STANDARD
  9
$DIMCLRD
 70
     0
  9
$DIMCLRE
 70
     0
  9
$DIMCLRT
 70
     0
  9
$DIMTFAC
 40
1.0
  9
$DIMGAP
 40
0.09
  9
$LUNITS
 70
     2
  9
$LUPREC
 70
     4
  9
$SKETCHINC
 40
0.1
  9
$FILLETRAD
 40
0.0
  9
$AUNITS
 70
     0
  9
$AUPREC
 70
     0
  9
$MENU
  1
.
  9
$ELEVATION
 40
0.0
  9
$PELEVATION
 40
0.0
  9
$THICKNESS
 40
0.0
  9
$LIMCHECK
 70
     0
  9
$BLIPMODE
 70
     0
  9
$CHAMFERA
 40
0.0
  9
$CHAMFERB
 40
0.0
  9
$SKPOLY
 70
     0
  9
$TDCREATE
 40
2458106.4931018520146608
  9
$TDUPDATE
 40
2459718.7742013889364898
  9
$TDINDWG
 40
0.27080875
  9
$TDUSRTIMER
 40
0.27080875
  9
$USRTIMER
 70
     1
  9
$ANGBASE
 50
0.0
  9
$ANGDIR
 70
     0
  9
$PDMODE
 70
     0
  9
$PDSIZE
 40
0.3125
  9
$PLINEWID
 40
0.0
  9
$COORDS
 70
     1
  9
$SPLFRAME
 70
     0
  9
$SPLINETYPE
 70
     6
  9
$SPLINESEGS
 70
     8
  9
$ATTDIA
 70
     1
  9
$ATTREQ
 70
     1
  9
$HANDLING
 70
     1
  9
$HANDSEED
  5
3492
  9
$SURFTAB1
 70
     6
  9
$SURFTAB2
 70
     6
  9
$SURFTYPE
 70
     6
  9
$SURFU
 70
     6
  9
$SURFV
 70
     6
  9
$UCSNAME
  2

  9
$UCSORG
 10
0.0
 20
0.0
 30
0.0
  9
$UCSXDIR
 10
1.0
 20
0.0
 30
0.0
  9
$UCSYDIR
 10
0.0
 20
1.0
 30
0.0
  9
$PUCSNAME
  2

  9
$PUCSORG
 10
0.0
 20
0.0
 30
0.0
  9
$PUCSXDIR
 10
1.0
 20
0.0
 30
0.0
  9
$PUCSYDIR
 10
0.0
 20
1.0
 30
0.0
  9
$USERI1
 70
     0
  9
$USERI2
 70
     0
  9
$USERI3
 70
     0
  9
$USERI4
 70
     0
  9
$USERI5
 70
     0
  9
$USERR1
 40
0.0
  9
$USERR2
 40
0.0
  9
$USERR3
 40
0.0
  9
$USERR4
 40
0.0
  9
$USERR5
 40
0.0
  9
$WORLDVIEW
 70
     1
  9
$SHADEDGE
 70
     3
  9
$SHADEDIF
 70
    70
  9
$TILEMODE
 70
     1
  9
$MAXACTVP
 70
    64
  9
$PLIMCHECK
 70
     0
  9
$PEXTMIN
 10
1.0000000000000000E+20
 20
1.0000000000000000E+20
 30
1.0000000000000000E+20
  9
$PEXTMAX
 10
-1.0000000000000000E+20
 20
-1.0000000000000000E+20
 30
-1.0000000000000000E+20
  9
$PLIMMIN
 10
0.0
 20
0.0
  9
$PLIMMAX
 10
12.0
 20
9.0
  9
$UNITMODE
 70
     0
  9
$VISRETAIN
 70
     1
  9
$PLINEGEN
 70
     0
  9
$PSLTSCALE
 70
     1
  0
ENDSEC
  0
SECTION
  2
TABLES
  0
TABLE
  2
VPORT
 70
     1
  0
VPORT
  2
*ACTIVE
 70
     0
 10
0.0
 20
0.0
 11
1.0
 21
1.0
 12
98.6682982081489399
 22
74.4544249337936463
 13
0.0
 23
0.0
 14
1.0
 24
1.0
 15
0.0
 25
0.0
 16
-0.0000000000000568
 26
0.0
 36
193.9250709296327955
 17
273.5742015565131169
 27
-17.6059607340214797
 37
0.0
 40
30.0313902878156895
 41
2.005224660397074
 42
50.0
 43
0.0
 44
0.0
 50
0.0
 51
0.0
 71
     0
 72
   100
 73
     1
 74
     1
 75
     0
 76
     0
 77
     0
 78
     0
  0
ENDTAB
  0
TABLE
  2
LTYPE
 70
     2
  0
LTYPE
  2
CONTINUOUS
 70
     0
  3
Solid line
 72
    65
 73
     0
 40
0.0
  0
LTYPE
  2
PHANTOM2
 70
     0
  3
___ _ _ ___ _ _ ___ _ _ ___ _ _
 72
    65
 73
     6
 40
1.25
 49
0.625
 49
-0.125
 49
0.125
 49
-0.125
 49
0.125
 49
-0.125
  0
ENDTAB
  0
TABLE
  2
LAYER
 70
     2
  0
LAYER
  2
0
 70
     0
 62
   255
  6
CONTINUOUS
  0
LAYER
  2
DEFPOINTS
 70
     0
 62
     7
  6
CONTINUOUS
  0
ENDTAB
  0
TABLE
  2
STYLE
 70
     1
  0
STYLE
  2
STANDARD
 70
     0
 40
0.0
 41
0.8
 50
0.0
 71
     0
 42
0.2
  3
txt
  4

  0
ENDTAB
  0
TABLE
  2
VIEW
 70
     0
  0
ENDTAB
  0
TABLE
  2
UCS
 70
     0
  0
ENDTAB
  0
TABLE
  2
APPID
 70
     9
  0
APPID
  2
ACAD
 70
     0
  0
APPID
  2
ACAD_MLEADERVER
 70
     0
  0
APPID
  2
ACAD_EXEMPT_FROM_CAD_STANDARDS
 70
     0
  0
APPID
  2
ACAD_NAV_VCDISPLAY
 70
     0
  0
APPID
  2
ACAD_DSTYLE_DIMJAG
 70
     0
  0
APPID
  2
ACAD_DSTYLE_DIMTALN
 70
     0
  0
APPID
  2
ACAECLAYERSTANDARD
 70
     0
  0
APPID
  2
ACCMTRANSPARENCY
 70
     0
  0
APPID
  2
ACDBATTR
 70
     0
  0
ENDTAB
  0
TABLE
  2
DIMSTYLE
 70
     1
  0
DIMSTYLE
  2
STANDARD
 70
     0
  3

  4

  5

  6

  7

 40
1.0
 41
0.1875
 42
0.0625
 43
0.38
 44
0.125
 45
0.0
 46
0.0
 47
0.01
 48
0.01
140
0.15625
141
0.09
142
0.0
143
25.3999999999999986
144
1.0
145
0.0
146
1.0
147
0.09
 71
     1
 72
     0
 73
     1
 74
     1
 75
     0
 76
     0
 77
     0
 78
     4
170
     0
171
     2
172
     0
173
     0
174
     0
175
     0
176
     0
177
     0
178
     0
  0
ENDTAB
  0
ENDSEC
  0
SECTION
  2
BLOCKS
  0
BLOCK
  8
0
  2
$MODEL_SPACE
 70
     0
 10
0.0
 20
0.0
 30
0.0
  3
$MODEL_SPACE
  1

  0
ENDBLK
  5
21
  8
0
  0
BLOCK
 67
     1
  8
0
  2
$PAPER_SPACE
 70
     0
 10
0.0
 20
0.0
 30
0.0
  3
$PAPER_SPACE
  1

  0
ENDBLK
  5
1D
 67
     1
  8
0
  0
ENDSEC
  0
SECTION
  2
ENTITIES
  0
ATTDEF
  5
FAA
  8
DEFPOINTS
 10
372.2521287359650728
 20
71.5333039489306231
 30
0.0
 40
0.001
  1
71341920
  3

  2
MODELNUMBER
 70
     0
1001
ACDBATTR
1070
     0
1070
     1
  0
ATTDEF
  5
FAB
  8
DEFPOINTS
 10
372.2521287359650728
 20
71.5316372822639437
 30
0.0
 40
0.001
  1
PERFORMA2
  3

  2
TRADENAME
 70
     0
1001
ACDBATTR
1070
     0
1070
     1
  0
ATTDEF
  5
FAC
  8
DEFPOINTS
 10
372.2521287359650728
 20
71.5299706155972927
 30
0.0
 40
0.001
  1
BATH
  3

  2
PRODUCT
 70
     0
1001
ACDBATTR
1070
     0
1070
     1
  0
LINE
  5
3188
  8
0
 10
402.2519400681542834
 20
43.4462416269384804
 30
0.0
 11
402.2519400681542834
 21
71.2798210192128323
 31
0.0
  0
LINE
  5
3189
  8
0
 10
402.0019050735942869
 20
71.5298263549387485
 30
0.0
 11
342.5020933717477192
 21
71.5298263549387485
 31
0.0
  0
ARC
  5
318A
  8
0
 10
402.0018548548193849
 20
71.2797411338870717
 30
0.0
 40
0.2500852260938087
 50
0.0183021337601508
 51
89.9884946267467569
  0
LINE
  5
318B
  8
0
 10
402.17066676045431
 20
42.1625916110387493
 30
0.0
 11
342.3333316848811023
 21
42.1625916110387493
 31
0.0
  0
ARC
  5
318C
  8
0
 10
397.9319896732171742
 20
46.1968886919354986
 30
0.0
 40
3.8566318336730592
 50
273.3141652896342748
 51
276.9627603075862226
  0
ARC
  5
318D
  8
0
 10
391.251022444590717
 20
161.5695932086277082
 30
0.0
 40
119.4226141580835048
 50
272.8139926747602999
 51
273.3141652896342748
  0
ARC
  5
318E
  8
0
 10
396.9278984847514948
 20
46.0755214468386782
 30
0.0
 40
3.7891089197979211
 50
268.6326019249598858
 51
272.8139926747602999
  0
ARC
  5
318F
  8
0
 10
1008.3870915446419758
 20
-577784.0995739847421646
 30
0.0
 40
577826.710685946745798
 50
90.0606396653671339
 51
90.0609512413180084
  0
ARC
  5
3190
  8
0
 10
342.5021435905226213
 20
71.2797411338870717
 30
0.0
 40
0.2500852260938087
 50
90.0115053732499888
 51
179.9816978662398128
  0
ARC
  5
3191
  8
0
 10
346.5720087721247751
 20
46.1968886919354986
 30
0.0
 40
3.8566318336730592
 50
263.0372396924137774
 51
266.6858347103657252
  0
ARC
  5
3192
  8
0
 10
353.2529760007514028
 20
161.5695932086277082
 30
0.0
 40
119.4226141580835048
 50
266.6858347103657252
 51
267.1860073252364032
  0
ARC
  5
3193
  8
0
 10
347.576099960590625
 20
46.0755214468386782
 30
0.0
 40
3.7891089197979211
 50
267.1860073252364032
 51
271.3673980750400005
  0
ARC
  5
3194
  8
0
 10
-263.8830930992992876
 20
-577784.0995739847421646
 30
0.0
 40
577826.710685946745798
 50
89.9390487586852316
 51
89.9393603346328661
  0
LINE
  5
3195
  8
0
 10
342.2520583771877796
 20
43.4462416269483072
 30
0.0
 11
342.2520583771877796
 21
71.2798210192128323
 31
0.0
  0
LINE
  5
3196
  8
0
 10
350.8087557351381065
 20
42.284157384546063
 30
0.0
 11
393.6952427061557955
 21
42.284157384546063
 31
0.0
  0
LINE
  5
3197
  8
0
 10
398.3995068094542944
 20
42.3686989333387487
 30
0.0
 11
346.1044916358878254
 21
42.3686989333387487
 31
0.0
  0
CIRCLE
  5
3198
  8
0
 10
393.0019400681542834
 20
57.4048210143387578
 30
0.0
 40
1.0
  0
CIRCLE
  5
3199
  8
0
 10
393.0019400681542834
 20
57.4048210143387578
 30
0.0
 40
1.062622409584018
  0
LINE
  5
319A
  8
0
 10
402.2020495881542956
 20
42.3895905299387508
 30
0.0
 11
342.3019488571878242
 21
42.3895905299387508
 31
0.0
  0
LINE
  5
319B
  8
0
 10
399.3736831818811766
 20
50.2764592879652312
 30
0.0
 11
399.2031158883186777
 21
48.019054425396412
 31
0.0
  0
ARC
  5
319C
  8
0
 10
359.3617875250961902
 20
321.0500653505881132
 30
0.0
 40
276.6687201098736182
 50
276.1905910798653849
 51
278.1943643932613099
  0
ARC
  5
319D
  8
0
 10
361.1390820426860273
 20
300.1157654117781135
 30
0.0
 40
255.6653087446240136
 50
274.6755740447781022
 51
276.3005240304784138
  0
ARC
  5
319E
  8
0
 10
396.8440041586277971
 20
48.2697857877682921
 30
0.0
 40
2.3723984423451792
 50
344.9175228514916967
 51
353.9332585704178769
  0
ARC
  5
319F
  8
0
 10
398.2503971622285235
 20
47.8843693526675409
 30
0.0
 40
0.9141845040732356
 50
319.0966417012995748
 51
345.3050576371246052
  0
ARC
  5
31A0
  8
0
 10
398.7341115330215189
 20
47.4914310098590988
 30
0.0
 40
0.2919638069313446
 50
282.2012574526958133
 51
315.2198050377767231
  0
ARC
  5
31A1
  8
0
 10
388.3344695696939084
 20
58.2502958927017218
 30
0.0
 40
11.8152208004523303
 50
293.1176709518716734
 51
332.0031637384956866
  0
ARC
  5
31A2
  8
0
 10
388.0796168652968277
 20
58.6085231737432792
 30
0.0
 40
12.2451018758355108
 50
275.8328063574264775
 51
293.5562950890908951
  0
ARC
  5
31A3
  8
0
 10
368.5199294271578765
 20
229.2535207518465086
 30
0.0
 40
184.0065599179374942
 50
274.553029214713888
 51
276.491843481044782
  0
ARC
  5
31A4
  8
0
 10
366.1050748320625985
 20
260.1245674202413056
 30
0.0
 40
214.9718862618360049
 50
272.9409497297151006
 51
274.5414716811944231
  0
ARC
  5
31A5
  8
0
 10
355.98994587595638
 20
55.768200216603141
 30
0.0
 40
10.4563202483109006
 50
254.9698034598557967
 51
262.9802396095010977
  0
ARC
  5
31A6
  8
0
 10
356.1164029937170881
 20
56.107095687947222
 30
0.0
 40
10.8164699581580308
 50
232.9138702112607859
 51
254.7884000904118125
  0
ARC
  5
31A7
  8
0
 10
356.666431186071577
 20
56.8164270905804329
 30
0.0
 40
11.7140052379251198
 50
217.1424647909057057
 51
232.8598879881110122
  0
ARC
  5
31A8
  8
0
 10
357.2626934197841138
 20
57.2901268803712895
 30
0.0
 40
12.4753395371542304
 50
202.194976000818599
 51
217.2232092432419961
  0
ARC
  5
31A9
  8
0
 10
363.9595403414983252
 20
105.4822833746410993
 30
0.0
 40
60.2296930494980103
 50
261.9025251031904986
 51
265.9483319733864164
  0
ARC
  5
31AA
  8
0
 10
357.0865262905114719
 20
57.0303008273551626
 30
0.0
 40
11.29268529284656
 50
241.0326888202496036
 51
261.7993217878573091
  0
ARC
  5
31AB
  8
0
 10
357.0366795681837857
 20
56.7693782440556021
 30
0.0
 40
11.0405739975016299
 50
209.8063635664096864
 51
240.6032127076801999
  0
ARC
  5
31AC
  8
0
 10
357.1311736718740235
 20
56.7691943955098992
 30
0.0
 40
11.1225759663113895
 50
187.6266479187723917
 51
209.5635831652712113
  0
ARC
  5
31AD
  8
0
 10
365.7625366423138189
 20
262.6346283572751759
 30
0.0
 40
217.4963204125361074
 50
271.0243998619126842
 51
272.9971411358566797
  0
ARC
  5
31AE
  8
0
 10
366.7395894988464988
 20
134.451368431667504
 30
0.0
 40
89.3257565221237968
 50
265.4824850398518947
 51
271.8677689367194716
  0
ARC
  5
31AF
  8
0
 10
365.7021077345709159
 20
242.1010326640345056
 30
0.0
 40
197.4717701557785006
 50
271.817220782741515
 51
274.7281341178518232
  0
ARC
  5
31B0
  8
0
 10
367.6087287488089146
 20
156.4072922551077909
 30
0.0
 40
111.7636143539197064
 50
263.3737438239807034
 51
272.2333879895720088
  0
ARC
  5
31B2
  8
0
 10
393.0829207846480244
 20
55.6383992727232979
 30
0.0
 40
6.3968462073139429
 50
332.6946895567663205
 51
352.2865559827782818
  0
LINE
  5
31B3
  8
0
 10
399.3736831818811766
 20
64.5331827407122915
 30
0.0
 11
399.2031158883186777
 21
66.7905876032811108
 31
0.0
  0
ARC
  5
31B4
  8
0
 10
359.3617875250961902
 20
-206.2404233219106118
 30
0.0
 40
276.6687201098736182
 50
81.8056356067386474
 51
83.8094089201345724
  0
ARC
  5
31B5
  8
0
 10
361.1390820426860273
 20
-185.306123383100612
 30
0.0
 40
255.6653087446240136
 50
83.6994759695216288
 51
85.324425955221912
  0
ARC
  5
31B6
  8
0
 10
396.8440041586277971
 20
66.5398562409092307
 30
0.0
 40
2.3723984423451792
 50
6.0667414295821294
 51
15.0824771485082003
  0
ARC
  5
31B7
  8
0
 10
398.2503971622285235
 20
66.9252726760099819
 30
0.0
 40
0.9141845040732356
 50
14.6949423628754499
 51
40.903358298700411
  0
ARC
  5
31B8
  8
0
 10
398.7341115330215189
 20
67.3182110188184168
 30
0.0
 40
0.2919638069313446
 50
44.7801949622232627
 51
77.7987425473041441
  0
ARC
  5
31B9
  8
0
 10
388.3344695696939084
 20
56.5593461359758081
 30
0.0
 40
11.8152208004523303
 50
27.9968362615035105
 51
66.8823290481282982
  0
ARC
  5
31BA
  8
0
 10
388.0796168652968277
 20
56.2011188549342506
 30
0.0
 40
12.2451018758355108
 50
66.4437049109090765
 51
84.1671936425734231
  0
ARC
  5
31BB
  8
0
 10
368.5199294271578765
 20
-114.4438787231689929
 30
0.0
 40
184.0065599179374942
 50
83.5081565189552038
 51
85.4469707852860978
  0
ARC
  5
31BC
  8
0
 10
366.1050748320625985
 20
-145.3149253915638042
 30
0.0
 40
214.9718862618360049
 50
85.4585283188055769
 51
87.0590502702848852
  0
ARC
  5
31BD
  8
0
 10
355.98994587595638
 20
59.0414418120743818
 30
0.0
 40
10.4563202483109006
 50
97.0197603904988455
 51
105.0301965401442033
  0
ARC
  5
31BE
  8
0
 10
356.1164029937170881
 20
58.7025463407303079
 30
0.0
 40
10.8164699581580308
 50
105.2115999095881023
 51
127.0861297887398962
  0
ARC
  5
31BF
  8
0
 10
356.666431186071577
 20
57.9932149380970969
 30
0.0
 40
11.7140052379251198
 50
127.140112011889002
 51
142.857535209094209
  0
ARC
  5
31C0
  8
0
 10
357.2626934197841138
 20
57.5195151483062403
 30
0.0
 40
12.4753395371542304
 50
142.7767907567584871
 51
157.805023999181401
  0
ARC
  5
31C1
  8
0
 10
363.9595403414983252
 20
9.3273586540363524
 30
0.0
 40
60.2296930494980103
 50
94.0516680266136262
 51
98.0974748968095156
  0
ARC
  5
31C2
  8
0
 10
357.0865262905114719
 20
57.7793412013223602
 30
0.0
 40
11.29268529284656
 50
98.2006782121427335
 51
118.9673111797503964
  0
ARC
  5
31C3
  8
0
 10
357.0366795681837857
 20
58.0402637846219278
 30
0.0
 40
11.0405739975016299
 50
119.3967872923197007
 51
150.1936364335921894
  0
ARC
  5
31C4
  8
0
 10
357.1311736718740235
 20
58.0404476331676307
 30
0.0
 40
11.1225759663113895
 50
150.4364168347287887
 51
172.3733520812276083
  0
ARC
  5
31C5
  8
0
 10
365.7625366423138189
 20
-147.8249863285977028
 30
0.0
 40
217.4963204125361074
 50
87.0028588641432634
 51
88.9756001380873442
  0
ARC
  5
31C6
  8
0
 10
366.7395894988464988
 20
-19.6417264029900487
 30
0.0
 40
89.3257565221237968
 50
88.1322310632804289
 51
94.5175149601481053
  0
ARC
  5
31C7
  8
0
 10
365.7021077345709159
 20
-127.2913906353570042
 30
0.0
 40
197.4717701557785006
 50
85.2718658821481483
 51
88.1827792172584708
  0
ARC
  5
31C8
  8
0
 10
367.6087287488089146
 20
-41.5976502264302823
 30
0.0
 40
111.7636143539197064
 50
87.7666120104279912
 51
96.626256176019254
  0
ARC
  5
31C9
  8
0
 10
393.0829207846480244
 20
59.1712427559541894
 30
0.0
 40
6.3968462073139429
 50
7.7134440172217236
 51
27.3053104432332709
  0
ARC
  5
31CA
  8
0
 10
367.7517074959238244
 20
57.4101534522635717
 30
0.0
 40
31.7783400219248193
 50
0.0142864897958591
 51
4.7285764945957212
  0
ARC
  5
31CB
  8
0
 10
236.9669673478472873
 20
57.4048210143387578
 30
0.0
 40
162.5630797226068864
 50
357.4867845582832047
 51
2.5132154417168149
  0
ARC
  5
31CC
  8
0
 10
395.4782328528564221
 20
57.4036643887923574
 30
0.0
 40
3.881785943396276
 50
341.2330957422336155
 51
18.8029595297551886
  0
ARC
  5
31CD
  8
0
 10
402.9291335865805763
 20
57.406008752231152
 30
0.0
 40
3.9774097446823831
 50
161.7009826191541038
 51
198.3350726528346968
  0
ARC
  5
31CE
  8
0
 10
404.3523239083942258
 20
57.4057846056898669
 30
0.0
 40
5.262502412770302
 50
168.0619464851656062
 51
191.9654319757505903
  0
LINE
  5
31CF
  8
0
 10
401.9999285833712861
 20
71.4048210143387649
 30
0.0
 11
342.5040698619707769
 21
71.4048210143387649
 31
0.0
  0
LINE
  5
31D0
  8
0
 10
402.1249167952543075
 20
71.2798210143327395
 30
0.0
 11
402.1249167952543075
 21
43.4503617462496621
 31
0.0
  0
ARC
  5
31D1
  8
0
 10
401.9998479246128227
 20
71.2797521507479956
 30
0.0
 40
0.1250688895997793
 50
0.0315473602202149
 51
89.9630491101456755
  0
ARC
  5
31D2
  8
0
 10
399.4743629146071271
 20
43.4505316827392605
 30
0.0
 40
2.7775804666086739
 50
358.3099601183678828
 51
359.9115049259772263
  0
LINE
  5
31D3
  8
0
 10
402.2507351395541946
 20
43.36861393723877
 30
0.0
 11
402.2189814132541983
 21
42.4144415037387503
 31
0.0
  0
ARC
  5
31D4
  8
0
 10
402.1186321140082782
 20
42.4177810093362524
 30
0.0
 40
0.1004048512612139
 50
352.5837191821012198
 51
358.0939678717027732
  0
LINE
  5
31D5
  8
0
 10
402.2181970309541725
 20
42.4048210143387507
 30
0.0
 11
342.2858014143877767
 21
42.4048210143387507
 31
0.0
  0
LINE
  5
31D6
  8
0
 10
402.2020495881542956
 20
42.4048210143387507
 30
0.0
 11
402.2020495881542956
 21
42.1631310781387469
 31
0.0
  0
ARC
  5
31D7
  8
0
 10
402.1711967282309956
 20
43.0448596162183392
 30
0.0
 40
0.8822681643521951
 50
269.9655831186685191
 51
272.0040382537662822
  0
ARC
  5
31D8
  8
0
 10
401.7388042547997884
 20
46.0832208806057011
 30
0.0
 40
0.0298775737019739
 50
5.7719354617366214
 51
92.4072959527281483
  0
LINE
  5
31D9
  8
0
 10
401.737549310654174
 20
46.113072087038752
 30
0.0
 11
401.5343073640542002
 21
46.1124469016387479
 31
0.0
  0
ARC
  5
31DA
  8
0
 10
401.5343855506213799
 20
46.0870291773685494
 30
0.0
 40
0.0254178445233881
 50
90.1762449752699808
 51
151.9397948145571036
  0
ARC
  5
31DB
  8
0
 10
401.5578774577567174
 20
46.0745066275087609
 30
0.0
 40
0.0520389631294528
 50
151.9397948145559099
 51
182.1041074252233045
  0
LINE
  5
31DC
  8
0
 10
401.5058735811542761
 20
46.0725959988387501
 30
0.0
 11
401.5058612629542836
 21
44.9561764752387489
 31
0.0
  0
LINE
  5
31DD
  8
0
 10
401.5058735811542761
 20
46.0725959988387501
 30
0.0
 11
401.5259924074542255
 21
45.9648852323387587
 31
0.0
  0
ARC
  5
31DE
  8
0
 10
400.2519140172652214
 20
45.7858151136222205
 30
0.0
 40
1.286532360738639
 50
359.5278964675903239
 51
8.0008593885021231
  0
LINE
  5
31DF
  8
0
 10
401.538402704554187
 20
45.7752145143387565
 30
0.0
 11
401.540752437754179
 21
45.2804420478387684
 31
0.0
  0
ARC
  5
31E0
  8
0
 10
400.2600460497313861
 20
45.2593372681821933
 30
0.0
 40
1.2808802692082559
 50
352.6048703061550782
 51
0.9440925521446372
  0
LINE
  5
31E1
  8
0
 10
401.5302720936542187
 20
45.0944735020387384
 30
0.0
 11
401.5058612629542836
 21
44.9561764752387489
 31
0.0
  0
ARC
  5
31E2
  8
0
 10
401.5640589537708252
 20
44.9532604931565132
 30
0.0
 40
0.0582706973347749
 50
177.1316067298380119
 51
205.2866426852484949
  0
ARC
  5
31E3
  8
0
 10
401.5353257199158747
 20
44.9396865501338567
 30
0.0
 40
0.0264925498598354
 50
205.2866426852463064
 51
266.7417089330057252
  0
LINE
  5
31E4
  8
0
 10
401.5338199559541863
 20
44.9132368266387587
 30
0.0
 11
401.7395654558541764
 21
44.9132368279387606
 31
0.0
  0
ARC
  5
31E5
  8
0
 10
401.7395654556564182
 20
44.9445361152366871
 30
0.0
 40
0.0312992872979336
 50
270.0000003620194207
 51
351.8226453470351203
  0
LINE
  5
31E6
  8
0
 10
401.7705465082541991
 20
44.9400841757387468
 30
0.0
 11
401.7611991651542098
 21
45.0946258202387469
 31
0.0
  0
ARC
  5
31E7
  8
0
 10
406.2173060628400094
 20
45.2793396709681488
 30
0.0
 40
4.4599336194896386
 50
179.9376811543891108
 51
182.3736568558296938
  0
LINE
  5
31E8
  8
0
 10
401.7573750814541995
 20
45.2841906017387501
 30
0.0
 11
401.7573750932542112
 21
45.7754124786387635
 31
0.0
  0
ARC
  5
31E9
  8
0
 10
405.6414863332936989
 20
45.7919028850745065
 30
0.0
 40
3.884146245767008
 50
177.4450244581557001
 51
180.2432538503618105
  0
LINE
  5
31EA
  8
0
 10
401.761201283454227
 20
45.9650501937387475
 30
0.0
 11
401.7685303517541797
 21
46.0862256365387566
 31
0.0
  0
ARC
  5
31EB
  8
0
 10
400.6814315230487864
 20
43.4525799706112821
 30
0.0
 40
1.443486976592959
 50
358.3091092290898132
 51
359.9119528295407235
  0
LINE
  5
31EC
  8
0
 10
402.1242899534541948
 20
43.4099865274387611
 30
0.0
 11
402.0929247557543249
 21
42.4674889819387573
 31
0.0
  0
ARC
  5
31ED
  8
0
 10
401.6165730002792884
 20
42.483341401986479
 30
0.0
 40
0.4766154573295515
 50
354.277883912375728
 51
358.0939680041759061
  0
ARC
  5
31EE
  8
0
 10
402.1232456992246966
 20
42.4357099804878004
 30
0.0
 40
0.0324323309363085
 50
179.8038443958143091
 51
252.2531896887529967
  0
ARC
  5
31EF
  8
0
 10
402.0517782580710104
 20
42.5791334890728095
 30
0.0
 40
0.0310442311608922
 50
270.1160936407745794
 51
359.7792668479029885
  0
LINE
  5
31F0
  8
0
 10
402.0518411603542859
 20
42.5480893216387415
 30
0.0
 11
401.7387333902543105
 21
42.548089321538761
 31
0.0
  0
ARC
  5
31F1
  8
0
 10
401.741468364701575
 20
42.5106048222198822
 30
0.0
 40
0.0375841425925162
 50
94.1730664212785342
 51
179.5084450546951018
  0
LINE
  5
31F2
  8
0
 10
401.7038856052640767
 20
42.5109272621042891
 30
0.0
 11
401.7007932176542226
 21
42.4358205516387628
 31
0.0
  0
ARC
  5
31F3
  8
0
 10
401.7294151513937095
 20
42.431768718465527
 30
0.0
 40
0.0289073077793201
 50
171.9425249748096007
 51
248.782101195480891
  0
LINE
  5
31F4
  8
0
 10
402.058998005141575
 20
43.5298210143387578
 30
0.0
 11
401.8372476114541882
 21
43.5298210143387578
 31
0.0
  0
ARC
  5
31F5
  8
0
 10
402.0501434401110146
 20
43.4988285788444102
 30
0.0
 40
0.0309944358663273
 50
359.9860163851828929
 51
89.3490409798831848
  0
LINE
  5
31F6
  8
0
 10
402.0811378750543099
 20
43.4988210143387519
 30
0.0
 11
402.0828222588542076
 21
42.5790138908387519
 31
0.0
  0
ARC
  5
31F7
  8
0
 10
402.0576435611008037
 20
42.5709087297483606
 30
0.0
 40
0.0391428886134008
 50
273.3976022112606756
 51
349.481011645406511
  0
LINE
  5
31F8
  8
0
 10
402.0737097901571815
 20
42.5571618667221188
 30
0.0
 11
402.0835493547264718
 21
42.5415649810848819
 31
0.0
  0
LINE
  5
31F9
  8
0
 10
402.0599633486543212
 20
42.5318346422387634
 30
0.0
 11
401.8984620004542876
 21
42.5318360391387387
 31
0.0
  0
ARC
  5
31FA
  8
0
 10
401.8984767377774006
 20
44.2356785238142507
 30
0.0
 40
1.703842484739239
 50
265.4687045628572832
 51
269.9995044222563934
  0
ARC
  5
31FB
  8
0
 10
401.7698001938998118
 20
42.6120268238822106
 30
0.0
 40
0.0750998728952161
 50
247.9236428596863959
 51
265.4687045628572832
  0
LINE
  5
31FC
  8
0
 10
401.7415745147542907
 20
42.54243298833876
 30
0.0
 11
401.7387333902543105
 21
42.548089321538761
 31
0.0
  0
ARC
  5
31FD
  8
0
 10
401.8372494470489755
 20
43.5930760591357966
 30
0.0
 40
0.0632550448236866
 50
180.2310392089158029
 51
269.9983373367730906
  0
LINE
  5
31FE
  8
0
 10
401.7739994015543061
 20
43.5928210173387711
 30
0.0
 11
401.7716260771542807
 21
44.88963487573875
 31
0.0
  0
ARC
  5
31FF
  8
0
 10
400.4820229086885206
 20
44.8872747477633993
 30
0.0
 40
1.289605328122073
 50
0.104858009373639
 51
2.346922401099381
  0
LINE
  5
3200
  8
0
 10
401.7696118048542075
 20
46.1421204049387725
 30
0.0
 11
401.768393610954206
 21
62.8873939578387677
 31
0.0
  0
ARC
  5
3201
  8
0
 10
400.6417083293436008
 20
46.1359852566896791
 30
0.0
 40
1.127920161231714
 50
357.4715038598064893
 51
0.3116531176840731
  0
ARC
  5
3202
  8
0
 10
401.7375839514998006
 20
64.1155285531057046
 30
0.0
 40
0.0298775737019739
 50
5.7719354617366214
 51
92.4072959527281483
  0
LINE
  5
3203
  8
0
 10
401.7363290073542998
 20
64.1453797595387556
 30
0.0
 11
401.5313431310543137
 21
64.1415643376387692
 31
0.0
  0
ARC
  5
3204
  8
0
 10
401.5314213176214935
 20
64.1161466133685707
 30
0.0
 40
0.0254178445233881
 50
90.1762449752699808
 51
151.9397948145571036
  0
ARC
  5
3205
  8
0
 10
401.5549132247566035
 20
64.1036240635087751
 30
0.0
 40
0.0520389631294528
 50
151.9397948145559099
 51
182.1041074252233045
  0
LINE
  5
3206
  8
0
 10
401.5029093481542191
 20
64.1017134348387714
 30
0.0
 11
401.5028601353042177
 21
62.9582365524387768
 31
0.0
  0
LINE
  5
3207
  8
0
 10
401.5029093481542191
 20
64.1017134348387714
 30
0.0
 11
401.5230281744542822
 21
63.9940026683387799
 31
0.0
  0
ARC
  5
3208
  8
0
 10
400.2489497842652781
 20
63.8149325496222417
 30
0.0
 40
1.286532360738639
 50
359.5278964675903239
 51
8.0008593885025281
  0
LINE
  5
3209
  8
0
 10
401.5354384715543006
 20
63.8043319503387707
 30
0.0
 11
401.5377513101042268
 21
63.2825021250387607
 31
0.0
  0
ARC
  5
320A
  8
0
 10
400.2570449220813202
 20
63.2613973453821785
 30
0.0
 40
1.2808802692082559
 50
352.6048703061550782
 51
0.9440925521446372
  0
LINE
  5
320B
  8
0
 10
401.5272709660043233
 20
63.0965335792387734
 30
0.0
 11
401.5028601353042177
 21
62.9582365524387768
 31
0.0
  0
ARC
  5
320C
  8
0
 10
401.5610578261208161
 20
62.9553205703564984
 30
0.0
 40
0.0582706973347749
 50
177.1316067298380119
 51
205.2866426852484949
  0
ARC
  5
320D
  8
0
 10
401.5323245922659225
 20
62.9417466273338704
 30
0.0
 40
0.0264925498598354
 50
205.2866426852463064
 51
266.7417089330057252
  0
LINE
  5
320E
  8
0
 10
401.5308188283041773
 20
62.9152969038387511
 30
0.0
 11
401.7365643282042242
 21
62.9152969051387601
 31
0.0
  0
ARC
  5
320F
  8
0
 10
401.7365643280065228
 20
62.9465961924367008
 30
0.0
 40
0.0312992872979336
 50
270.0000003620194207
 51
351.8226453470351203
  0
LINE
  5
3210
  8
0
 10
401.7675453806043038
 20
62.9421442529387676
 30
0.0
 11
401.7581980375042008
 21
63.0966858974387819
 31
0.0
  0
ARC
  5
3211
  8
0
 10
406.2143049351901141
 20
63.2813997481681412
 30
0.0
 40
4.4599336194896386
 50
179.9376811543891108
 51
182.3736568558296938
  0
LINE
  5
3212
  8
0
 10
401.7543739538043042
 20
63.2862506789387709
 30
0.0
 11
401.754410860254211
 21
63.8045299146387634
 31
0.0
  0
ARC
  5
3213
  8
0
 10
331.1271601448574984
 20
65.7189196257625525
 30
0.0
 40
70.6531912342363739
 50
358.4473471793294834
 51
358.5900944637800194
  0
LINE
  5
3214
  8
0
 10
401.7589611892541939
 20
63.9804971206387592
 30
0.0
 11
401.7673100484541919
 21
64.1185333090387672
 31
0.0
  0
ARC
  5
3215
  8
0
 10
400.8271974288979891
 20
62.9001939982025888
 30
0.0
 40
0.9412832167581067
 50
359.220839294485927
 51
2.5543522799247671
  0
ARC
  5
3216
  8
0
 10
400.6680649642128174
 20
64.1675759387866123
 30
0.0
 40
1.1003385546654341
 50
357.4454527650070759
 51
0.2432828259475297
  0
LINE
  5
3217
  8
0
 10
401.7683935997542903
 20
64.1722480572387468
 30
0.0
 11
401.7696686748543016
 21
70.9333209635387476
 31
0.0
  0
ARC
  5
3218
  8
0
 10
401.6441219403914147
 20
70.933119766256354
 30
0.0
 40
0.1255468956789468
 50
0.0918203512993691
 51
85.747433621970643
  0
ARC
  5
3219
  8
0
 10
401.657742092302783
 20
70.9332462122866758
 30
0.0
 40
0.1250748265194683
 50
0.034266270747835
 51
89.9641617878131541
  0
LINE
  5
321A
  8
0
 10
401.6578203259513771
 20
71.0583210143387731
 30
0.0
 11
342.8461781193905722
 21
71.0583210143387731
 31
0.0
  0
LINE
  5
321B
  8
0
 10
401.7828168964542215
 20
70.9333210144417734
 30
0.0
 11
401.7828168964542215
 21
43.5927245067994988
 31
0.0
  0
ARC
  5
321C
  8
0
 10
401.8458022328874222
 20
43.5928037612872075
 30
0.0
 40
0.0629853862960713
 50
180.0720952766808978
 51
269.4754732561930268
  0
LINE
  5
321D
  8
0
 10
402.2507351395541946
 20
43.36861393723877
 30
0.0
 11
402.1842537687542176
 21
43.3686139355387468
 31
0.0
  0
ARC
  5
321E
  8
0
 10
402.1842537667848774
 20
43.4456303153994696
 30
0.0
 40
0.0770163798607158
 50
240.3496755694845888
 51
270.0000014651175775
  0
ARC
  5
321F
  8
0
 10
402.1681609329344838
 20
43.4173596497919618
 30
0.0
 40
0.0444862425227566
 50
189.5401893686280914
 51
240.3496755694845888
  0
ARC
  5
3220
  8
0
 10
362.6719555529840022
 20
57.4048210143387578
 30
0.0
 40
16.6990347011289799
 50
172.7348337316138895
 51
187.2651662683861105
  0
ARC
  5
3221
  8
0
 10
357.4752409563786841
 20
57.4048210143387578
 30
0.0
 40
12.7154912860595406
 50
157.6883016181243136
 51
202.3116983818756864
  0
LINE
  5
3222
  8
0
 10
386.6858200371543148
 20
70.794896038638754
 30
0.0
 11
387.8180601050543146
 21
70.7948960366387468
 31
0.0
  0
ARC
  5
3223
  8
0
 10
387.8180601051739131
 20
70.862629320618808
 30
0.0
 40
0.0677332839800471
 50
269.9999998987856884
 51
293.8509803771618749
  0
ARC
  5
3224
  8
0
 10
387.834967383175524
 20
70.8243875820629256
 30
0.0
 40
0.025920766509809
 50
293.8509803771402744
 51
356.5448998594598038
  0
LINE
  5
3225
  8
0
 10
387.8608410343542801
 20
70.8228254325387354
 30
0.0
 11
387.8670285898543284
 21
71.027321014338753
 31
0.0
  0
ARC
  5
3226
  8
0
 10
387.8352559665386821
 20
71.0282823792172309
 30
0.0
 40
0.031787164308695
 50
358.266893196425201
 51
39.367424427590251
  0
ARC
  5
3227
  8
0
 10
387.8380525316280796
 20
71.0305768421451518
 30
0.0
 40
0.0281697983571618
 50
39.3674244275918213
 51
80.0274031081769408
  0
LINE
  5
3228
  8
0
 10
387.8180601050543146
 20
70.7948960366387468
 30
0.0
 11
387.6968067808542742
 21
70.8169696951387522
 31
0.0
  0
ARC
  5
3229
  8
0
 10
387.5235585303403809
 20
69.5304376991922624
 30
0.0
 40
1.2981446502220859
 50
82.3305164872660811
 51
90.724359819348166
  0
ARC
  5
322A
  8
0
 10
386.6858200296347263
 20
70.862629320618808
 30
0.0
 40
0.0677332839800471
 50
246.1490196228349987
 51
270.0000001012111284
  0
ARC
  5
322B
  8
0
 10
386.6689127516330018
 20
70.8243875820629256
 30
0.0
 40
0.025920766509809
 50
183.4551001405401109
 51
246.1490196228596972
  0
LINE
  5
322C
  8
0
 10
386.6430391004543026
 20
70.8228254325387354
 30
0.0
 11
386.6368515449543111
 21
71.027321014338753
 31
0.0
  0
ARC
  5
322D
  8
0
 10
386.6686241682700143
 20
71.0282823792172309
 30
0.0
 40
0.031787164308695
 50
140.6325755724097064
 51
181.7331068035747137
  0
ARC
  5
322E
  8
0
 10
386.665827603180503
 20
71.0305768421451518
 30
0.0
 40
0.0281697983571618
 50
99.972596891823045
 51
140.6325755724082001
  0
LINE
  5
322F
  8
0
 10
386.6858200297543249
 20
70.7948960366387468
 30
0.0
 11
386.8070733539543085
 21
70.8169696951387522
 31
0.0
  0
ARC
  5
3230
  8
0
 10
386.9803216044682017
 20
69.5304376991922624
 30
0.0
 40
1.2981446502220859
 50
89.2756401806551025
 51
97.6694835127339331
  0
LINE
  5
3231
  8
0
 10
387.5071472207542911
 20
70.8284786083387559
 30
0.0
 11
386.9967329140542915
 21
70.8284786083387559
 31
0.0
  0
LINE
  5
3232
  8
0
 10
371.6858791887211169
 20
70.794896038638754
 30
0.0
 11
372.8181192566211166
 21
70.7948960366387468
 31
0.0
  0
ARC
  5
3233
  8
0
 10
372.8181192567407152
 20
70.862629320618808
 30
0.0
 40
0.0677332839800471
 50
269.9999998987856884
 51
293.8509803771618749
  0
ARC
  5
3234
  8
0
 10
372.835026534742326
 20
70.8243875820629256
 30
0.0
 40
0.025920766509809
 50
293.8509803771402744
 51
356.5448998594598038
  0
LINE
  5
3235
  8
0
 10
372.8609001859210252
 20
70.8228254325387354
 30
0.0
 11
372.8670877414210167
 21
71.027321014338753
 31
0.0
  0
ARC
  5
3236
  8
0
 10
372.8353151181054272
 20
71.0282823792172309
 30
0.0
 40
0.031787164308695
 50
358.266893196425201
 51
39.367424427590251
  0
ARC
  5
3237
  8
0
 10
372.8381116831948816
 20
71.0305768421451518
 30
0.0
 40
0.0281697983571618
 50
39.3674244275918213
 51
80.0274031081769408
  0
LINE
  5
3238
  8
0
 10
372.8181192566211166
 20
70.7948960366387468
 30
0.0
 11
372.6968659324210194
 21
70.8169696951387522
 31
0.0
  0
ARC
  5
3239
  8
0
 10
372.5236176819071261
 20
69.5304376991922624
 30
0.0
 40
1.2981446502220859
 50
82.3305164872660811
 51
90.724359819348166
  0
ARC
  5
323A
  8
0
 10
371.6858791812014147
 20
70.862629320618808
 30
0.0
 40
0.0677332839800471
 50
246.1490196228349987
 51
270.0000001012111284
  0
ARC
  5
323B
  8
0
 10
371.6689719031998038
 20
70.8243875820629256
 30
0.0
 40
0.025920766509809
 50
183.4551001405401109
 51
246.1490196228596972
  0
LINE
  5
323C
  8
0
 10
371.6430982520209909
 20
70.8228254325387354
 30
0.0
 11
371.6369106965211131
 21
71.027321014338753
 31
0.0
  0
ARC
  5
323D
  8
0
 10
371.6686833198367026
 20
71.0282823792172309
 30
0.0
 40
0.031787164308695
 50
140.6325755724097064
 51
181.7331068035747137
  0
ARC
  5
323E
  8
0
 10
371.6658867547471914
 20
71.0305768421451518
 30
0.0
 40
0.0281697983571618
 50
99.972596891823045
 51
140.6325755724082001
  0
LINE
  5
323F
  8
0
 10
371.6858791813210132
 20
70.7948960366387468
 30
0.0
 11
371.8071325055209968
 21
70.8169696951387522
 31
0.0
  0
ARC
  5
3240
  8
0
 10
371.9803807560348901
 20
69.5304376991922624
 30
0.0
 40
1.2981446502220859
 50
89.2756401806551025
 51
97.6694835127339331
  0
LINE
  5
3241
  8
0
 10
372.5072063723210931
 20
70.8284786083387559
 30
0.0
 11
371.9967920656209799
 21
70.8284786083387559
 31
0.0
  0
ARC
  5
3242
  8
0
 10
401.9674618110370261
 20
71.2793949920451126
 30
0.0
 40
0.1254974271225135
 50
0.194500702559962
 51
88.0671212811242441
  0
LINE
  5
3243
  8
0
 10
402.0929585150541925
 20
71.2798210145495119
 30
0.0
 11
402.0929585150541925
 21
43.5903897832048699
 31
0.0
  0
ARC
  5
3244
  8
0
 10
401.5462797388727836
 20
43.5552930317456131
 30
0.0
 40
0.5463203804503096
 50
354.0671914817738752
 51
358.9942219857459236
  0
ARC
  5
3245
  8
0
 10
399.7131472719099747
 20
43.5916136347584668
 30
0.0
 40
2.3798115578357608
 50
358.8946060668014866
 51
359.9705348385580237
  0
ARC
  5
3246
  8
0
 10
402.0586673382587719
 20
43.4988162003431
 30
0.0
 40
0.0310065772295424
 50
0.0147972765787762
 51
89.3889626774753197
  0
LINE
  5
3247
  8
0
 10
342.3790816500878122
 20
71.2798210143327395
 30
0.0
 11
342.3790816500878122
 21
43.4503617462496621
 31
0.0
  0
ARC
  5
3248
  8
0
 10
342.5041505207292971
 20
71.2797521507479956
 30
0.0
 40
0.1250688895997793
 50
90.0369508898510702
 51
179.9684526397797129
  0
ARC
  5
3249
  8
0
 10
345.0296355307349927
 20
43.4505316827392605
 30
0.0
 40
2.7775804666086739
 50
180.0884950740228021
 51
181.6900398816320035
  0
LINE
  5
324A
  8
0
 10
342.2532633057878115
 20
43.36861393723877
 30
0.0
 11
342.2850170320878078
 21
42.4144415037387503
 31
0.0
  0
ARC
  5
324B
  8
0
 10
342.3853663313337279
 20
42.4177810093362524
 30
0.0
 40
0.1004048512612139
 50
181.9060321282971131
 51
187.4162808178988087
  0
LINE
  5
324C
  8
0
 10
342.3019488571878242
 20
42.4048210143387507
 30
0.0
 11
342.3019488571878242
 21
42.1631310781387469
 31
0.0
  0
ARC
  5
324D
  8
0
 10
342.3328017171110105
 20
43.0448596162183392
 30
0.0
 40
0.8822681643521951
 50
267.9959617462337178
 51
270.034416881328184
  0
ARC
  5
324E
  8
0
 10
342.7651941905422177
 20
46.0832208806057011
 30
0.0
 40
0.0298775737019739
 50
87.5927040472718375
 51
174.2280645382633963
  0
LINE
  5
324F
  8
0
 10
342.7664491346877753
 20
46.113072087038752
 30
0.0
 11
342.9696910812878059
 21
46.1124469016387479
 31
0.0
  0
ARC
  5
3250
  8
0
 10
342.9696128947206262
 20
46.0870291773685494
 30
0.0
 40
0.0254178445233881
 50
28.0602051854428503
 51
89.8237550247267649
  0
ARC
  5
3251
  8
0
 10
342.9461209875855161
 20
46.0745066275087609
 30
0.0
 40
0.0520389631294528
 50
357.8958925747766102
 51
28.0602051854441008
  0
LINE
  5
3252
  8
0
 10
342.9981248641877869
 20
46.0725959988387501
 30
0.0
 11
342.9981371823877794
 21
44.9561764752387489
 31
0.0
  0
LINE
  5
3253
  8
0
 10
342.9981248641877869
 20
46.0725959988387501
 30
0.0
 11
342.9780060378877806
 21
45.9648852323387587
 31
0.0
  0
ARC
  5
3254
  8
0
 10
344.2520844280767847
 20
45.7858151136222205
 30
0.0
 40
1.286532360738639
 50
171.9991406114978929
 51
180.4721035324095908
  0
LINE
  5
3255
  8
0
 10
342.9655957407878191
 20
45.7752145143387565
 30
0.0
 11
342.9632460075878271
 21
45.2804420478387684
 31
0.0
  0
ARC
  5
3256
  8
0
 10
344.2439523956106768
 20
45.2593372681821933
 30
0.0
 40
1.2808802692082559
 50
179.0559074478553043
 51
187.3951296938448934
  0
LINE
  5
3257
  8
0
 10
342.9737263516877874
 20
45.0944735020387384
 30
0.0
 11
342.9981371823877794
 21
44.9561764752387489
 31
0.0
  0
ARC
  5
3258
  8
0
 10
342.9399394915712946
 20
44.9532604931565132
 30
0.0
 40
0.0582706973347749
 50
334.7133573147515904
 51
2.8683932701619228
  0
ARC
  5
3259
  8
0
 10
342.9686727254260745
 20
44.9396865501338567
 30
0.0
 40
0.0264925498598354
 50
273.2582910669910916
 51
334.7133573147538073
  0
LINE
  5
325A
  8
0
 10
342.9701784893878198
 20
44.9132368266387587
 30
0.0
 11
342.7644329894877728
 21
44.9132368279387606
 31
0.0
  0
ARC
  5
325B
  8
0
 10
342.7644329896855879
 20
44.9445361152366871
 30
0.0
 40
0.0312992872979336
 50
188.1773546529647092
 51
269.9999996379772824
  0
LINE
  5
325C
  8
0
 10
342.733451937087807
 20
44.9400841757387468
 30
0.0
 11
342.7427992801877963
 21
45.0946258202387469
 31
0.0
  0
ARC
  5
325D
  8
0
 10
338.2866923825019967
 20
45.2793396709681488
 30
0.0
 40
4.4599336194896386
 50
357.6263431441702778
 51
0.0623188456108421
  0
LINE
  5
325E
  8
0
 10
342.7466233638878066
 20
45.2841906017387501
 30
0.0
 11
342.746623352087795
 21
45.7754124786387635
 31
0.0
  0
ARC
  5
325F
  8
0
 10
338.8625121120483072
 20
45.7919028850745065
 30
0.0
 40
3.884146245767008
 50
359.7567461496382748
 51
2.554975541844231
  0
LINE
  5
3260
  8
0
 10
342.7427971618877791
 20
45.9650501937387475
 30
0.0
 11
342.7354680935878264
 21
46.0862256365387566
 31
0.0
  0
ARC
  5
3261
  8
0
 10
343.8225669222932765
 20
43.4525799706112821
 30
0.0
 40
1.443486976592959
 50
180.0880471704591912
 51
181.6908907709101868
  0
LINE
  5
3262
  8
0
 10
342.3797084918878113
 20
43.4099865274387611
 30
0.0
 11
342.4110736895877949
 21
42.4674889819387573
 31
0.0
  0
ARC
  5
3263
  8
0
 10
342.8874254450627745
 20
42.483341401986479
 30
0.0
 40
0.4766154573295515
 50
181.9060319958240086
 51
185.7221160876243005
  0
ARC
  5
3264
  8
0
 10
342.3807527461173095
 20
42.4357099804878004
 30
0.0
 40
0.0324323309363085
 50
287.7468103112469748
 51
0.1961556041856928
  0
ARC
  5
3265
  8
0
 10
342.4522201872711094
 20
42.5791334890728095
 30
0.0
 40
0.0310442311608922
 50
180.2207331520970115
 51
269.8839063592254206
  0
LINE
  5
3266
  8
0
 10
342.4521572849877771
 20
42.5480893216387415
 30
0.0
 11
342.7652650550878093
 21
42.548089321538761
 31
0.0
  0
ARC
  5
3267
  8
0
 10
342.7625300806403743
 20
42.5106048222198822
 30
0.0
 40
0.0375841425925162
 50
0.4915549453048284
 51
85.8269335787214516
  0
LINE
  5
3268
  8
0
 10
342.8001128400778725
 20
42.5109272621042891
 30
0.0
 11
342.8032052276877835
 21
42.4358205516387628
 31
0.0
  0
ARC
  5
3269
  8
0
 10
342.7745832939482966
 20
42.431768718465527
 30
0.0
 40
0.0289073077793201
 50
291.2178988045159258
 51
8.0574750251903957
  0
LINE
  5
326A
  8
0
 10
342.4450004402004879
 20
43.5298210143387578
 30
0.0
 11
342.6667508338878179
 21
43.5298210143387578
 31
0.0
  0
ARC
  5
326B
  8
0
 10
342.4538550052309915
 20
43.4988285788444102
 30
0.0
 40
0.0309944358663273
 50
90.6509590201168152
 51
180.0139836148171071
  0
LINE
  5
326C
  8
0
 10
342.4228605702878099
 20
43.4988210143387519
 30
0.0
 11
342.4211761864877985
 21
42.5790138908387519
 31
0.0
  0
ARC
  5
326D
  8
0
 10
342.4463548842413161
 20
42.5709087297483606
 30
0.0
 40
0.0391428886134008
 50
190.518988354593489
 51
266.6023977887392107
  0
LINE
  5
326E
  8
0
 10
342.4302886551848246
 20
42.5571618667221188
 30
0.0
 11
342.4204490906155911
 21
42.5415649810848819
 31
0.0
  0
LINE
  5
326F
  8
0
 10
342.4440350966877986
 20
42.5318346422387634
 30
0.0
 11
342.6055364448877754
 21
42.5318360391387387
 31
0.0
  0
ARC
  5
3270
  8
0
 10
342.6055217075647192
 20
44.2356785238142507
 30
0.0
 40
1.703842484739239
 50
270.0004955777436066
 51
274.5312954371427168
  0
ARC
  5
3271
  8
0
 10
342.7341982514421943
 20
42.6120268238822106
 30
0.0
 40
0.0750998728952161
 50
274.5312954371427168
 51
292.076357140313803
  0
LINE
  5
3272
  8
0
 10
342.7624239305877722
 20
42.54243298833876
 30
0.0
 11
342.7652650550878093
 21
42.548089321538761
 31
0.0
  0
ARC
  5
3273
  8
0
 10
342.6667489982929737
 20
43.5930760591357966
 30
0.0
 40
0.0632550448236866
 50
270.0016626632267958
 51
359.7689607910842255
  0
LINE
  5
3274
  8
0
 10
342.7299990437878137
 20
43.5928210173387711
 30
0.0
 11
342.7323723681877823
 21
44.88963487573875
 31
0.0
  0
ARC
  5
3275
  8
0
 10
344.0219755366534855
 20
44.8872747477633993
 30
0.0
 40
1.289605328122073
 50
177.6530775989006088
 51
179.8951419906263141
  0
LINE
  5
3276
  8
0
 10
342.7343866404877986
 20
46.1421204049387725
 30
0.0
 11
342.7356048343878001
 21
62.8873939578387677
 31
0.0
  0
ARC
  5
3277
  8
0
 10
343.8622901159984053
 20
46.1359852566896791
 30
0.0
 40
1.127920161231714
 50
179.6883468823158978
 51
182.5284961401929991
  0
ARC
  5
3278
  8
0
 10
342.7664144938423192
 20
64.1155285531057046
 30
0.0
 40
0.0298775737019739
 50
87.5927040472718375
 51
174.2280645382633963
  0
LINE
  5
3279
  8
0
 10
342.7676694379878199
 20
64.1453797595387556
 30
0.0
 11
342.972655314287806
 21
64.1415643376387692
 31
0.0
  0
ARC
  5
327A
  8
0
 10
342.9725771277206263
 20
64.1161466133685707
 30
0.0
 40
0.0254178445233881
 50
28.0602051854426691
 51
89.8237550247267649
  0
ARC
  5
327B
  8
0
 10
342.9490852205855163
 20
64.1036240635087751
 30
0.0
 40
0.0520389631294528
 50
357.8958925747766102
 51
28.0602051854441008
  0
LINE
  5
327C
  8
0
 10
343.001089097187787
 20
64.1017134348387714
 30
0.0
 11
343.0011383100377884
 21
62.9582365524387768
 31
0.0
  0
LINE
  5
327D
  8
0
 10
343.001089097187787
 20
64.1017134348387714
 30
0.0
 11
342.9809702708877808
 21
63.9940026683387799
 31
0.0
  0
ARC
  5
327E
  8
0
 10
344.2550486610767848
 20
63.8149325496222417
 30
0.0
 40
1.286532360738639
 50
171.999140611497495
 51
180.4721035324095908
  0
LINE
  5
327F
  8
0
 10
342.9685599737878192
 20
63.8043319503387707
 30
0.0
 11
342.9662471352377793
 21
63.2825021250387607
 31
0.0
  0
ARC
  5
3280
  8
0
 10
344.2469535232606859
 20
63.2613973453821785
 30
0.0
 40
1.2808802692082559
 50
179.0559074478553043
 51
187.3951296938448934
  0
LINE
  5
3281
  8
0
 10
342.9767274793377965
 20
63.0965335792387734
 30
0.0
 11
343.0011383100377884
 21
62.9582365524387768
 31
0.0
  0
ARC
  5
3282
  8
0
 10
342.9429406192213037
 20
62.9553205703564984
 30
0.0
 40
0.0582706973347749
 50
334.7133573147515904
 51
2.8683932701619228
  0
ARC
  5
3283
  8
0
 10
342.9716738530760836
 20
62.9417466273338704
 30
0.0
 40
0.0264925498598354
 50
273.2582910669910916
 51
334.7133573147538073
  0
LINE
  5
3284
  8
0
 10
342.973179617037772
 20
62.9152969038387511
 30
0.0
 11
342.7674341171377819
 21
62.9152969051387601
 31
0.0
  0
ARC
  5
3285
  8
0
 10
342.7674341173354833
 20
62.9465961924367008
 30
0.0
 40
0.0312992872979336
 50
188.1773546529647092
 51
269.9999996379772824
  0
LINE
  5
3286
  8
0
 10
342.736453064737816
 20
62.9421442529387676
 30
0.0
 11
342.7458004078378053
 21
63.0966858974387819
 31
0.0
  0
ARC
  5
3287
  8
0
 10
338.2896935101520057
 20
63.2813997481681412
 30
0.0
 40
4.4599336194896386
 50
357.6263431441702778
 51
0.0623188456108421
  0
LINE
  5
3288
  8
0
 10
342.7496244915378156
 20
63.2862506789387709
 30
0.0
 11
342.7495875850877951
 21
63.8045299146387634
 31
0.0
  0
ARC
  5
3289
  8
0
 10
413.3768383004846214
 20
65.7189196257625525
 30
0.0
 40
70.6531912342363739
 50
181.4099055362198953
 51
181.5526528206704882
  0
LINE
  5
328A
  8
0
 10
342.7450372560878122
 20
63.9804971206387592
 30
0.0
 11
342.7366883968878142
 21
64.1185333090387672
 31
0.0
  0
ARC
  5
328B
  8
0
 10
343.676801016444017
 20
62.9001939982025888
 30
0.0
 40
0.9412832167581067
 50
177.4456477200751863
 51
180.7791607055141014
  0
ARC
  5
328C
  8
0
 10
343.8359334811291887
 20
64.1675759387866123
 30
0.0
 40
1.1003385546654341
 50
179.7567171740525112
 51
182.5545472349928104
  0
LINE
  5
328D
  8
0
 10
342.7356048455877726
 20
64.1722480572387468
 30
0.0
 11
342.7343297704878182
 21
70.9333209635387476
 31
0.0
  0
ARC
  5
328E
  8
0
 10
342.8598765049505914
 20
70.933119766256354
 30
0.0
 40
0.1255468956789468
 50
94.252566378029357
 51
179.9081796487006102
  0
ARC
  5
328F
  8
0
 10
342.8462563530392231
 20
70.9332462122866758
 30
0.0
 40
0.1250748265194683
 50
90.0358382121868601
 51
179.9657337292520936
  0
LINE
  5
3290
  8
0
 10
342.7211815488877846
 20
70.9333210144417734
 30
0.0
 11
342.7211815488877846
 21
43.5927245067994988
 31
0.0
  0
ARC
  5
3291
  8
0
 10
342.6581962124546976
 20
43.5928037612872075
 30
0.0
 40
0.0629853862960713
 50
270.5245267438036763
 51
359.9279047233189885
  0
LINE
  5
3292
  8
0
 10
342.2532633057878115
 20
43.36861393723877
 30
0.0
 11
342.3197446765877885
 21
43.3686139355387468
 31
0.0
  0
ARC
  5
3293
  8
0
 10
342.3197446785571856
 20
43.4456303153994696
 30
0.0
 40
0.0770163798607158
 50
269.9999985348791824
 51
299.6503244305154112
  0
ARC
  5
3294
  8
0
 10
342.3358375124075224
 20
43.4173596497919618
 30
0.0
 40
0.0444862425227566
 50
299.6503244305154112
 51
350.4598106313717949
  0
ARC
  5
3295
  8
0
 10
342.53653663430498
 20
71.2793949920451126
 30
0.0
 40
0.1254974271225135
 50
91.9328787188757701
 51
179.8054992974400079
  0
LINE
  5
3296
  8
0
 10
342.4110399302878136
 20
71.2798210145495119
 30
0.0
 11
342.4110399302878136
 21
43.5903897832048699
 31
0.0
  0
ARC
  5
3297
  8
0
 10
342.9577187064692225
 20
43.5552930317456131
 30
0.0
 40
0.5463203804503096
 50
181.0057780142539912
 51
185.9328085182260111
  0
ARC
  5
3298
  8
0
 10
344.7908511734320882
 20
43.5916136347584668
 30
0.0
 40
2.3798115578357608
 50
180.0294651614420047
 51
181.1053939331985134
  0
ARC
  5
3299
  8
0
 10
342.445331107083291
 20
43.4988162003431
 30
0.0
 40
0.0310065772295424
 50
90.6110373225246661
 51
179.985202723421196
  0
LINE
  5
329A
  8
0
 10
357.818178408187805
 20
70.794896038638754
 30
0.0
 11
356.6859383402878052
 21
70.7948960366387468
 31
0.0
  0
ARC
  5
329B
  8
0
 10
356.685938340168093
 20
70.862629320618808
 30
0.0
 40
0.0677332839800471
 50
246.1490196228349987
 51
270.0000001012111284
  0
ARC
  5
329C
  8
0
 10
356.6690310621665958
 20
70.8243875820629256
 30
0.0
 40
0.025920766509809
 50
183.4551001405401109
 51
246.1490196228596972
  0
LINE
  5
329D
  8
0
 10
356.6431574109877829
 20
70.8228254325387354
 30
0.0
 11
356.6369698554877914
 21
71.027321014338753
 31
0.0
  0
ARC
  5
329E
  8
0
 10
356.6687424788033809
 20
71.0282823792172309
 30
0.0
 40
0.031787164308695
 50
140.6325755724097064
 51
181.7331068035747137
  0
ARC
  5
329F
  8
0
 10
356.6659459137139834
 20
71.0305768421451518
 30
0.0
 40
0.0281697983571618
 50
99.972596891823045
 51
140.6325755724082001
  0
LINE
  5
32A0
  8
0
 10
356.6859383402878052
 20
70.7948960366387468
 30
0.0
 11
356.8071916644877888
 21
70.8169696951387522
 31
0.0
  0
ARC
  5
32A1
  8
0
 10
356.980439915001682
 20
69.5304376991922624
 30
0.0
 40
1.2981446502220859
 50
89.2756401806551025
 51
97.6694835127339331
  0
ARC
  5
32A2
  8
0
 10
357.8181784157075072
 20
70.862629320618808
 30
0.0
 40
0.0677332839800471
 50
269.9999998987856884
 51
293.8509803771618749
  0
ARC
  5
32A3
  8
0
 10
357.8350856937090043
 20
70.8243875820629256
 30
0.0
 40
0.025920766509809
 50
293.8509803771402744
 51
356.5448998594598038
  0
LINE
  5
32A4
  8
0
 10
357.8609593448878172
 20
70.8228254325387354
 30
0.0
 11
357.8671469003878087
 21
71.027321014338753
 31
0.0
  0
ARC
  5
32A5
  8
0
 10
357.8353742770722192
 20
71.0282823792172309
 30
0.0
 40
0.031787164308695
 50
358.266893196425201
 51
39.367424427590251
  0
ARC
  5
32A6
  8
0
 10
357.8381708421616167
 20
71.0305768421451518
 30
0.0
 40
0.0281697983571618
 50
39.3674244275918213
 51
80.0274031081769408
  0
LINE
  5
32A7
  8
0
 10
357.8181784155877949
 20
70.7948960366387468
 30
0.0
 11
357.6969250913878113
 21
70.8169696951387522
 31
0.0
  0
ARC
  5
32A8
  8
0
 10
357.5236768408739181
 20
69.5304376991922624
 30
0.0
 40
1.2981446502220859
 50
82.3305164872660811
 51
90.724359819348166
  0
LINE
  5
32A9
  8
0
 10
356.9968512245877719
 20
70.8284786083387559
 30
0.0
 11
357.5072655312878283
 21
70.8284786083387559
 31
0.0
  0
LINE
  5
32AA
  8
0
 10
342.4157092906538082
 20
71.3681850403788616
 30
0.0
 11
342.4464606094384749
 21
71.3667787088269421
 31
0.0
  0
LINE
  5
32AB
  8
0
 10
342.7679372990672846
 20
71.0186136574777152
 30
0.0
 11
342.7578138818424236
 21
71.0216862570485432
 31
0.0
  0
LINE
  5
32AC
  8
0
 10
342.7113874482424762
 20
43.5482585460215574
 30
0.0
 11
342.7029091015868971
 21
43.5484425571521001
 31
0.0
  0
ARC
  5
32AD
  8
0
 10
367.7517074959238244
 20
57.3994885764139298
 30
0.0
 40
31.7783400219248193
 50
355.2714235054037886
 51
359.9857135102037091
  0
LINE
  5
32AE
  8
0
 10
401.792610997099473
 20
43.5482585460215574
 30
0.0
 11
401.801089343755109
 21
43.5484425571521001
 31
0.0
  0
LINE
  5
32AF
  8
0
 10
401.7360611462747784
 20
71.0186136574777152
 30
0.0
 11
401.7461845634995825
 21
71.0216862570485432
 31
0.0
  0
LINE
  5
32B0
  8
0
 10
402.0882891546881979
 20
71.3681850403788616
 30
0.0
 11
402.0575378359035881
 21
71.3667787088269421
 31
0.0
  0
ARC
  5
32B1
  8
0
 10
392.0179765643472933
 20
59.4236611834976571
 30
0.0
 40
3.1936069848280781
 50
6.0765310610518046
 51
35.8757894784118321
  0
ARC
  5
32B2
  8
0
 10
390.4669973487938819
 20
58.4790424200047809
 30
0.0
 40
5.0059812193822113
 50
34.2330731997506632
 51
52.3420221053407673
  0
ARC
  5
32B3
  8
0
 10
387.820504119414295
 20
55.8654152972037394
 30
0.0
 40
8.7062577505713552
 50
49.0604770380156623
 51
72.8901804703104546
  0
ARC
  5
32B4
  8
0
 10
384.4518779379470175
 20
37.7608764661689875
 30
0.0
 40
27.0826775171289498
 50
77.3520003202299762
 51
85.2035288628245837
  0
ARC
  5
32B5
  8
0
 10
363.7687627375282773
 20
-172.7883844597814118
 30
0.0
 40
238.6429703519596899
 50
84.4819680710223935
 51
88.9585683144809423
  0
ARC
  5
32B6
  8
0
 10
367.5911188766821738
 20
42.1852118977345967
 30
0.0
 40
23.6355664978579796
 50
88.7512832433926349
 51
95.6898969442124923
  0
ARC
  5
32B7
  8
0
 10
365.9646907493220169
 20
57.5603914873665801
 30
0.0
 40
8.1754293516651142
 50
95.0307276032106358
 51
125.7607427693180995
  0
ARC
  5
32B8
  8
0
 10
367.0348223925979028
 20
56.9248979671304625
 30
0.0
 40
9.3297432152611321
 50
128.8143020956358953
 51
157.7106067244548058
  0
ARC
  5
32B9
  8
0
 10
392.0179765643472933
 20
55.3859808451798372
 30
0.0
 40
3.1936069848280781
 50
324.1242105215879974
 51
353.9234689389489859
  0
ARC
  5
32BA
  8
0
 10
390.4669973487938819
 20
56.3305996086727276
 30
0.0
 40
5.0059812193822113
 50
307.6579778946593819
 51
325.7669268002492231
  0
ARC
  5
32BB
  8
0
 10
387.820504119414295
 20
58.9442267314737904
 30
0.0
 40
8.7062577505713552
 50
287.1098195296895028
 51
310.9395229619843235
  0
ARC
  5
32BC
  8
0
 10
384.4518779379470175
 20
77.048765562508521
 30
0.0
 40
27.0826775171289498
 50
274.7964711371753879
 51
282.6479996797700096
  0
ARC
  5
32BD
  8
0
 10
363.7687627375282773
 20
287.598026488459027
 30
0.0
 40
238.6429703519596899
 50
271.0414316855191146
 51
275.5180319289776207
  0
ARC
  5
32BE
  8
0
 10
367.5911188766821738
 20
72.6244301309429119
 30
0.0
 40
23.6355664978579796
 50
264.310103055787522
 51
271.2487167566040966
  0
ARC
  5
32BF
  8
0
 10
365.9646907493220169
 20
57.2492505413109285
 30
0.0
 40
8.1754293516651142
 50
234.2392572306818863
 51
264.9692723967893926
  0
ARC
  5
32C0
  8
0
 10
367.0348223925979028
 20
57.884744061547039
 30
0.0
 40
9.3297432152611321
 50
202.2893932755455069
 51
231.1856979043641047
  0
ARC
  5
32C1
  8
0
 10
364.3941422685429075
 20
57.4048210143387578
 30
0.0
 40
30.8895460721310187
 50
355.62401823869601
 51
4.3759817613040166
  0
ARC
  5
32C2
  8
0
 10
366.555604843562719
 20
57.4048210143387578
 30
0.0
 40
8.7082566138083664
 50
159.4366858579616917
 51
200.5633141420385925
  0
ENDSEC
  0
EOF
