  0
SECTION
  2
HEADER
  9
$ACADVER
  1
AC1009
  9
$INSBASE
 10
368.8835232294214279
 20
-43.2020900570238808
 30
0.0
  9
$EXTMIN
 10
338.883582383938176
 20
-43.2020900570238808
 30
0.0
  9
$EXTMAX
 10
398.8834640749046798
 20
-26.5886599570238609
 30
0.0
  9
$LIMMIN
 10
0.0
 20
0.0
  9
$LIMMAX
 10
11.6929133858000007
 20
8.2677165353999982
  9
$ORTHOMODE
 70
     1
  9
$REGENMODE
 70
     1
  9
$FILLMODE
 70
     1
  9
$QTEXTMODE
 70
     0
  9
$MIRRTEXT
 70
     0
  9
$DRAGMODE
 70
     2
  9
$LTSCALE
 40
0.6431102362
  9
$OSMODE
 70
    23
  9
$ATTMODE
 70
     1
  9
$TEXTSIZE
 40
0.2
  9
$TRACEWID
 40
0.05
  9
$TEXTSTYLE
  7
STANDARD
  9
$CLAYER
  8
0
  9
$CELTYPE
  6
BYLAYER
  9
$CECOLOR
 62
   256
  9
$DIMSCALE
 40
1.0
  9
$DIMASZ
 40
0.1875
  9
$DIMEXO
 40
0.0625
  9
$DIMDLI
 40
0.4443307087
  9
$DIMRND
 40
0.0
  9
$DIMDLE
 40
0.0
  9
$DIMEXE
 40
0.125
  9
$DIMTP
 40
0.01
  9
$DIMTM
 40
0.01
  9
$DIMTXT
 40
2.0
  9
$DIMCEN
 40
0.1052362205
  9
$DIMTSZ
 40
0.0
  9
$DIMTOL
 70
     1
  9
$DIMLIM
 70
     0
  9
$DIMTIH
 70
     1
  9
$DIMTOH
 70
     1
  9
$DIMSE1
 70
     0
  9
$DIMSE2
 70
     0
  9
$DIMTAD
 70
     0
  9
$DIMZIN
 70
     0
  9
$DIMBLK
  1

  9
$DIMASO
 70
     1
  9
$DIMSHO
 70
     1
  9
$DIMPOST
  1
\X
  9
$DIMAPOST
  1

  9
$DIMALT
 70
     1
  9
$DIMALTD
 70
     2
  9
$DIMALTF
 40
25.3999999999999986
  9
$DIMLFAC
 40
1.0
  9
$DIMTOFL
 70
     0
  9
$DIMTVP
 40
0.0
  9
$DIMTIX
 70
     0
  9
$DIMSOXD
 70
     0
  9
$DIMSAH
 70
     0
  9
$DIMBLK1
  1

  9
$DIMBLK2
  1

  9
$DIMSTYLE
  2
STANDARD
  9
$DIMCLRD
 70
     0
  9
$DIMCLRE
 70
     0
  9
$DIMCLRT
 70
     0
  9
$DIMTFAC
 40
1.0
  9
$DIMGAP
 40
0.09
  9
$LUNITS
 70
     2
  9
$LUPREC
 70
     4
  9
$SKETCHINC
 40
0.1
  9
$FILLETRAD
 40
0.0
  9
$AUNITS
 70
     0
  9
$AUPREC
 70
     0
  9
$MENU
  1
.
  9
$ELEVATION
 40
0.0
  9
$PELEVATION
 40
0.0
  9
$THICKNESS
 40
0.0
  9
$LIMCHECK
 70
     0
  9
$BLIPMODE
 70
     0
  9
$CHAMFERA
 40
0.0
  9
$CHAMFERB
 40
0.0
  9
$SKPOLY
 70
     0
  9
$TDCREATE
 40
2458106.4931018520146608
  9
$TDUPDATE
 40
2459718.7740624998696148
  9
$TDINDWG
 40
0.2698596759
  9
$TDUSRTIMER
 40
0.2698596759
  9
$USRTIMER
 70
     1
  9
$ANGBASE
 50
0.0
  9
$ANGDIR
 70
     0
  9
$PDMODE
 70
     0
  9
$PDSIZE
 40
0.3125
  9
$PLINEWID
 40
0.0
  9
$COORDS
 70
     1
  9
$SPLFRAME
 70
     0
  9
$SPLINETYPE
 70
     6
  9
$SPLINESEGS
 70
     8
  9
$ATTDIA
 70
     1
  9
$ATTREQ
 70
     1
  9
$HANDLING
 70
     1
  9
$HANDSEED
  5
2F37
  9
$SURFTAB1
 70
     6
  9
$SURFTAB2
 70
     6
  9
$SURFTYPE
 70
     6
  9
$SURFU
 70
     6
  9
$SURFV
 70
     6
  9
$UCSNAME
  2

  9
$UCSORG
 10
0.0
 20
0.0
 30
0.0
  9
$UCSXDIR
 10
1.0
 20
0.0
 30
0.0
  9
$UCSYDIR
 10
0.0
 20
1.0
 30
0.0
  9
$PUCSNAME
  2

  9
$PUCSORG
 10
0.0
 20
0.0
 30
0.0
  9
$PUCSXDIR
 10
1.0
 20
0.0
 30
0.0
  9
$PUCSYDIR
 10
0.0
 20
1.0
 30
0.0
  9
$USERI1
 70
     0
  9
$USERI2
 70
     0
  9
$USERI3
 70
     0
  9
$USERI4
 70
     0
  9
$USERI5
 70
     0
  9
$USERR1
 40
0.0
  9
$USERR2
 40
0.0
  9
$USERR3
 40
0.0
  9
$USERR4
 40
0.0
  9
$USERR5
 40
0.0
  9
$WORLDVIEW
 70
     1
  9
$SHADEDGE
 70
     3
  9
$SHADEDIF
 70
    70
  9
$TILEMODE
 70
     1
  9
$MAXACTVP
 70
    64
  9
$PLIMCHECK
 70
     0
  9
$PEXTMIN
 10
1.0000000000000000E+20
 20
1.0000000000000000E+20
 30
1.0000000000000000E+20
  9
$PEXTMAX
 10
-1.0000000000000000E+20
 20
-1.0000000000000000E+20
 30
-1.0000000000000000E+20
  9
$PLIMMIN
 10
0.0
 20
0.0
  9
$PLIMMAX
 10
12.0
 20
9.0
  9
$UNITMODE
 70
     0
  9
$VISRETAIN
 70
     1
  9
$PLINEGEN
 70
     0
  9
$PSLTSCALE
 70
     1
  0
ENDSEC
  0
SECTION
  2
TABLES
  0
TABLE
  2
VPORT
 70
     1
  0
VPORT
  2
*ACTIVE
 70
     0
 10
0.0
 20
0.0
 11
1.0
 21
1.0
 12
95.3006794493726233
 22
-17.289927221474251
 13
0.0
 23
0.0
 14
1.0
 24
1.0
 15
0.0
 25
0.0
 16
-0.0000000000000568
 26
0.0
 36
193.9250709296327955
 17
273.5742015565131169
 27
-17.6059607340214797
 37
0.0
 40
30.0434897553521907
 41
2.005224660397074
 42
50.0
 43
0.0
 44
0.0
 50
0.0
 51
0.0
 71
     0
 72
   100
 73
     1
 74
     1
 75
     0
 76
     0
 77
     0
 78
     0
  0
ENDTAB
  0
TABLE
  2
LTYPE
 70
     2
  0
LTYPE
  2
CONTINUOUS
 70
     0
  3
Solid line
 72
    65
 73
     0
 40
0.0
  0
LTYPE
  2
PHANTOM2
 70
     0
  3
___ _ _ ___ _ _ ___ _ _ ___ _ _
 72
    65
 73
     6
 40
1.25
 49
0.625
 49
-0.125
 49
0.125
 49
-0.125
 49
0.125
 49
-0.125
  0
ENDTAB
  0
TABLE
  2
LAYER
 70
     2
  0
LAYER
  2
0
 70
     0
 62
   255
  6
CONTINUOUS
  0
LAYER
  2
DEFPOINTS
 70
     0
 62
     7
  6
CONTINUOUS
  0
ENDTAB
  0
TABLE
  2
STYLE
 70
     1
  0
STYLE
  2
STANDARD
 70
     0
 40
0.0
 41
0.8
 50
0.0
 71
     0
 42
0.2
  3
txt
  4

  0
ENDTAB
  0
TABLE
  2
VIEW
 70
     0
  0
ENDTAB
  0
TABLE
  2
UCS
 70
     0
  0
ENDTAB
  0
TABLE
  2
APPID
 70
     9
  0
APPID
  2
ACAD
 70
     0
  0
APPID
  2
ACAD_MLEADERVER
 70
     0
  0
APPID
  2
ACAD_EXEMPT_FROM_CAD_STANDARDS
 70
     0
  0
APPID
  2
ACAD_NAV_VCDISPLAY
 70
     0
  0
APPID
  2
ACAD_DSTYLE_DIMJAG
 70
     0
  0
APPID
  2
ACAD_DSTYLE_DIMTALN
 70
     0
  0
APPID
  2
ACAECLAYERSTANDARD
 70
     0
  0
APPID
  2
ACCMTRANSPARENCY
 70
     0
  0
APPID
  2
ACDBATTR
 70
     0
  0
ENDTAB
  0
TABLE
  2
DIMSTYLE
 70
     1
  0
DIMSTYLE
  2
STANDARD
 70
     0
  3

  4

  5

  6

  7

 40
1.0
 41
0.1875
 42
0.0625
 43
0.38
 44
0.125
 45
0.0
 46
0.0
 47
0.01
 48
0.01
140
0.15625
141
0.09
142
0.0
143
25.3999999999999986
144
1.0
145
0.0
146
1.0
147
0.09
 71
     1
 72
     0
 73
     1
 74
     1
 75
     0
 76
     0
 77
     0
 78
     4
170
     0
171
     2
172
     0
173
     0
174
     0
175
     0
176
     0
177
     0
178
     0
  0
ENDTAB
  0
ENDSEC
  0
SECTION
  2
BLOCKS
  0
BLOCK
  8
0
  2
$MODEL_SPACE
 70
     0
 10
0.0
 20
0.0
 30
0.0
  3
$MODEL_SPACE
  1

  0
ENDBLK
  5
21
  8
0
  0
BLOCK
 67
     1
  8
0
  2
$PAPER_SPACE
 70
     0
 10
0.0
 20
0.0
 30
0.0
  3
$PAPER_SPACE
  1

  0
ENDBLK
  5
1D
 67
     1
  8
0
  0
BLOCK
  8
0
  2
_FILLED
 70
     0
 10
0.0
 20
0.0
 30
0.0
  3
_FILLED
  1

  0
SOLID
  5
2D47
  8
0
  6
BYBLOCK
 62
     0
 10
0.0
 20
0.0
 30
0.0
 11
-1.0
 21
0.1666666667
 31
0.0
 12
-1.0
 22
-0.1666666667
 32
0.0
 13
-1.0
 23
-0.1666666667
 33
0.0
  0
ENDBLK
  5
2D48
  8
0
  6
BYBLOCK
 62
     0
  0
ENDSEC
  0
SECTION
  2
ENTITIES
  0
ATTDEF
  5
FAA
  8
DEFPOINTS
 10
368.8836527427154124
 20
-43.1986124630319992
 30
0.0
 40
0.001
  1
71341920
  3

  2
MODELNUMBER
 70
     0
1001
ACDBATTR
1070
     0
1070
     1
  0
ATTDEF
  5
FAB
  8
DEFPOINTS
 10
368.8836527427154124
 20
-43.2002791296986715
 30
0.0
 40
0.001
  1
PERFORMA2
  3

  2
TRADENAME
 70
     0
1001
ACDBATTR
1070
     0
1070
     1
  0
ATTDEF
  5
FAC
  8
DEFPOINTS
 10
368.8836527427154124
 20
-43.2019457963653366
 30
0.0
 40
0.001
  1
BATH
  3

  2
PRODUCT
 70
     0
1001
ACDBATTR
1070
     0
1070
     1
  0
LINE
  5
2D7B
  8
0
 10
398.3379201045082141
 20
-27.8922576040238788
 30
0.0
 11
339.4291263543346986
 21
-27.8922576040238788
 31
0.0
  0
LINE
  5
2D7C
  8
0
 10
398.342101121004589
 20
-27.7725289560238693
 30
0.0
 11
398.3323172244046759
 21
-28.0527030986238692
 31
0.0
  0
ARC
  5
2D7D
  8
0
 10
399.1475596612643244
 20
-28.0534436938589202
 30
0.0
 40
0.8152427732510513
 50
179.947950489689191
 51
189.3207513528261074
  0
LINE
  5
2D7E
  8
0
 10
398.3430804388046909
 20
-28.1854814156238795
 30
0.0
 11
398.3558437126047238
 21
-28.2672575812238911
 31
0.0
  0
LINE
  5
2D7F
  8
0
 10
398.3558437126047238
 20
-28.2672575812238911
 30
0.0
 11
339.4112027462381889
 21
-28.2672575812238911
 31
0.0
  0
ARC
  5
2D80
  8
0
 10
398.52998659675319
 20
-27.7790900571439998
 30
0.0
 40
0.1880000001201205
 50
90.0000000147895349
 51
178.0000013003503057
  0
ARC
  5
2D81
  8
0
 10
398.6944670600046834
 20
-27.5610900570238684
 30
0.0
 40
0.0300000000000011
 50
269.9999999999869829
 51
357.9987819023079965
  0
ARC
  5
2D82
  8
0
 10
398.8026191022049147
 20
-43.171138494565831
 30
0.0
 40
0.0309545261547637
 50
270.7928588807367873
 51
359.915762393603984
  0
LINE
  5
2D83
  8
0
 10
398.8335735949046921
 20
-43.1711840046238677
 30
0.0
 11
398.8335735949046921
 21
-27.96438640576579
 31
0.0
  0
LINE
  5
2D84
  8
0
 10
398.8362206129560263
 20
-27.9407115647380309
 30
0.0
 11
398.8834640749046798
 21
-26.5886599570238609
 31
0.0
  0
ARC
  5
2D85
  8
0
 10
398.7818925247107131
 20
-27.5960509764597006
 30
0.0
 40
0.0641697340059712
 50
88.7155567997035206
 51
157.5511975050092985
  0
LINE
  5
2D86
  8
0
 10
398.7833309461046838
 20
-27.5318973678238805
 30
0.0
 11
398.8505054199823121
 21
-27.5318974029238994
 31
0.0
  0
LINE
  5
2D87
  8
0
 10
398.7244487625046077
 20
-27.562137681123879
 30
0.0
 11
398.7564407667047135
 21
-26.6465646293238692
 31
0.0
  0
LINE
  5
2D88
  8
0
 10
395.0310308162045771
 20
-31.3942094679238686
 30
0.0
 11
394.7864688297045745
 21
-33.0217737384238532
 31
0.0
  0
ARC
  5
2D89
  8
0
 10
69.2449551790333544
 20
22.1211010414642288
 30
0.0
 40
330.1787602935121981
 50
349.3586796361202005
 51
350.3860298679035168
  0
ARC
  5
2D8A
  8
0
 10
393.4482475360462104
 20
-38.8091638201003022
 30
0.0
 40
0.29995694399143
 50
273.9674965927193853
 51
352.2206021296623248
  0
LINE
  5
2D8B
  8
0
 10
393.4690017228676879
 20
-39.1084019058748922
 30
0.0
 11
390.3267666122783908
 21
-39.454566336986538
 31
0.0
  0
ARC
  5
2D8C
  8
0
 10
368.8838071837154189
 20
167.7425132915417976
 30
0.0
 40
208.3036973163119967
 50
273.6674356196210738
 51
275.9085429767184223
  0
LINE
  5
2D8D
  8
0
 10
398.8030474372043841
 20
-43.2020900570238808
 30
0.0
 11
338.9639990216385854
 21
-43.2020900570238808
 31
0.0
  0
LINE
  5
2D8E
  8
0
 10
398.6944670600046834
 20
-27.5910900570238695
 30
0.0
 11
339.0725793988381724
 21
-27.5910900570238695
 31
0.0
  0
ARC
  5
2D8F
  8
0
 10
338.9644273566379979
 20
-43.171138494565831
 30
0.0
 40
0.0309545261547637
 50
180.0842376063959023
 51
269.2071411192632127
  0
LINE
  5
2D90
  8
0
 10
338.9334728639382206
 20
-43.1711840046238677
 30
0.0
 11
338.9334728639382206
 21
-27.9643864057657616
 31
0.0
  0
LINE
  5
2D91
  8
0
 10
342.7360156426382218
 20
-31.3942094679238686
 30
0.0
 11
342.9805776291382244
 21
-33.0217737384238532
 31
0.0
  0
ARC
  5
2D92
  8
0
 10
668.5220912798095014
 20
22.1211010414642288
 30
0.0
 40
330.1787602935121981
 50
189.6139701320948916
 51
190.6413203638813911
  0
ARC
  5
2D93
  8
0
 10
344.3187989227967023
 20
-38.8091638201003022
 30
0.0
 40
0.29995694399143
 50
187.7793978703375899
 51
266.0325034072806147
  0
LINE
  5
2D94
  8
0
 10
344.2980447359752247
 20
-39.1084019058748922
 30
0.0
 11
347.4402798465645219
 21
-39.454566336986538
 31
0.0
  0
ARC
  5
2D95
  8
0
 10
368.8832392751273801
 20
167.7425132915417976
 30
0.0
 40
208.3036973163119967
 50
264.0914570232815777
 51
266.3325643803789262
  0
ARC
  5
2D96
  8
0
 10
368.8835232294218258
 20
167.745030816675893
 30
0.0
 40
208.3062278491013046
 50
266.3325307303662726
 51
273.6674692696337274
  0
LINE
  5
2D97
  8
0
 10
395.0310308162045771
 20
-31.3942094679238686
 30
0.0
 11
342.7360156426382218
 21
-31.3942094679238686
 31
0.0
  0
LINE
  5
2D99
  8
0
 10
398.8834640749046798
 20
-26.5886599570238609
 30
0.0
 11
338.883582383938176
 21
-26.5886599570238609
 31
0.0
  0
ARC
  5
2D9A
  8
0
 10
398.8165118621568013
 20
-26.6487371787784184
 30
0.0
 40
0.0601103691550838
 50
91.9028634748837447
 51
177.9287262249173125
  0
ARC
  5
2D9B
  8
0
 10
398.679848759436311
 20
-27.9352134615956906
 30
0.0
 40
0.1564684815270001
 50
349.2545428936417125
 51
357.9862847430320016
  0
ARC
  5
2D9C
  8
0
 10
398.4773024677047033
 20
-27.6540900570238186
 30
0.0
 40
0.0629999999999322
 50
90.0
 51
153.4690426989141088
  0
LINE
  5
2D9D
  8
0
 10
339.42494533783821
 20
-27.7725289560238693
 30
0.0
 11
339.4347292344381799
 21
-28.0527030986238692
 31
0.0
  0
ARC
  5
2D9E
  8
0
 10
338.6194867975785883
 20
-28.0534436938589202
 30
0.0
 40
0.8152427732510513
 50
350.6792486471738926
 51
0.0520495103107399
  0
LINE
  5
2D9F
  8
0
 10
339.4239660200382218
 20
-28.1854814156238795
 30
0.0
 11
339.4112027462381889
 21
-28.2672575812238911
 31
0.0
  0
ARC
  5
2DA0
  8
0
 10
339.2370598620896089
 20
-27.7790900571439998
 30
0.0
 40
0.1880000001201205
 50
1.9999986996496599
 51
89.9999999852104651
  0
ARC
  5
2DA1
  8
0
 10
339.0725793988381724
 20
-27.5610900570238684
 30
0.0
 40
0.0300000000000011
 50
182.0012180976918899
 51
270.0000000000130171
  0
LINE
  5
2DA2
  8
0
 10
338.9308258458868863
 20
-27.9407115647380309
 30
0.0
 11
338.883582383938176
 21
-26.5886599570238609
 31
0.0
  0
ARC
  5
2DA3
  8
0
 10
338.9851539341321995
 20
-27.5960509764597006
 30
0.0
 40
0.0641697340059712
 50
22.4488024949907015
 51
91.2844432002964936
  0
LINE
  5
2DA4
  8
0
 10
338.983715512738172
 20
-27.5318973678238805
 30
0.0
 11
338.9165410388604869
 21
-27.5318974029238994
 31
0.0
  0
LINE
  5
2DA5
  8
0
 10
339.0425976963381913
 20
-27.562137681123879
 30
0.0
 11
339.0106056921381992
 21
-26.6465646293238692
 31
0.0
  0
ARC
  5
2DA6
  8
0
 10
338.9505345966859977
 20
-26.6487371787784184
 30
0.0
 40
0.0601103691550838
 50
2.0712737750827142
 51
88.0971365251162553
  0
ARC
  5
2DA7
  8
0
 10
339.0871976994067154
 20
-27.9352134615956906
 30
0.0
 40
0.1564684815270001
 50
182.0137152569670889
 51
190.7454571063574065
  0
ARC
  5
2DA8
  8
0
 10
339.2897439911383231
 20
-27.6540900570238186
 30
0.0
 40
0.0629999999999322
 50
26.5309573010858983
 51
90.0
  0
ENDSEC
  0
EOF
