  0
SECTION
  2
HEADER
  9
$ACADVER
  1
AC1009
  9
$INSBASE
 10
779.3045723307521939
 20
12.9252149452249103
 30
0.0
  9
$EXTMIN
 10
749.9082340726386064
 20
12.9233164847922506
 30
-0.0000000000112498
  9
$EXTMAX
 10
779.3483703727411012
 20
29.5388709333753887
 30
0.0000000000002956
  9
$LIMMIN
 10
0.0
 20
0.0
  9
$LIMMAX
 10
11.6929133858000007
 20
8.2677165353999982
  9
$ORTHOMODE
 70
     1
  9
$REGENMODE
 70
     1
  9
$FILLMODE
 70
     1
  9
$QTEXTMODE
 70
     0
  9
$MIRRTEXT
 70
     0
  9
$DRAGMODE
 70
     2
  9
$LTSCALE
 40
0.6431102362
  9
$OSMODE
 70
    23
  9
$ATTMODE
 70
     1
  9
$TEXTSIZE
 40
0.2
  9
$TRACEWID
 40
0.05
  9
$TEXTSTYLE
  7
STANDARD
  9
$CLAYER
  8
0
  9
$CELTYPE
  6
BYLAYER
  9
$CECOLOR
 62
   256
  9
$DIMSCALE
 40
1.0
  9
$DIMASZ
 40
0.1875
  9
$DIMEXO
 40
0.0625
  9
$DIMDLI
 40
0.4443307087
  9
$DIMRND
 40
0.0
  9
$DIMDLE
 40
0.0
  9
$DIMEXE
 40
0.125
  9
$DIMTP
 40
0.01
  9
$DIMTM
 40
0.01
  9
$DIMTXT
 40
2.0
  9
$DIMCEN
 40
0.1052362205
  9
$DIMTSZ
 40
0.0
  9
$DIMTOL
 70
     1
  9
$DIMLIM
 70
     0
  9
$DIMTIH
 70
     1
  9
$DIMTOH
 70
     1
  9
$DIMSE1
 70
     0
  9
$DIMSE2
 70
     0
  9
$DIMTAD
 70
     0
  9
$DIMZIN
 70
     0
  9
$DIMBLK
  1

  9
$DIMASO
 70
     1
  9
$DIMSHO
 70
     1
  9
$DIMPOST
  1
\X
  9
$DIMAPOST
  1

  9
$DIMALT
 70
     1
  9
$DIMALTD
 70
     2
  9
$DIMALTF
 40
25.3999999999999986
  9
$DIMLFAC
 40
1.0
  9
$DIMTOFL
 70
     0
  9
$DIMTVP
 40
0.0
  9
$DIMTIX
 70
     0
  9
$DIMSOXD
 70
     0
  9
$DIMSAH
 70
     0
  9
$DIMBLK1
  1

  9
$DIMBLK2
  1

  9
$DIMSTYLE
  2
STANDARD
  9
$DIMCLRD
 70
     0
  9
$DIMCLRE
 70
     0
  9
$DIMCLRT
 70
     0
  9
$DIMTFAC
 40
1.0
  9
$DIMGAP
 40
0.09
  9
$LUNITS
 70
     2
  9
$LUPREC
 70
     4
  9
$SKETCHINC
 40
0.1
  9
$FILLETRAD
 40
0.0
  9
$AUNITS
 70
     0
  9
$AUPREC
 70
     0
  9
$MENU
  1
.
  9
$ELEVATION
 40
0.0
  9
$PELEVATION
 40
0.0
  9
$THICKNESS
 40
0.0
  9
$LIMCHECK
 70
     0
  9
$BLIPMODE
 70
     0
  9
$CHAMFERA
 40
0.0
  9
$CHAMFERB
 40
0.0
  9
$SKPOLY
 70
     0
  9
$TDCREATE
 40
2458106.4931018520146608
  9
$TDUPDATE
 40
2459718.7719328701496124
  9
$TDINDWG
 40
0.2532856019
  9
$TDUSRTIMER
 40
0.2532856019
  9
$USRTIMER
 70
     1
  9
$ANGBASE
 50
0.0
  9
$ANGDIR
 70
     0
  9
$PDMODE
 70
     0
  9
$PDSIZE
 40
0.3125
  9
$PLINEWID
 40
0.0
  9
$COORDS
 70
     1
  9
$SPLFRAME
 70
     0
  9
$SPLINETYPE
 70
     6
  9
$SPLINESEGS
 70
     8
  9
$ATTDIA
 70
     1
  9
$ATTREQ
 70
     1
  9
$HANDLING
 70
     1
  9
$HANDSEED
  5
5243
  9
$SURFTAB1
 70
     6
  9
$SURFTAB2
 70
     6
  9
$SURFTYPE
 70
     6
  9
$SURFU
 70
     6
  9
$SURFV
 70
     6
  9
$UCSNAME
  2

  9
$UCSORG
 10
0.0
 20
0.0
 30
0.0
  9
$UCSXDIR
 10
1.0
 20
0.0
 30
0.0
  9
$UCSYDIR
 10
0.0
 20
1.0
 30
0.0
  9
$PUCSNAME
  2

  9
$PUCSORG
 10
0.0
 20
0.0
 30
0.0
  9
$PUCSXDIR
 10
1.0
 20
0.0
 30
0.0
  9
$PUCSYDIR
 10
0.0
 20
1.0
 30
0.0
  9
$USERI1
 70
     0
  9
$USERI2
 70
     0
  9
$USERI3
 70
     0
  9
$USERI4
 70
     0
  9
$USERI5
 70
     0
  9
$USERR1
 40
0.0
  9
$USERR2
 40
0.0
  9
$USERR3
 40
0.0
  9
$USERR4
 40
0.0
  9
$USERR5
 40
0.0
  9
$WORLDVIEW
 70
     1
  9
$SHADEDGE
 70
     3
  9
$SHADEDIF
 70
    70
  9
$TILEMODE
 70
     1
  9
$MAXACTVP
 70
    64
  9
$PLIMCHECK
 70
     0
  9
$PEXTMIN
 10
1.0000000000000000E+20
 20
1.0000000000000000E+20
 30
1.0000000000000000E+20
  9
$PEXTMAX
 10
-1.0000000000000000E+20
 20
-1.0000000000000000E+20
 30
-1.0000000000000000E+20
  9
$PLIMMIN
 10
0.0
 20
0.0
  9
$PLIMMAX
 10
12.0
 20
9.0
  9
$UNITMODE
 70
     0
  9
$VISRETAIN
 70
     1
  9
$PLINEGEN
 70
     0
  9
$PSLTSCALE
 70
     1
  0
ENDSEC
  0
SECTION
  2
TABLES
  0
TABLE
  2
VPORT
 70
     1
  0
VPORT
  2
*ACTIVE
 70
     0
 10
0.0
 20
0.0
 11
1.0
 21
1.0
 12
491.0541006661766801
 22
38.837054443105302
 13
0.0
 23
0.0
 14
1.0
 24
1.0
 15
0.0
 25
0.0
 16
-0.0000000000000568
 26
0.0
 36
193.9250709296327955
 17
273.5742015565131169
 27
-17.6059607340214797
 37
0.0
 40
16.7196184639187315
 41
2.005224660397074
 42
50.0
 43
0.0
 44
0.0
 50
0.0
 51
0.0
 71
     0
 72
   100
 73
     1
 74
     1
 75
     0
 76
     0
 77
     0
 78
     0
  0
ENDTAB
  0
TABLE
  2
LTYPE
 70
     2
  0
LTYPE
  2
CONTINUOUS
 70
     0
  3
Solid line
 72
    65
 73
     0
 40
0.0
  0
LTYPE
  2
PHANTOM2
 70
     0
  3
___ _ _ ___ _ _ ___ _ _ ___ _ _
 72
    65
 73
     6
 40
1.25
 49
0.625
 49
-0.125
 49
0.125
 49
-0.125
 49
0.125
 49
-0.125
  0
ENDTAB
  0
TABLE
  2
LAYER
 70
     2
  0
LAYER
  2
0
 70
     0
 62
   255
  6
CONTINUOUS
  0
LAYER
  2
DEFPOINTS
 70
     0
 62
     7
  6
CONTINUOUS
  0
ENDTAB
  0
TABLE
  2
STYLE
 70
     1
  0
STYLE
  2
STANDARD
 70
     0
 40
0.0
 41
0.8
 50
0.0
 71
     0
 42
0.2
  3
txt
  4

  0
ENDTAB
  0
TABLE
  2
VIEW
 70
     0
  0
ENDTAB
  0
TABLE
  2
UCS
 70
     0
  0
ENDTAB
  0
TABLE
  2
APPID
 70
     9
  0
APPID
  2
ACAD
 70
     0
  0
APPID
  2
ACAD_MLEADERVER
 70
     0
  0
APPID
  2
ACAD_EXEMPT_FROM_CAD_STANDARDS
 70
     0
  0
APPID
  2
ACAD_NAV_VCDISPLAY
 70
     0
  0
APPID
  2
ACAD_DSTYLE_DIMJAG
 70
     0
  0
APPID
  2
ACAD_DSTYLE_DIMTALN
 70
     0
  0
APPID
  2
ACAECLAYERSTANDARD
 70
     0
  0
APPID
  2
ACCMTRANSPARENCY
 70
     0
  0
APPID
  2
ACDBATTR
 70
     0
  0
ENDTAB
  0
TABLE
  2
DIMSTYLE
 70
     1
  0
DIMSTYLE
  2
STANDARD
 70
     0
  3

  4

  5

  6

  7

 40
1.0
 41
0.1875
 42
0.0625
 43
0.38
 44
0.125
 45
0.0
 46
0.0
 47
0.01
 48
0.01
140
0.15625
141
0.09
142
0.0
143
25.3999999999999986
144
1.0
145
0.0
146
1.0
147
0.09
 71
     1
 72
     0
 73
     1
 74
     1
 75
     0
 76
     0
 77
     0
 78
     4
170
     0
171
     2
172
     0
173
     0
174
     0
175
     0
176
     0
177
     0
178
     0
  0
ENDTAB
  0
ENDSEC
  0
SECTION
  2
BLOCKS
  0
BLOCK
  8
0
  2
$MODEL_SPACE
 70
     0
 10
0.0
 20
0.0
 30
0.0
  3
$MODEL_SPACE
  1

  0
ENDBLK
  5
21
  8
0
  0
BLOCK
 67
     1
  8
0
  2
$PAPER_SPACE
 70
     0
 10
0.0
 20
0.0
 30
0.0
  3
$PAPER_SPACE
  1

  0
ENDBLK
  5
1D
 67
     1
  8
0
  0
ENDSEC
  0
SECTION
  2
ENTITIES
  0
ATTDEF
  5
FAA
  8
DEFPOINTS
 10
779.3047553461890402
 20
12.9286930463204399
 30
0.0
 40
0.001
  1
71341910
  3

  2
MODELNUMBER
 70
     0
1001
ACDBATTR
1070
     0
1070
     1
  0
ATTDEF
  5
FAB
  8
DEFPOINTS
 10
779.3047553461890402
 20
12.9270263796537801
 30
0.0
 40
0.001
  1
PERFORMA2
  3

  2
TRADENAME
 70
     0
1001
ACDBATTR
1070
     0
1070
     1
  0
ATTDEF
  5
FAC
  8
DEFPOINTS
 10
779.3047553461890402
 20
12.9253597129871096
 30
0.0
 40
0.001
  1
BATH
  3

  2
PRODUCT
 70
     0
1001
ACDBATTR
1070
     0
1070
     1
  0
LINE
  5
4FB9
  8
0
 10
749.9373429274520504
 20
12.9252149452249103
 30
0.0
 11
750.2061093578990949
 21
12.9252149452249103
 31
0.0
  0
LINE
  5
4FBA
  8
0
 10
759.3192862268788303
 20
12.9252149452249103
 30
0.0
 11
759.8506101954991436
 21
12.9252149452249103
 31
0.0
  0
LINE
  5
4FBB
  8
0
 10
760.5102379890552129
 20
12.9252149452249103
 30
0.0
 11
760.6266425138524028
 21
12.9252149452249103
 31
0.0
  0
LINE
  5
4FBC
  8
0
 10
761.9120818638521087
 20
12.9252149452249103
 30
0.0
 11
762.4434055318522496
 21
12.9252149452249103
 31
0.0
  0
LINE
  5
4FBD
  8
0
 10
764.7337579935522172
 20
12.9252149452249103
 30
0.0
 11
765.6096199497699217
 21
12.9252149452249103
 31
0.0
  0
LINE
  5
4FBE
  8
0
 10
767.9157391296521382
 20
12.9252149452249103
 30
0.0
 11
768.4470627976520518
 21
12.9252149452249103
 31
0.0
  0
LINE
  5
4FBF
  8
0
 10
770.756496728996467
 20
12.9252149452249103
 30
0.0
 11
771.5894766946121308
 21
12.9252149452249103
 31
0.0
  0
LINE
  5
4FC0
  8
0
 10
751.143365207152101
 20
29.5041613807249412
 30
0.0
 11
750.1891927963522448
 21
28.5954075766249289
 31
0.0
  0
ARC
  5
4FC1
  8
0
 10
750.2105723308684446
 20
28.5729595141011004
 30
0.0
 40
0.0310000001162093
 50
133.6033909339504078
 51
179.9999999559261141
  0
LINE
  5
4FC2
  8
0
 10
750.1795723307520802
 20
28.5729595141249213
 30
0.0
 11
750.1795723307520802
 21
27.6752149452249085
 31
0.0
  0
ARC
  5
4FC3
  8
0
 10
751.2295730548381698
 20
29.413645045297141
 30
0.0
 40
0.1249999999277856
 50
89.9999999936295438
 51
133.6034210581233026
  0
LINE
  5
4FC4
  8
0
 10
751.2295730548381698
 20
29.5386450452249214
 30
0.0
 11
779.3045723307521939
 21
29.5386450452249214
 31
0.0
  0
ARC
  5
4FC5
  8
0
 10
650.1795723306455557
 20
27.6752149452259886
 30
0.0
 40
100.0000000001065956
 50
358.999999999900524
 51
0.0
  0
LINE
  5
4FC6
  8
0
 10
750.1643418463521584
 20
25.9299743013249184
 30
0.0
 11
749.9373429274520504
 21
12.9252149452249103
 31
0.0
  0
LINE
  5
4FC7
  8
0
 10
750.2842474342010064
 20
23.4123866622452503
 30
0.0
 11
750.4481185564521866
 21
13.1792178740249302
 31
0.0
  0
ARC
  5
4FC8
  8
0
 10
750.1979239291589465
 20
13.1753062310259104
 30
0.0
 40
0.2502252035212654
 50
271.8746081441969977
 51
0.8957121860324516
  0
ARC
  5
4FC9
  8
0
 10
657.8170485366420053
 20
27.6752149450024199
 30
0.0
 40
92.5225237941102137
 50
358.917443357802199
 51
0.000009462337652
  0
LINE
  5
4FCA
  8
0
 10
750.3230580163520926
 20
25.9271819443249107
 30
0.0
 11
750.2921329482337569
 21
24.2906255425070796
 31
0.0
  0
LINE
  5
4FCB
  8
0
 10
750.2921329482337569
 20
24.2906255425070192
 30
0.0
 11
750.2842474342010064
 21
23.412386662245229
 31
0.0
  0
LINE
  5
4FCC
  8
0
 10
750.3395723307520484
 20
27.6752194871249202
 30
0.0
 11
750.3395742440520735
 21
27.8359316128249183
 31
0.0
  0
ARC
  5
4FCD
  8
0
 10
750.5897778098151321
 20
27.822594909175379
 30
0.0
 40
0.2505587595450232
 50
87.0537454058698046
 51
176.9488270143316981
  0
LINE
  5
4FCE
  8
0
 10
752.6093113924521276
 20
27.9676581413249217
 30
0.0
 11
750.6026563257521502
 21
28.0728224772249284
 31
0.0
  0
ARC
  5
4FCF
  8
0
 10
752.6076892697549283
 20
27.9367006098814414
 30
0.0
 40
0.0310000005664449
 50
30.0042803115611001
 51
87.0005403852658361
  0
LINE
  5
4FD0
  8
0
 10
752.6345348997522251
 20
27.9522026157249392
 30
0.0
 11
752.7342790760520757
 21
27.7794406346249509
 31
0.0
  0
ARC
  5
4FD1
  8
0
 10
753.0590386019617881
 20
27.9669406343423788
 30
0.0
 40
0.3749999994174265
 50
210.0000000015384103
 51
270.0000000443653221
  0
LINE
  5
4FD2
  8
0
 10
753.0590386022521443
 20
27.5919406349249385
 30
0.0
 11
753.5501060599520997
 21
27.5919406349249385
 31
0.0
  0
ARC
  5
4FD3
  8
0
 10
753.5501060599520997
 20
27.9669406335597017
 30
0.0
 40
0.3749999986347632
 50
270.0
 51
330.0000000498591248
  0
LINE
  5
4FD4
  8
0
 10
753.8748655853521541
 20
27.7794406345249314
 30
0.0
 11
753.9386895443522008
 21
27.8899869742249216
 31
0.0
  0
ARC
  5
4FD5
  8
0
 10
753.9656303800791193
 20
27.8744326754618506
 30
0.0
 40
0.0311085975201939
 50
88.1462884297444162
 51
149.9999999936702011
  0
ARC
  5
4FD6
  8
0
 10
755.8823701325525235
 20
83.5596930041440658
 30
0.0
 40
55.6871300364191626
 50
268.0285372247963096
 51
270.0007443609953839
  0
LINE
  5
4FD7
  8
0
 10
755.8830935947014495
 20
27.8725629724243511
 30
0.0
 11
770.610130293052066
 21
27.8725629722249408
 31
0.0
  0
ARC
  5
4FD8
  8
0
 10
758.1626622618089186
 20
114.1624717181936006
 30
0.0
 40
86.3673623830872543
 50
267.2012221675303749
 51
269.5841974528415221
  0
ARC
  5
4FD9
  8
0
 10
757.5342780622019063
 20
27.6831158813792086
 30
0.0
 40
0.1142791056260582
 50
45.5831411291207331
 51
89.1922271587999376
  0
LINE
  5
4FDA
  8
0
 10
757.6142589842520465
 20
27.7647416499249111
 30
0.0
 11
758.4927857352522551
 21
26.9207480365249303
 31
0.0
  0
ARC
  5
4FDB
  8
0
 10
758.2733592520032744
 20
26.6923434226138596
 30
0.0
 40
0.3167280366605565
 50
33.7368326239371186
 51
46.1485135736600682
  0
ARC
  5
4FDC
  8
0
 10
778.6346636463226787
 20
39.9793246415627124
 30
0.0
 40
23.9963851081223787
 50
213.1188251950177914
 51
216.9610477599811986
  0
LINE
  5
4FDD
  8
0
 10
759.460484914636254
 20
25.5509717132946896
 30
0.0
 11
759.3549360445141474
 21
25.5526775190153792
 31
0.0
  0
LINE
  5
4FDE
  8
0
 10
759.3549360445141474
 20
25.5526775190153792
 30
0.0
 11
758.8401444423221847
 21
25.9958830699964487
 31
0.0
  0
LINE
  5
4FDF
  8
0
 10
758.8401444423221847
 20
25.9958830699964487
 30
0.0
 11
757.5762458205522307
 21
26.7059848999249283
 31
0.0
  0
LINE
  5
4FE0
  8
0
 10
759.460484914636254
 20
25.5509717132946896
 30
0.0
 11
758.9421049627090952
 21
25.992966398440231
 31
0.0
  0
LINE
  5
4FE1
  8
0
 10
758.9421049627090952
 20
25.992966398440231
 30
0.0
 11
757.6723096761520537
 21
26.7009786545249206
 31
0.0
  0
LINE
  5
4FE2
  8
0
 10
757.6723096761520537
 20
26.7009786545249206
 30
0.0
 11
750.9110135779521897
 21
27.0552898263249411
 31
0.0
  0
ARC
  5
4FE3
  8
0
 10
750.882231136721316
 20
26.5060364494071194
 30
0.0
 40
0.5500070008452648
 50
87.0002817671827273
 51
179.0547038005229865
  0
LINE
  5
4FE4
  8
0
 10
751.3774774281434929
 20
27.0308457920801217
 30
0.0
 11
750.5577720822521997
 21
26.2665467505249097
 31
0.0
  0
LINE
  5
4FE5
  8
0
 10
750.5577720822521997
 20
26.2665467505249097
 30
0.0
 11
750.534525586089444
 21
26.9321919973455302
 31
0.0
  0
LINE
  5
4FE6
  8
0
 10
750.5577720822521997
 20
26.2665467505249097
 30
0.0
 11
750.3193730196717297
 21
25.7321717058688186
 31
0.0
  0
LINE
  5
4FE7
  8
0
 10
752.1065516918262119
 20
26.9926402242506818
 30
0.0
 11
752.7779555819522557
 21
26.3920567167249196
 31
0.0
  0
LINE
  5
4FE8
  8
0
 10
752.7779555819522557
 20
26.3920567167249196
 30
0.0
 11
752.7616149175651117
 21
26.8599753275456585
 31
0.0
  0
LINE
  5
4FE9
  8
0
 10
752.7779555819522557
 20
26.3920567167249196
 30
0.0
 11
752.9314431283572731
 21
26.1125251305526085
 31
0.0
  0
ARC
  5
4FEA
  8
0
 10
436.0889795703005234
 20
-23.9739263230782917
 30
0.0
 40
320.7768684502602241
 50
8.4755613676720838
 51
9.1091733516703766
  0
LINE
  5
4FEB
  8
0
 10
752.637811011414442
 20
26.9648007228712316
 30
0.0
 11
753.3177444863041501
 21
26.3890976007608486
 31
0.0
  0
LINE
  5
4FEC
  8
0
 10
753.3177444863041501
 20
26.3890976007608486
 30
0.0
 11
753.6484822059145472
 21
25.8445648618357104
 31
0.0
  0
LINE
  5
4FED
  8
0
 10
753.6484822059145472
 20
25.8445648618357104
 30
0.0
 11
753.6652790849520898
 21
25.8480319665249212
 31
0.0
  0
LINE
  5
4FEE
  8
0
 10
753.6652790849520898
 20
25.8480319665249212
 30
0.0
 11
753.433456002932985
 21
26.923106659308921
 31
0.0
  0
LINE
  5
4FEF
  8
0
 10
753.6652790849520898
 20
25.8480319665249212
 30
0.0
 11
753.3338593289961409
 21
26.3901049079866397
 31
0.0
  0
LINE
  5
4FF0
  8
0
 10
753.3338593289961409
 20
26.3901049079866397
 30
0.0
 11
753.3150247900373415
 21
26.9293127921581998
 31
0.0
  0
LINE
  5
4FF1
  8
0
 10
753.3338593289961409
 20
26.3901049079866397
 30
0.0
 11
752.6534684900466345
 21
26.9639802263981601
 31
0.0
  0
LINE
  5
4FF2
  8
0
 10
753.3177444863041501
 20
26.3890976007608486
 30
0.0
 11
753.3338593289961409
 21
26.3901049079866397
 31
0.0
  0
ARC
  5
4FF3
  8
0
 10
612.0070021478044282
 20
1.5728948040598281
 30
0.0
 40
143.0163193944109992
 50
8.0023174028299664
 51
8.7400969263849717
  0
ARC
  5
4FF4
  8
0
 10
669.2742409125944505
 20
10.1327193804998608
 30
0.0
 40
85.1165765816863029
 50
6.4616432698700343
 51
7.6629697656028872
  0
ARC
  5
4FF5
  8
0
 10
795.2613456875507154
 20
24.7198181688572305
 30
0.0
 40
41.712985824759599
 50
186.8958212729409922
 51
190.6362798315417137
  0
ARC
  5
4FF6
  8
0
 10
757.0384260919945518
 20
17.5271626587823306
 30
0.0
 40
2.819246976737769
 50
190.3491127067647142
 51
214.9745042890403113
  0
ARC
  5
4FF7
  8
0
 10
757.41007735319738
 20
17.9237226215234209
 30
0.0
 40
3.3529616449530568
 50
216.8871758320869958
 51
243.2240731262160978
  0
ARC
  5
4FF8
  8
0
 10
755.2969355978515296
 20
14.1242896906843303
 30
0.0
 40
1.006369251069958
 50
43.9409770934773931
 51
62.7542966907384923
  0
ARC
  5
4FF9
  8
0
 10
756.9407517129770895
 20
17.3457407324439501
 30
0.0
 40
2.6102517019500588
 50
243.047696165298305
 51
246.9879184059660986
  0
ARC
  5
4FFA
  8
0
 10
755.2036438631239434
 20
14.2385105800013996
 30
0.0
 40
1.0051106950231721
 50
36.1867229402344108
 51
62.8932122768997388
  0
ARC
  5
4FFB
  8
0
 10
756.9105170525090216
 20
17.6623004945245583
 30
0.0
 40
2.8206366430226222
 50
243.7192287662959984
 51
251.3281992193452936
  0
ARC
  5
4FFC
  8
0
 10
756.867142873323246
 20
17.5339490250736816
 30
0.0
 40
2.6851544702830421
 50
251.3281992193452936
 51
260.0890150654411741
  0
ARC
  5
4FFD
  8
0
 10
756.8475739137369374
 20
17.421950727087939
 30
0.0
 40
2.5714594267191502
 50
260.0890150654411741
 51
267.9111543334582279
  0
ARC
  5
4FFE
  8
0
 10
755.1738300621456119
 20
14.2192904695146893
 30
0.0
 40
1.0405233398961999
 50
32.25543121585347
 51
36.0716312519812874
  0
ARC
  5
4FFF
  8
0
 10
757.7453393341136234
 20
15.8384218378071004
 30
0.0
 40
1.998267776982446
 50
212.1654480046177014
 51
222.5230658392212888
  0
ARC
  5
5000
  8
0
 10
757.8465929645597043
 20
15.7240248310842592
 30
0.0
 40
2.0038355897303188
 50
217.2389505601952919
 51
234.2222665049453099
  0
ARC
  5
5001
  8
0
 10
757.8458191760294085
 20
15.7225769747343396
 30
0.0
 40
2.002208579116596
 50
234.2160078214467944
 51
269.4990020135863915
  0
LINE
  5
5002
  8
0
 10
757.8283119583520602
 20
13.7204449382249294
 30
0.0
 11
758.2527283491253911
 21
13.7168716553485304
 31
0.0
  0
ARC
  5
5003
  8
0
 10
757.7726054199079044
 20
12.8374545886559108
 30
0.0
 40
1.001944312000711
 50
53.5037795484495717
 51
87.1314483286294177
  0
ARC
  5
5004
  8
0
 10
757.7375835573042195
 20
11.5875195708361307
 30
0.0
 40
2.2522346006291261
 50
87.8329535647338133
 51
90.1496386529756393
  0
ARC
  5
5005
  8
0
 10
757.7467728294323024
 20
15.8411411301415406
 30
0.0
 40
2.001451386198196
 50
242.6359530809210128
 51
269.568545283900221
  0
ARC
  5
5006
  8
0
 10
757.7486570016020551
 20
15.8422398101181905
 30
0.0
 40
2.003293514735093
 50
222.5394111239315009
 51
242.6025376105395992
  0
ARC
  5
5007
  8
0
 10
757.9576840766636678
 20
15.6522276522419901
 30
0.0
 40
2.0064268125024491
 50
234.1187239484208078
 51
269.4256107918087082
  0
ARC
  5
5008
  8
0
 10
762.1579285244436051
 20
434.6159099196395914
 30
0.0
 40
420.9911629455482966
 50
269.4256107918087082
 51
269.4844651564550873
  0
LINE
  5
5009
  8
0
 10
758.3685315964727351
 20
13.6429137101732607
 30
0.0
 11
758.3978044888862087
 21
13.6203859476947091
 31
0.0
  0
ARC
  5
500A
  8
0
 10
758.8661211133388633
 20
14.2062639013324592
 30
0.0
 40
0.7500489566004882
 50
231.3632010799155125
 51
269.9979227590778237
  0
LINE
  5
500B
  8
0
 10
759.2673953927521779
 20
13.4562149452249091
 30
0.0
 11
758.6026771804522468
 21
13.4562149452249091
 31
0.0
  0
ARC
  5
500C
  8
0
 10
759.2673835020178785
 20
13.42621491918446
 30
0.0
 40
0.030000028396945
 50
56.0896174290249121
 51
89.9772903914703051
  0
ARC
  5
500D
  8
0
 10
759.2673835133075499
 20
13.4262149445900008
 30
0.0
 40
0.0300000010141671
 50
2.5000007067972918
 51
56.0896082536000407
  0
LINE
  5
500E
  8
0
 10
759.2973549609521342
 20
13.42752352662494
 30
0.0
 11
759.3192862268788303
 21
12.9252149452249103
 31
0.0
  0
ARC
  5
500F
  8
0
 10
758.603276900267474
 20
15.4623388639358108
 30
0.0
 40
2.0061240083523528
 50
251.7613085989430886
 51
269.982871739394227
  0
ARC
  5
5010
  8
0
 10
757.7420474509382302
 20
12.8559706264935691
 30
0.0
 40
0.7388505017804754
 50
71.5883441065502524
 51
72.920504426323788
  0
ARC
  5
5011
  8
0
 10
757.6587031184467378
 20
12.5935457923249992
 30
0.0
 40
1.014183328664529
 50
72.7739021985946266
 51
81.1482756448516369
  0
ARC
  5
5012
  8
0
 10
758.1210417109665514
 20
15.5767412275047707
 30
0.0
 40
2.0046267784054308
 50
243.1999124315885012
 51
261.2116068794306898
  0
ARC
  5
5013
  8
0
 10
758.3281123414082003
 20
15.4997555594393805
 30
0.0
 40
1.999440754276518
 50
247.7867772189138122
 51
264.8549429329540885
  0
ARC
  5
5014
  8
0
 10
758.5726990396816518
 20
15.4510124037823395
 30
0.0
 40
2.0206577026083732
 50
250.3145250621140008
 51
269.0771893460420188
  0
LINE
  5
5015
  8
0
 10
758.5401555634521173
 20
13.4306167808249306
 30
0.0
 11
759.2977091902107531
 21
13.4194103426018607
 31
0.0
  0
LINE
  5
5016
  8
0
 10
758.0575647505520465
 20
16.5797363359249204
 30
0.0
 11
758.0606140798355455
 21
16.5590578826197401
 31
0.0
  0
ARC
  5
5017
  8
0
 10
749.9049810816241006
 20
11.5717063015104706
 30
0.0
 40
9.5597084367207437
 50
29.080637305843851
 51
31.4467165040794114
  0
ARC
  5
5018
  8
0
 10
756.719618302736535
 20
15.2984924029158105
 30
0.0
 40
1.793630667993086
 50
16.608019581874089
 51
30.8446168676349401
  0
ARC
  5
5019
  8
0
 10
756.7711361010897235
 20
15.3071170627010602
 30
0.0
 40
1.741808917309551
 50
10.04862739436863
 51
16.8205207532754493
  0
LINE
  5
501A
  8
0
 10
758.4862257074521494
 20
15.6110347268249097
 30
0.0
 11
758.8297515506520767
 21
13.6628028580249303
 31
0.0
  0
ARC
  5
501B
  8
0
 10
759.0762015054067433
 20
13.7064401580197899
 30
0.0
 40
0.2502834276364011
 50
190.040923717288905
 51
268.764203784316976
  0
ARC
  5
501C
  8
0
 10
773.9232290753056986
 20
31.645253746654781
 30
0.0
 40
21.8789652250457785
 50
223.5181678675301953
 51
224.4333153979021063
  0
ARC
  5
501D
  8
0
 10
759.654704090475775
 20
17.6562196065606898
 30
0.0
 40
1.8968762097443319
 50
224.4333153979021063
 51
231.6942427951217951
  0
ARC
  5
501E
  8
0
 10
760.2638053493324151
 20
18.8884148279470203
 30
0.0
 40
3.2539302815304509
 50
236.7334281695569871
 51
242.3891572379517072
  0
ARC
  5
501F
  8
0
 10
758.7038107908738311
 20
15.8801615101084295
 30
0.0
 40
0.135254459812427
 50
50.6735096062359531
 51
67.4283426123912335
  0
ARC
  5
5020
  8
0
 10
762.044718315097839
 20
20.6509912023078499
 30
0.0
 40
5.6894403556469513
 50
235.0999787274760138
 51
237.8820163856416912
  0
ARC
  5
5021
  8
0
 10
760.8430310657341806
 20
18.761552398204131
 30
0.0
 40
3.4503015222763902
 50
238.1016764182587906
 51
241.8834645126300131
  0
ARC
  5
5022
  8
0
 10
759.3091182315514516
 20
15.5608228088604594
 30
0.0
 40
0.1825331043811624
 50
85.665755116210164
 51
120.3019979576343985
  0
LINE
  5
5023
  8
0
 10
759.3229131192522345
 20
15.7428338944249209
 30
0.0
 11
759.3192933609522015
 21
15.8032915249249104
 31
0.0
  0
ARC
  5
5024
  8
0
 10
761.7595919288417008
 20
15.9493986568542496
 30
0.0
 40
2.4446685653568858
 50
180.4862363432422114
 51
183.4263596264194973
  0
ARC
  5
5025
  8
0
 10
759.4017463307224034
 20
15.9293884963363599
 30
0.0
 40
0.0867380593634498
 50
165.3035758281218932
 51
180.4862363432438883
  0
ARC
  5
5026
  8
0
 10
755.6722372761431643
 20
16.8201566740351396
 30
0.0
 40
3.7476942554002211
 50
346.5961863624070816
 51
352.1059732179093089
  0
ARC
  5
5027
  8
0
 10
759.8511299521633191
 20
16.2418042121948787
 30
0.0
 40
0.4710312099081578
 50
149.8649804087025927
 51
172.235227991217613
  0
ARC
  5
5028
  8
0
 10
753.7517565995510722
 20
13.8458669666914993
 30
0.0
 40
6.2712451632805886
 50
20.7287881332677593
 51
24.819392086809291
  0
ARC
  5
5029
  8
0
 10
764.479659113968637
 20
17.00311864311508
 30
0.0
 40
4.9521819722281437
 50
190.9134551804571913
 51
194.7609648327670016
  0
ARC
  5
502A
  8
0
 10
759.5853291029168304
 20
15.7108107557312895
 30
0.0
 40
0.1099165561485089
 50
4.4862439900715598
 51
16.1405760260540205
  0
ARC
  5
502B
  8
0
 10
757.5578529870665534
 20
15.6241182231984101
 30
0.0
 40
2.1391793173363411
 50
358.580397563262693
 51
2.5530969640518468
  0
ARC
  5
502C
  8
0
 10
759.206524564745223
 20
14.9432052499436594
 30
0.0
 40
0.7963876651058325
 50
40.2652150864212288
 51
52.0414415429010973
  0
ARC
  5
502D
  8
0
 10
761.6071895841159858
 20
20.5747313361385302
 30
0.0
 40
5.421843663202349
 50
250.6890782993328912
 51
255.5528499326703979
  0
ARC
  5
502E
  8
0
 10
760.8702033873944401
 20
15.3541625219595907
 30
0.0
 40
0.6164146463731034
 50
174.7019604067554042
 51
182.7734381183219057
  0
ARC
  5
502F
  8
0
 10
756.1860818439558898
 20
16.1627958168609105
 30
0.0
 40
4.1391722282190679
 50
349.5364391183082944
 51
356.5402664776228789
  0
LINE
  5
5030
  8
0
 10
760.3177102477521885
 20
15.9130089721249295
 30
0.0
 11
760.3188613558520501
 21
15.9347398576249297
 31
0.0
  0
ARC
  5
5031
  8
0
 10
761.0409003759598363
 20
15.8964926833640607
 30
0.0
 40
0.7230513072368884
 50
156.4355268640588861
 51
176.9678155836002134
  0
LINE
  5
5032
  8
0
 10
760.3781437430520782
 20
16.1855546809249411
 30
0.0
 11
760.3864000838520951
 21
16.1779501478249408
 31
0.0
  0
ARC
  5
5033
  8
0
 10
693.413404049667065
 20
-12.2113814472160005
 30
0.0
 40
72.7415723380253212
 50
22.6627148282736108
 51
22.9717096973928285
  0
ARC
  5
5034
  8
0
 10
760.2503653483314565
 20
15.7203121692379106
 30
0.0
 40
0.3037469889670621
 50
8.2849048722627625
 51
18.43291568991636
  0
ARC
  5
5035
  8
0
 10
764.7997603427579634
 20
16.2803921023665517
 30
0.0
 40
4.2800737838436662
 50
186.9285447663804121
 51
193.0626949179116991
  0
ARC
  5
5036
  8
0
 10
760.21327250124898
 20
15.2493831268700806
 30
0.0
 40
0.421994263897793
 50
359.3431626633432074
 51
8.6736127408102135
  0
ARC
  5
5037
  8
0
 10
762.5897329918368541
 20
24.9473001294004888
 30
0.0
 40
9.8976509331378608
 50
258.6109211290598751
 51
260.5377291283609793
  0
ARC
  5
5038
  8
0
 10
762.4102359463120138
 20
24.1018381676917812
 30
0.0
 40
9.0342634742111514
 50
260.7791241051731959
 51
267.2642001591688086
  0
ARC
  5
5039
  8
0
 10
760.223651539387447
 20
15.2526165465133801
 30
0.0
 40
0.0780769198635476
 50
6.723192427069411
 51
66.7189763408467229
  0
LINE
  5
503A
  8
0
 10
760.3011915509521259
 20
15.2617572260249208
 30
0.0
 11
760.4613573481522053
 21
12.9707969155249305
 31
0.0
  0
LINE
  5
503B
  8
0
 10
760.4613573481522053
 20
12.9707969155249305
 30
0.0
 11
760.3624185138520488
 21
15.6956330581249208
 31
0.0
  0
ARC
  5
503C
  8
0
 10
760.5102379890552129
 20
12.9742149450491198
 30
0.0
 40
0.0489999998052929
 50
183.9999558381720135
 51
270.0
  0
LINE
  5
503D
  8
0
 10
760.3624185138520488
 20
15.6956330581249208
 30
0.0
 11
760.3584562009380079
 21
15.8407048943584705
 31
0.0
  0
ARC
  5
503E
  8
0
 10
762.4079918289080524
 20
15.8966833785179702
 30
0.0
 40
2.0502999490335649
 50
171.9005218050525912
 51
181.5645171796006139
  0
ARC
  5
503F
  8
0
 10
742.2516993955823636
 20
12.37811810064197
 30
0.0
 40
18.5285210591653211
 50
10.5821746110110304
 51
11.83419152665798
  0
ARC
  5
5040
  8
0
 10
759.9249335453912408
 20
15.6845661777340499
 30
0.0
 40
0.5486687617804737
 50
0.4411790553973491
 51
10.1014760008687308
  0
LINE
  5
5041
  8
0
 10
760.4735860418521725
 20
15.6887909003249195
 30
0.0
 11
760.5646057044483541
 21
12.9742155483528805
 31
0.0
  0
LINE
  5
5042
  8
0
 10
760.5646057044483541
 20
12.9742155483528805
 30
0.0
 11
760.5645006019520906
 21
15.1782996961249399
 31
0.0
  0
ARC
  5
5043
  8
0
 10
760.6308861071298679
 20
15.1783028617401303
 30
0.0
 40
0.0663855052532025
 50
86.2403916915122863
 51
180.002732168576614
  0
ARC
  5
5044
  8
0
 10
760.5156057044522413
 20
12.97421494522494
 30
0.0
 40
0.0489999999999739
 50
270.0
 51
0.0007052384833144
  0
LINE
  5
5045
  8
0
 10
751.4645723307521621
 20
28.2932714514831112
 30
0.0
 11
751.4645723307521621
 21
28.1920410730249316
 31
0.0
  0
ARC
  5
5046
  8
0
 10
751.308572330752213
 20
28.1920410730249316
 30
0.0
 40
0.1559999999999981
 50
266.9999999980832968
 51
0.0000000000032569
  0
ARC
  5
5047
  8
0
 10
751.4741717099320795
 20
28.2814387434031183
 30
0.0
 40
0.0152368323856063
 50
107.5353908618314023
 51
129.0509688281462957
  0
LINE
  5
5048
  8
0
 10
751.4695809309230299
 20
28.2959675358249392
 30
0.0
 11
779.2685601059654346
 21
28.2959675358249392
 31
0.0
  0
LINE
  5
5049
  8
0
 10
756.3247101954522122
 20
15.2104741760248992
 30
0.0
 11
756.3225048789521452
 21
15.2104331031249398
 31
0.0
  0
ARC
  5
504A
  8
0
 10
755.8839870095555398
 20
14.2432715206560196
 30
0.0
 40
1.0619319415028541
 50
37.1993974503095401
 51
65.6101258945482755
  0
ARC
  5
504B
  8
0
 10
758.5386269489629285
 20
16.1480297251864187
 30
0.0
 40
2.2059307059898141
 50
214.9193153141690971
 51
270.6464871857027106
  0
LINE
  5
504C
  8
0
 10
758.5635166648520453
 20
13.9422394401249097
 30
0.0
 11
758.7806811584030129
 21
13.9410948814246893
 31
0.0
  0
ARC
  5
504D
  8
0
 10
53.9839745108160969
 20
-120858.708490469303797
 30
0.0
 40
120875.7082757975003915
 50
89.6660044184927045
 51
89.6664926650444158
  0
ARC
  5
504E
  8
0
 10
757.5915873550054584
 20
18.0672906151664101
 30
0.0
 40
3.115291043309893
 50
254.9187940168972091
 51
269.666492665050896
  0
LINE
  5
504F
  8
0
 10
756.7810266235521794
 20
15.0592963357249392
 30
0.0
 11
756.678875015710446
 21
15.0890592918989803
 31
0.0
  0
ARC
  5
5050
  8
0
 10
758.3576987051742435
 20
20.5634081907775084
 30
0.0
 40
5.7259885475747581
 50
249.2037451386534883
 51
252.9507455490862924
  0
ARC
  5
5051
  8
0
 10
759.1431457276272567
 20
15.6601725365616602
 30
0.0
 40
0.0940738468915114
 50
5.8769738951477191
 51
38.2537084526640214
  0
LINE
  5
5052
  8
0
 10
759.2367251268190103
 20
15.6698050188931699
 30
0.0
 11
759.3041499731314161
 21
13.5037275589083503
 31
0.0
  0
ARC
  5
5053
  8
0
 10
758.9848968536255143
 20
13.4937899676102298
 30
0.0
 40
0.3194077488650892
 50
348.0260700504416036
 51
1.7829058356502701
  0
ARC
  5
5054
  8
0
 10
760.8412117870616385
 20
16.1719676230844485
 30
0.0
 40
1.430627832638159
 50
167.6366365229860094
 51
175.7386560808548097
  0
ARC
  5
5055
  8
0
 10
763.8162393966093759
 20
16.2064239693935193
 30
0.0
 40
4.4022867985543437
 50
179.064859225901813
 51
182.0267037006628073
  0
LINE
  5
5056
  8
0
 10
759.4167064355522143
 20
16.05073587962492
 30
0.0
 11
759.5133873780894191
 21
13.5017968780114597
 31
0.0
  0
LINE
  5
5057
  8
0
 10
759.5133873780894191
 20
13.5017968780114597
 30
0.0
 11
759.3598082928389204
 21
15.6980801196332198
 31
0.0
  0
ARC
  5
5058
  8
0
 10
759.2901703452653237
 20
15.6782554887047496
 30
0.0
 40
0.0724048322538707
 50
15.8906693409723996
 51
63.1139172495923617
  0
LINE
  5
5059
  8
0
 10
759.6166357317522397
 20
13.5052149525249501
 30
0.0
 11
759.6166352930522407
 21
15.51251789112494
 31
0.0
  0
ARC
  5
505A
  8
0
 10
759.6840499736026686
 20
15.5043409484724908
 30
0.0
 40
0.067908773695884
 50
79.5425868720303555
 51
173.0841944484633075
  0
ARC
  5
505B
  8
0
 10
743.968415182005856
 20
13.1355257643517795
 30
0.0
 40
15.8322563119677593
 50
10.4784142270980105
 51
12.1889160893056907
  0
LINE
  5
505C
  8
0
 10
759.536644771952183
 20
16.0148602990249316
 30
0.0
 11
759.6166357317522397
 21
13.5052149452249193
 31
0.0
  0
ARC
  5
505D
  8
0
 10
759.5648602959169011
 20
13.5080749391288908
 30
0.0
 40
0.0518543664609182
 50
186.9539182923907958
 51
356.838284118220372
  0
ARC
  5
505E
  8
0
 10
759.8351845995673557
 20
15.3738312494329605
 30
0.0
 40
0.0866749789832822
 50
103.9994556580015939
 51
143.0722157088584936
  0
ARC
  5
505F
  8
0
 10
759.818269786031351
 20
15.3865440817930708
 30
0.0
 40
0.0655154179393252
 50
143.0722157088652864
 51
173.4250398428785047
  0
LINE
  5
5060
  8
0
 10
759.7531852694521604
 20
15.3940457942249402
 30
0.0
 11
759.8253978085522249
 21
13.5017146765249407
 31
0.0
  0
ARC
  5
5061
  8
0
 10
760.149161317702351
 20
13.5140696945473895
 30
0.0
 40
0.3239991609982207
 50
182.1853823873254044
 51
195.8691028900394997
  0
LINE
  5
5062
  8
0
 10
759.8375100864520846
 20
13.4254751838249309
 30
0.0
 11
759.8506101954991436
 21
12.9252149452249103
 31
0.0
  0
ARC
  5
5063
  8
0
 10
759.8674951014678527
 20
13.4262207424979305
 30
0.0
 40
0.0299942491019283
 50
89.8992464713092545
 51
181.4243305498218035
  0
LINE
  5
5064
  8
0
 10
759.8675478457521422
 20
13.4562149452249091
 30
0.0
 11
760.3994857795521511
 21
13.4562149452249091
 31
0.0
  0
ARC
  5
5065
  8
0
 10
760.3990097964233428
 20
13.4255310269289598
 30
0.0
 40
0.0306876099090822
 50
10.6395355821071398
 51
89.1112726568949682
  0
ARC
  5
5066
  8
0
 10
761.9702632085798086
 20
15.0130672601437798
 30
0.0
 40
0.0653939471739344
 50
4.7821365853485549
 51
82.2997519635433292
  0
LINE
  5
5067
  8
0
 10
762.0354295128521471
 20
15.0185189676248996
 30
0.0
 11
762.0703917154520468
 21
14.5129302083249296
 31
0.0
  0
LINE
  5
5068
  8
0
 10
762.0703917154520468
 20
14.5129302083249296
 30
0.0
 11
762.0486048265096315
 21
15.1296932779185695
 31
0.0
  0
ARC
  5
5069
  8
0
 10
762.4189250909696511
 20
15.14277468125273
 30
0.0
 40
0.3705512398884716
 50
154.6356408149796948
 51
182.0231074400331011
  0
LINE
  5
506A
  8
0
 10
762.0840942728522123
 20
15.3015088761249096
 30
0.0
 11
762.0898825337521885
 21
15.30066997502494
 31
0.0
  0
ARC
  5
506B
  8
0
 10
761.396160170006965
 20
14.9706326501059106
 30
0.0
 40
0.7682287119079346
 50
9.0887291117597115
 51
25.4426956917445501
  0
LINE
  5
506C
  8
0
 10
762.1547436932833079
 20
15.0919849966573896
 30
0.0
 11
762.1742697278521064
 21
14.51451881492493
 31
0.0
  0
LINE
  5
506D
  8
0
 10
762.1739092007521776
 20
15.0037230219249302
 30
0.0
 11
762.1742697278521064
 21
14.51451881492493
 31
0.0
  0
ARC
  5
506E
  8
0
 10
762.140572281877553
 20
14.5149769173112109
 30
0.0
 40
0.0702104046525899
 50
181.6704703879956924
 51
253.0663805532182096
  0
ARC
  5
506F
  8
0
 10
762.1084390080644653
 20
14.5112639014694604
 30
0.0
 40
0.0659111381282586
 50
285.4510715003887071
 51
2.8306094051394739
  0
LINE
  5
5070
  8
0
 10
762.1201225485521036
 20
14.4478106361249097
 30
0.0
 11
762.1259987485522061
 21
14.4477349030249105
 31
0.0
  0
ARC
  5
5071
  8
0
 10
762.237457461221311
 20
15.0029815136374101
 30
0.0
 40
0.0635525864399052
 50
91.940629798611397
 51
179.3314786740494924
  0
ARC
  5
5072
  8
0
 10
761.8250415053159941
 20
15.0161152052472602
 30
0.0
 40
0.4133458484559525
 50
7.0011531820647832
 51
14.0118963153207901
  0
ARC
  5
5073
  8
0
 10
762.5225499301299124
 20
15.1901774222016108
 30
0.0
 40
0.3055530721563129
 50
187.6105009393978946
 51
194.0118963153200013
  0
ARC
  5
5074
  8
0
 10
761.5453764628076669
 20
14.7011761858155801
 30
0.0
 40
0.809863979070481
 50
33.6307958546858572
 51
47.7518720393044234
  0
ARC
  5
5075
  8
0
 10
762.2579465861060726
 20
15.0786772090719801
 30
0.0
 40
0.282627986344872
 50
127.9612023702546963
 51
158.4561552991428073
  0
ARC
  5
5076
  8
0
 10
761.7079691892057554
 20
15.19907480444156
 30
0.0
 40
0.287574951350176
 50
347.2069503782694824
 51
356.6882409136924821
  0
ARC
  5
5077
  8
0
 10
762.6101929428664334
 20
15.0044812685676892
 30
0.0
 40
0.6354200413409903
 50
168.1101839094841068
 51
173.3676037059190946
  0
ARC
  5
5078
  8
0
 10
762.976400813192754
 20
36.4151726967179314
 30
0.0
 40
21.3615343266526807
 50
268.0118391484174936
 51
268.9532944396868857
  0
ARC
  5
5079
  8
0
 10
764.012736736631723
 20
-623.3816332068970496
 30
0.0
 40
638.4404298195292995
 50
89.9978535913489281
 51
90.1280240596640709
  0
ARC
  5
507A
  8
0
 10
764.1401583246334894
 20
12.6519583192683598
 30
0.0
 40
2.4090623848814832
 50
92.4624481435243126
 51
109.060456572268393
  0
ARC
  5
507B
  8
0
 10
764.035128006005948
 20
13.0465405309399003
 30
0.0
 40
2.0020326456096651
 50
109.9071751675244002
 51
135.703754590868698
  0
ARC
  5
507C
  8
0
 10
762.0655438766373209
 20
14.9681511308276995
 30
0.0
 40
0.7496666442333991
 50
293.0817964215269171
 51
315.7132775446796131
  0
ARC
  5
507D
  8
0
 10
763.5358268622520654
 20
11.5187645379249801
 30
0.0
 40
2.9999999999999418
 50
113.0868923637003007
 51
146.9958270079023066
  0
ARC
  5
507E
  8
0
 10
760.6006480499102054
 20
13.4251609196249309
 30
0.0
 40
0.4999459752604186
 50
269.9966385565783753
 51
326.9991882758881729
  0
ARC
  5
507F
  8
0
 10
762.88228547797803
 20
287.3798309181036075
 30
0.0
 40
273.4535069270165764
 50
269.7625895361885
 51
269.8626091031611054
  0
ARC
  5
5080
  8
0
 10
751.8189758321799445
 20
-5545.5549411659631005
 30
0.0
 40
5559.4917930599676765
 50
89.8792684339283596
 51
89.8927399600364083
  0
ARC
  5
5081
  8
0
 10
763.5321426242697953
 20
12.9241635332240694
 30
0.0
 40
1.000347162458928
 50
11.4787452304477604
 51
89.9093992907909154
  0
ARC
  5
5082
  8
0
 10
764.7570191307192999
 20
13.1752154304589197
 30
0.0
 40
0.2500008753102257
 50
192.0000710972720128
 51
269.8987857528139216
  0
LINE
  5
5083
  8
0
 10
762.0778890443540377
 20
14.1406755431160693
 30
0.0
 11
762.0894548423782453
 21
13.9751996612125602
 31
0.0
  0
LINE
  5
5084
  8
0
 10
762.1926979067739012
 20
14.2013015104484293
 30
0.0
 11
762.1927050693528827
 21
13.9786109620201699
 31
0.0
  0
ARC
  5
5085
  8
0
 10
762.1409311380407416
 20
13.9814095975355208
 30
0.0
 40
0.0518495161430334
 50
186.8787395216903917
 51
356.9058926910997798
  0
ARC
  5
5086
  8
0
 10
762.0835588162378826
 20
12.5677242412510104
 30
0.0
 40
1.2492275768147321
 50
90.7984552265482563
 51
125.0795391300985955
  0
ARC
  5
5087
  8
0
 10
765.4925812745967733
 20
1246.1060248924859479
 30
0.0
 40
1232.2939580307850065
 50
269.8406871421988171
 51
269.9301942440714015
  0
LINE
  5
5088
  8
0
 10
762.088920351322713
 20
13.9274748806036097
 30
0.0
 11
762.0933194540314162
 21
13.8645508960802406
 31
0.0
  0
LINE
  5
5089
  8
0
 10
762.1965675096877249
 20
13.9271837530928995
 30
0.0
 11
762.1965698484677887
 21
13.8679591341200794
 31
0.0
  0
ARC
  5
508A
  8
0
 10
762.147580820200119
 20
13.8679571995435094
 30
0.0
 40
0.0489890283058004
 50
269.8202092248656072
 51
0.0022626101222074
  0
ARC
  5
508B
  8
0
 10
762.1421902734521154
 20
13.8679663712248793
 30
0.0
 40
0.0489900240999972
 50
183.9977769237733014
 51
269.8321308985002247
  0
LINE
  5
508C
  8
0
 10
762.1474270957722865
 20
13.8189684124269903
 30
0.0
 11
762.1420467393273839
 21
13.8189765573930998
 31
0.0
  0
LINE
  5
508D
  8
0
 10
762.0923468882972429
 20
13.8167579566355005
 30
0.0
 11
762.0976286153517094
 21
13.7411912826951692
 31
0.0
  0
LINE
  5
508E
  8
0
 10
762.2008764768041829
 20
13.8164632720438902
 30
0.0
 11
762.2008785928594534
 21
13.7445961570277699
 31
0.0
  0
ARC
  5
508F
  8
0
 10
762.1518825380301223
 20
13.7445947143879597
 30
0.0
 40
0.0489960548506532
 50
269.7903288002084992
 51
0.0016870168951252
  0
ARC
  5
5090
  8
0
 10
762.1465013443521457
 20
13.7446009373249307
 30
0.0
 40
0.0489915235999932
 50
183.9908306741054957
 51
269.7951182670083767
  0
LINE
  5
5091
  8
0
 10
762.1463261578558104
 20
13.6956097269465307
 30
0.0
 11
762.1517032396809554
 21
13.69559898760461
 31
0.0
  0
ARC
  5
5092
  8
0
 10
765.3942983605816153
 20
865.8952458400422074
 30
0.0
 40
852.2078309083652812
 50
269.7413714439667274
 51
269.8918787993674187
  0
ARC
  5
5093
  8
0
 10
763.7841999776444482
 20
12.9372897051506897
 30
0.0
 40
0.7516450569089379
 50
14.3229499782288805
 51
89.8534376209514392
  0
LINE
  5
5094
  8
0
 10
762.098227415832298
 20
13.6937890366239508
 30
0.0
 11
762.1003406082515994
 21
13.6635551905951491
 31
0.0
  0
LINE
  5
5095
  8
0
 10
762.2035898076140938
 20
13.6933880384583908
 30
0.0
 11
762.2035905857593434
 21
13.6669600649277498
 31
0.0
  0
ARC
  5
5096
  8
0
 10
762.154594530930126
 20
13.6669586222879307
 30
0.0
 40
0.0489960548506532
 50
269.7903288002084992
 51
0.0016870168951252
  0
ARC
  5
5097
  8
0
 10
762.1492133372521494
 20
13.6669648452249106
 30
0.0
 40
0.0489915235999932
 50
183.9908306741054957
 51
269.7951182670083767
  0
LINE
  5
5098
  8
0
 10
762.1490381507558141
 20
13.6179736348464999
 30
0.0
 11
762.1544152325808454
 21
13.6179628955045899
 31
0.0
  0
LINE
  5
5099
  8
0
 10
762.1009518747224547
 20
13.6161483875263603
 30
0.0
 11
762.1030400141517021
 21
13.5862729793951598
 31
0.0
  0
LINE
  5
509A
  8
0
 10
762.2062892253221662
 20
13.6157047994073892
 30
0.0
 11
762.2062899916595597
 21
13.5896778537277605
 31
0.0
  0
ARC
  5
509B
  8
0
 10
762.1572939368300013
 20
13.5896764110879502
 30
0.0
 40
0.0489960548506532
 50
269.7903288002084992
 51
0.0016870168951252
  0
ARC
  5
509C
  8
0
 10
762.151912743152252
 20
13.5896826340249195
 30
0.0
 40
0.0489915235999932
 50
183.9908306741054957
 51
269.7951182670083767
  0
LINE
  5
509D
  8
0
 10
762.1517375566559167
 20
13.5406914236465195
 30
0.0
 11
762.1571146384809481
 21
13.5406806843046006
 31
0.0
  0
LINE
  5
509E
  8
0
 10
762.1036861182966504
 20
13.5386679742413598
 30
0.0
 11
762.1057176758956757
 21
13.50960209312084
 31
0.0
  0
LINE
  5
509F
  8
0
 10
762.2089669133121106
 20
13.5381425249828897
 30
0.0
 11
762.2089676534034197
 21
13.5130069674534496
 31
0.0
  0
ARC
  5
50A0
  8
0
 10
762.1599715985738612
 20
13.5130055248136305
 30
0.0
 40
0.0489960548506532
 50
269.7903288002084992
 51
0.0016870168951252
  0
ARC
  5
50A1
  8
0
 10
762.154590404896112
 20
13.5130117477506104
 30
0.0
 40
0.0489915235999932
 50
183.9908306741054957
 51
269.7951182670083767
  0
LINE
  5
50A2
  8
0
 10
762.154415218399663
 20
13.4640205373721997
 30
0.0
 11
762.1597923002249217
 21
13.4640097980302897
 31
0.0
  0
LINE
  5
50A3
  8
0
 10
762.1063859240590546
 20
13.4622846954409692
 30
0.0
 11
762.1083556790679268
 21
13.4341030357374294
 31
0.0
  0
LINE
  5
50A4
  8
0
 10
762.2116049478769355
 20
13.4615772889345493
 30
0.0
 11
762.2116056565757845
 21
13.4375079100700408
 31
0.0
  0
ARC
  5
50A5
  8
0
 10
762.162609601746226
 20
13.43750646743025
 30
0.0
 40
0.0489960548506532
 50
269.7903288002084992
 51
0.0016870168951252
  0
ARC
  5
50A6
  8
0
 10
762.1572284080682493
 20
13.4375126903671998
 30
0.0
 40
0.0489915235999932
 50
183.9908306741054957
 51
269.7951182670083767
  0
LINE
  5
50A7
  8
0
 10
762.1570532215721414
 20
13.3885214799888193
 30
0.0
 11
762.1624303033970591
 21
13.3885107406468808
 31
0.0
  0
LINE
  5
50A8
  8
0
 10
762.1091152726091877
 20
13.3869306124526997
 30
0.0
 11
762.1109086273761477
 21
13.3612727445719006
 31
0.0
  0
LINE
  5
50A9
  8
0
 10
762.214157975073249
 20
13.3860677417230107
 30
0.0
 11
762.2141586048840054
 21
13.3646776189045102
 31
0.0
  0
ARC
  5
50AA
  8
0
 10
762.1651625500546743
 20
13.3646761762646893
 30
0.0
 40
0.0489960548506532
 50
269.7903288002084992
 51
0.0016870168951252
  0
ARC
  5
50AB
  8
0
 10
762.159781356376584
 20
13.3646823992016692
 30
0.0
 40
0.0489915235999932
 50
183.9908306741054957
 51
269.7951182670083767
  0
LINE
  5
50AC
  8
0
 10
762.1596061698802487
 20
13.3156911888232603
 30
0.0
 11
762.1649832517053937
 21
13.3156804494813503
 31
0.0
  0
LINE
  5
50AD
  8
0
 10
762.1119230381103762
 20
13.3144460036102004
 30
0.0
 11
762.1131893575363847
 21
13.2963285306338594
 31
0.0
  0
LINE
  5
50AE
  8
0
 10
762.2164389375029714
 20
13.3132350095116703
 30
0.0
 11
762.2164393350443561
 21
13.2997334049664602
 31
0.0
  0
ARC
  5
50AF
  8
0
 10
762.1674432802149113
 20
13.2997319623266694
 30
0.0
 40
0.0489960548506532
 50
269.7903288002084992
 51
0.0016870168951252
  0
ARC
  5
50B0
  8
0
 10
762.1620620865369347
 20
13.2997381852636192
 30
0.0
 40
0.0489915235999932
 50
183.9908306741054957
 51
269.7951182670083767
  0
LINE
  5
50B1
  8
0
 10
762.161886900040713
 20
13.2507469748852404
 30
0.0
 11
762.1672639818657444
 21
13.2507362355433003
 31
0.0
  0
LINE
  5
50B2
  8
0
 10
762.1049976617709945
 20
13.2501898721244604
 30
0.0
 11
762.1245260405901263
 21
12.9707936406236204
 31
0.0
  0
LINE
  5
50B3
  8
0
 10
762.2277679598006443
 20
13.2478806705486107
 30
0.0
 11
762.2277760180978703
 21
12.97419851495623
 31
0.0
  0
ARC
  5
50B4
  8
0
 10
762.1787799632684255
 20
12.9741970723164108
 30
0.0
 40
0.0489960548506532
 50
269.7903288002084992
 51
0.0016870168951252
  0
ARC
  5
50B5
  8
0
 10
762.1733987695904489
 20
12.9742032952533908
 30
0.0
 40
0.0489915235999932
 50
183.9908306741054957
 51
269.7951182670083767
  0
LINE
  5
50B6
  8
0
 10
762.1732235830942273
 20
12.9252120848749801
 30
0.0
 11
762.1786006649193723
 21
12.9252013455330701
 31
0.0
  0
ARC
  5
50B7
  8
0
 10
765.6632532245647553
 20
847.0363715727941099
 30
0.0
 40
833.4278363512274836
 50
269.7075546463997853
 51
269.8938766901675876
  0
ARC
  5
50B8
  8
0
 10
760.5697225306521432
 20
13.6252195297248697
 30
0.0
 40
0.7000031059999295
 50
286.2050007911158218
 51
314.0627374881005949
  0
ARC
  5
50B9
  8
0
 10
762.0861867049261491
 20
12.0583120862238609
 30
0.0
 40
1.4805616209355681
 50
90.4838934814820277
 51
134.0627374881007086
  0
ARC
  5
50BA
  8
0
 10
765.335380637765752
 20
650.5044677965529445
 30
0.0
 40
636.9739978937476508
 50
269.7066091518772168
 51
269.9018872728444762
  0
ARC
  5
50BB
  8
0
 10
764.9001991112266978
 20
421.1861633383787762
 30
0.0
 40
407.7334504400710102
 50
269.5400300100984055
 51
269.8789209491827137
  0
ARC
  5
50BC
  8
0
 10
764.0375103295104964
 20
12.9540842543816392
 30
0.0
 40
0.4995401733493905
 50
29.0374696680015703
 51
89.878920949189208
  0
ARC
  5
50BD
  8
0
 10
764.0304242246919557
 20
12.9501503021854596
 30
0.0
 40
0.5076450398738308
 50
17.3237822606403888
 51
29.0374696680015703
  0
ARC
  5
50BE
  8
0
 10
764.7538435294521832
 20
13.17519591372489
 30
0.0
 40
0.24997075499998
 50
197.1916502638970883
 51
270.1726043394032786
  0
ARC
  5
50BF
  8
0
 10
765.4639329678029753
 20
415.3958852498569172
 30
0.0
 40
402.0229525915485738
 50
269.4272726083149792
 51
269.8351376354530089
  0
ARC
  5
50C0
  8
0
 10
760.6266425138524028
 20
13.6752434398243707
 30
0.0
 40
0.7500284945994028
 50
270.0
 51
304.471283052210083
  0
ARC
  5
50C1
  8
0
 10
761.8896022017745508
 20
11.8356511510041393
 30
0.0
 40
1.4813762115001119
 50
89.2874852177907883
 51
124.4712830522101967
  0
ARC
  5
50C2
  8
0
 10
765.6578318161086827
 20
314.8364151643197033
 30
0.0
 40
301.5428184447670787
 50
269.2874852177907883
 51
269.7612850437104157
  0
ARC
  5
50C3
  8
0
 10
766.0837619716307927
 20
221.5192062696565927
 30
0.0
 40
208.3070180205864972
 50
268.7370331310646066
 51
269.5069764209416121
  0
ARC
  5
50C4
  8
0
 10
764.2891709739628823
 20
12.9694397343027195
 30
0.0
 40
0.2504696867589318
 50
24.3082040786805287
 51
89.5069764209481349
  0
ARC
  5
50C5
  8
0
 10
764.7461154287100271
 20
13.1758368397620202
 30
0.0
 40
0.2509263641490051
 50
204.3082040786775906
 51
267.177198213030124
  0
ARC
  5
50C6
  8
0
 10
769.7263907520690509
 20
751.0362765707307062
 30
0.0
 40
737.6905399758481963
 50
269.2319436531744827
 51
269.2780199079192016
  0
ARC
  5
50C7
  8
0
 10
763.9027755915587932
 20
180.2398243262157962
 30
0.0
 40
165.3115934329190964
 50
269.8098041430644116
 51
270.357179891944611
  0
ARC
  5
50C8
  8
0
 10
764.9326865009586527
 20
14.8706457773416894
 30
0.0
 40
0.0608005566686863
 50
7.7636627692805211
 51
89.4071288490424365
  0
LINE
  5
50C9
  8
0
 10
764.9929297422520449
 20
14.8788591548249496
 30
0.0
 11
765.1263544542894124
 21
12.9707968780114502
 31
0.0
  0
LINE
  5
50CA
  8
0
 10
764.933315626752119
 20
14.9314430790249304
 30
0.0
 11
764.9330886921520687
 21
14.93465228362491
 31
0.0
  0
ARC
  5
50CB
  8
0
 10
764.938353163798979
 20
14.9350245536781898
 30
0.0
 40
0.0052776175225304
 50
120.3667083482964983
 51
184.0448611820920917
  0
ARC
  5
50CC
  8
0
 10
764.942085184376765
 20
14.9296338758282801
 30
0.0
 40
0.0118257510200646
 50
94.5542121884047191
 51
122.764970154793204
  0
ARC
  5
50CD
  8
0
 10
764.9369001351558381
 20
14.9762424021599401
 30
0.0
 40
0.0350780457484337
 50
276.9524739949300169
 51
309.177196472704793
  0
ARC
  5
50CE
  8
0
 10
764.9449082514043994
 20
14.9664154988863505
 30
0.0
 40
0.0224013760833685
 50
309.1771964726904116
 51
359.5340252465791195
  0
LINE
  5
50CF
  8
0
 10
764.9673088866521766
 20
14.9662333151249403
 30
0.0
 11
764.966556575352115
 21
14.9876888106249293
 31
0.0
  0
ARC
  5
50D0
  8
0
 10
765.0283739736014468
 20
14.9898563637928106
 30
0.0
 40
0.0618553879063288
 50
127.1456917514364022
 51
182.008185280629192
  0
ARC
  5
50D1
  8
0
 10
764.979789500892025
 20
15.0539901815136705
 30
0.0
 40
0.0186032820050357
 50
307.145691751427421
 51
329.520669390924013
  0
ARC
  5
50D2
  8
0
 10
765.1756516144329225
 20
13.9107252400813
 30
0.0
 40
1.148001100824849
 50
93.7383577197783069
 51
99.0122611259636045
  0
LINE
  5
50D3
  8
0
 10
765.1008015215521709
 20
15.05628361532494
 30
0.0
 11
765.1061834432521209
 21
15.0562842849249208
 31
0.0
  0
ARC
  5
50D4
  8
0
 10
765.0299287994353108
 20
13.8065822098326798
 30
0.0
 40
1.252026376396896
 50
81.2852863060277144
 51
86.5082405796818534
  0
ARC
  5
50D5
  8
0
 10
765.1764023947117721
 20
14.9811788865854201
 30
0.0
 40
0.0763833218308476
 50
4.8769110178349449
 51
55.5338801259938393
  0
LINE
  5
50D6
  8
0
 10
765.2525091811520497
 20
14.9876726460248992
 30
0.0
 11
765.2532584358521035
 21
14.9662168901249206
 31
0.0
  0
ARC
  5
50D7
  8
0
 10
765.2750138711476211
 20
14.96697660990462
 30
0.0
 40
0.0217686963100184
 50
182.0000085187814136
 51
235.4289784932101952
  0
ARC
  5
50D8
  8
0
 10
765.2898012492519229
 20
14.9884353463703608
 30
0.0
 40
0.0478290862131647
 50
235.4289784932101952
 51
259.4939166552659913
  0
ARC
  5
50D9
  8
0
 10
765.2771317049962363
 20
14.9201170851227793
 30
0.0
 40
0.0216540208815845
 50
63.8413137449103729
 51
79.4939166552593548
  0
ARC
  5
50DA
  8
0
 10
765.2835675654006309
 20
14.9343818140267892
 30
0.0
 40
0.006034793341516
 50
2.369734456859498
 51
58.9739001268463525
  0
LINE
  5
50DB
  8
0
 10
765.2895971978521175
 20
14.9346313399249304
 30
0.0
 11
765.2895965274522041
 21
14.9314263147249306
 31
0.0
  0
ARC
  5
50DC
  8
0
 10
765.224886764766552
 20
10.2372407672503805
 30
0.0
 40
4.6946315411867792
 50
87.8071722518699858
 51
89.2102226393497659
  0
ARC
  5
50DD
  8
0
 10
765.2902314406941287
 20
14.8706704118847401
 30
0.0
 40
0.0607592202447708
 50
90.5987323579241917
 51
176.2428359518850129
  0
LINE
  5
50DE
  8
0
 10
765.229602807952233
 20
14.8746518358249293
 30
0.0
 11
765.229602807952233
 21
12.97421494522494
 31
0.0
  0
ARC
  5
50DF
  8
0
 10
765.2196538554051131
 20
14.9841321070320692
 30
0.0
 40
0.0600218523757575
 50
90.0235797538021671
 51
179.9596515124601979
  0
LINE
  5
50E0
  8
0
 10
765.1596320179122586
 20
14.9841743752546499
 30
0.0
 11
765.1655220608522541
 21
14.8249585343249208
 31
0.0
  0
LINE
  5
50E1
  8
0
 10
765.1655220608522541
 20
14.8249585343249208
 30
0.0
 11
765.1932608793522377
 21
14.0149422816249203
 31
0.0
  0
LINE
  5
50E2
  8
0
 10
765.1932608793522377
 20
14.0149422816249203
 30
0.0
 11
765.229602807952233
 21
12.9742149550249195
 31
0.0
  0
ARC
  5
50E3
  8
0
 10
764.9958341043244445
 20
14.9845511032208503
 30
0.0
 40
0.060002983317645
 50
4.0456044449693751
 51
90.0115235873964679
  0
LINE
  5
50E4
  8
0
 10
765.055687572914394
 20
14.9887843413188904
 30
0.0
 11
765.0611619613520133
 21
14.8215481893249006
 31
0.0
  0
LINE
  5
50E5
  8
0
 10
765.0611619613520133
 20
14.8215481893249006
 30
0.0
 11
765.0900105879521789
 21
14.0115227773249398
 31
0.0
  0
LINE
  5
50E6
  8
0
 10
765.0900105879521789
 20
14.0115227773249398
 30
0.0
 11
765.1263544542894124
 21
12.9707968780114502
 31
0.0
  0
ARC
  5
50E7
  8
0
 10
765.1752350927522457
 20
12.9742149452250004
 30
0.0
 40
0.0490000000000895
 50
184.0000000000570139
 51
270.0
  0
ARC
  5
50E8
  8
0
 10
765.1806028079522548
 20
12.97421494522494
 30
0.0
 40
0.0490000000000119
 50
270.0
 51
359.9999999999836859
  0
ARC
  5
50E9
  8
0
 10
764.7890369870108316
 20
14.8683522161402806
 30
0.0
 40
0.0734980879762334
 50
1.6339865476108519
 51
58.2015813988207498
  0
LINE
  5
50EA
  8
0
 10
764.8625051889521274
 20
14.8704479832249294
 30
0.0
 11
764.9221523007521455
 21
12.9727294439249299
 31
0.0
  0
ARC
  5
50EB
  8
0
 10
764.5830120254901203
 20
12.9620699401599904
 30
0.0
 40
0.3393077531170338
 50
353.7643334320005124
 51
1.8002685669164551
  0
LINE
  5
50EC
  8
0
 10
765.4045161446522343
 20
14.9284344952249199
 30
0.0
 11
767.9702241136521934
 21
14.9308195241249404
 31
0.0
  0
ARC
  5
50ED
  8
0
 10
765.4222418188801385
 20
14.8696410579291705
 30
0.0
 40
0.0614073920296292
 50
106.777570296424102
 51
182.7136762490810042
  0
LINE
  5
50EE
  8
0
 10
765.3609032889520449
 20
14.8667337323249296
 30
0.0
 11
765.4337283930522062
 21
12.9707173492249002
 31
0.0
  0
ARC
  5
50EF
  8
0
 10
765.8658337371924745
 20
12.9873143137604998
 30
0.0
 40
0.4324239674977531
 50
182.1996228716772066
 51
188.2566567487102134
  0
ARC
  5
50F0
  8
0
 10
765.46923608133568
 20
1076.7230850627149721
 30
0.0
 40
1062.7992944978709602
 50
270.0724403222567958
 51
270.2187579723574231
  0
ARC
  5
50F1
  8
0
 10
766.8143232219741776
 20
12.9244790057963304
 30
0.0
 40
1.0000225224943351
 50
90.0794841042712449
 51
168.4293430895635879
  0
ARC
  5
50F2
  8
0
 10
765.5897017375698397
 20
13.1752041676488805
 30
0.0
 40
0.2500018320087842
 50
270.5754641240753244
 51
348.4293430713212274
  0
ARC
  5
50F3
  8
0
 10
769.5305902585641888
 20
12.9310133315308207
 30
0.0
 40
1.0005299782233059
 50
11.0766401301601896
 51
90.2030924283789233
  0
ARC
  5
50F4
  8
0
 10
770.7567575314826627
 20
13.1748928747063392
 30
0.0
 40
0.2496780656927368
 50
191.9401501299896893
 51
270.0598486032741903
  0
ARC
  5
50F5
  8
0
 10
765.334769624625892
 20
963.3465165875010143
 30
0.0
 40
949.5340985932022022
 50
270.0615841961543993
 51
270.2804351610182039
  0
ARC
  5
50F6
  8
0
 10
766.5662446470626037
 20
12.9360369338242691
 30
0.0
 40
0.7530430466263788
 50
90.2745356385227922
 51
166.1681301621983948
  0
ARC
  5
50F7
  8
0
 10
765.1228540748359137
 20
841.6132100434492713
 30
0.0
 40
827.9253906166841261
 50
270.0996388009476732
 51
270.322163634691492
  0
ARC
  5
50F8
  8
0
 10
769.7815130130475154
 20
12.9496082950428608
 30
0.0
 40
0.7513067113823721
 50
13.3619789152966408
 51
90.2601446227912163
  0
ARC
  5
50F9
  8
0
 10
765.5921493542989538
 20
13.1751757721354892
 30
0.0
 40
0.2499775918672344
 50
270.6635760988356765
 51
346.3231426219780928
  0
ARC
  5
50FA
  8
0
 10
765.0862125229909907
 20
742.6934330447554657
 30
0.0
 40
729.0841789746131099
 50
270.0899345731792209
 51
270.3945999236144075
  0
ARC
  5
50FB
  8
0
 10
770.602373348813785
 20
27.828234951917711
 30
0.0
 40
0.0450015951747679
 50
39.4942661581140726
 51
80.0743305370504146
  0
LINE
  5
50FC
  8
0
 10
770.6371005503521019
 20
27.8568560113249184
 30
0.0
 11
770.7188321496521439
 21
27.7152927288249415
 31
0.0
  0
ARC
  5
50FD
  8
0
 10
771.04359167442135
 20
27.9027927279669399
 30
0.0
 40
0.3749999981420014
 50
210.0000000125263
 51
270.0000001575095894
  0
LINE
  5
50FE
  8
0
 10
771.0435916754521486
 20
27.5277927298249594
 30
0.0
 11
771.5655529860521256
 21
27.5277927298249594
 31
0.0
  0
ARC
  5
50FF
  8
0
 10
771.5655529860521256
 20
27.9027927296517504
 30
0.0
 40
0.3749999998267981
 50
270.0
 51
330.0000000152774078
  0
LINE
  5
5100
  8
0
 10
771.8903125122521942
 20
27.7152927295249398
 30
0.0
 11
771.9720441110521278
 21
27.8568560113249184
 31
0.0
  0
ARC
  5
5101
  8
0
 10
771.9992509077529803
 20
27.8411481599363917
 30
0.0
 40
0.0314157027927787
 50
90.4314031034686252
 51
150.000000016568805
  0
LINE
  5
5102
  8
0
 10
771.9990143684522081
 20
27.8725629722249408
 30
0.0
 11
776.1628954029522447
 21
27.8725629720249088
 31
0.0
  0
ARC
  5
5103
  8
0
 10
776.1628954073122486
 20
118.6462042700084965
 30
0.0
 40
90.7736412979835734
 50
269.9999999972446858
 51
271.6727126684573932
  0
ARC
  5
5104
  8
0
 10
778.8046574614526207
 20
28.068919020506641
 30
0.0
 40
0.1578748767785427
 50
272.8822034740271079
 51
346.3486167364837911
  0
LINE
  5
5105
  8
0
 10
778.9580723307522021
 20
28.2959675358249392
 30
0.0
 11
778.9580723307522021
 21
27.6910046772249387
 31
0.0
  0
ARC
  5
5106
  8
0
 10
778.802072330752253
 20
27.6910046772249387
 30
0.0
 40
0.1559999999999917
 50
269.9999999999935199
 51
0.0
  0
LINE
  5
5107
  8
0
 10
778.802072330752253
 20
27.5350046772249293
 30
0.0
 11
778.6628740622520581
 21
27.5350046772249293
 31
0.0
  0
ARC
  5
5108
  8
0
 10
778.6628740622520581
 20
27.7230058204926202
 30
0.0
 40
0.1880011432676696
 50
186.0003137239160935
 51
270.0
  0
LINE
  5
5109
  8
0
 10
778.4759029165520587
 20
27.7033533261249403
 30
0.0
 11
778.4613948447522489
 21
27.8413884089249386
 31
0.0
  0
ARC
  5
510A
  8
0
 10
778.4299138677338306
 20
27.8378056248111392
 30
0.0
 40
0.0316841956823672
 50
6.4927769306899261
 51
84.1604983612333655
  0
LINE
  5
510B
  8
0
 10
778.4331374868362445
 20
27.8693254048852594
 30
0.0
 11
777.2553967804509512
 21
27.8076026299137204
 31
0.0
  0
ARC
  5
510C
  8
0
 10
779.2555723307521021
 20
28.3432149452250286
 30
0.0
 40
0.0490000000000826
 50
285.37031820392599
 51
359.9999290232880753
  0
LINE
  5
510D
  8
0
 10
779.3045723307521939
 20
28.3432148845249294
 30
0.0
 11
779.3045723307521939
 21
29.5386450452249214
 31
0.0
  0
ARC
  5
510E
  8
0
 10
764.9245415131304071
 20
653.3650493946621509
 30
0.0
 40
639.8347857038372695
 50
270.1057146470158727
 51
270.4556385573679904
  0
ARC
  5
510F
  8
0
 10
770.0166819742933058
 20
13.0504797567942408
 30
0.0
 40
0.5000313918786783
 50
36.6044159125767692
 51
90.4556385573680473
  0
ARC
  5
5110
  8
0
 10
766.3135695284189524
 20
12.9532849941349593
 30
0.0
 40
0.500163288142539
 50
90.1534187243273948
 51
162.785103690722508
  0
ARC
  5
5111
  8
0
 10
765.5970168412520707
 20
13.1751890847249804
 30
0.0
 40
0.2499628353000831
 50
269.7725487218392004
 51
342.8092280417927782
  0
ARC
  5
5112
  8
0
 10
765.0144403013649708
 20
515.6397456909703578
 30
0.0
 40
502.1879761252022263
 50
270.1480680018846101
 51
270.6000690135088007
  0
ARC
  5
5113
  8
0
 10
765.6073579680548846
 20
13.1754159609637203
 30
0.0
 40
0.2502112404309586
 50
270.5179774130018018
 51
335.7339706662247067
  0
ARC
  5
5114
  8
0
 10
766.0633798408840676
 20
12.9696353961251791
 30
0.0
 40
0.2500902926836411
 50
90.4422174672697281
 51
155.6913210400115872
  0
ARC
  5
5115
  8
0
 10
763.3303418361041395
 20
292.2037985956819739
 30
0.0
 40
278.9974480917423989
 50
270.5608777070402198
 51
271.4540155473969776
  0
ARC
  5
5116
  8
0
 10
770.2631915412166563
 20
13.0938677011613294
 30
0.0
 40
0.249852177167362
 50
23.9951422119913111
 51
90.5613230692675728
  0
ARC
  5
5117
  8
0
 10
764.5391759632384492
 20
336.7196423191891768
 30
0.0
 40
323.4265470051557827
 50
270.2498317027745998
 51
271.0136421798558786
  0
ARC
  5
5118
  8
0
 10
764.8631036692639782
 20
421.5418851657261143
 30
0.0
 40
408.1690742005765173
 50
270.1657508076531258
 51
270.7722452030718046
  0
LINE
  5
5119
  8
0
 10
767.9018291497404789
 20
13.24380586295017
 30
0.0
 11
767.9157391296521382
 21
12.9252149452249103
 31
0.0
  0
LINE
  5
511A
  8
0
 10
768.4384763914573568
 20
13.2531165691471404
 30
0.0
 11
768.4470627976520518
 21
12.9252149452249103
 31
0.0
  0
LINE
  5
511B
  8
0
 10
762.4350540255119313
 20
13.2441461041320707
 30
0.0
 11
762.4434055318522496
 21
12.9252149452249103
 31
0.0
  0
LINE
  5
511C
  8
0
 10
761.8977157534810658
 20
13.2542529681266892
 30
0.0
 11
761.9120818638521087
 21
12.9252149452249103
 31
0.0
  0
LINE
  5
511D
  8
0
 10
767.9702241136521934
 20
14.9308195241249404
 30
0.0
 11
767.9685925094521508
 21
14.9777565210249097
 31
0.0
  0
ARC
  5
511E
  8
0
 10
768.0343769128262466
 20
14.9779096746719809
 30
0.0
 40
0.0657845816534086
 50
128.9004621297621043
 51
180.1333909147118106
  0
ARC
  5
511F
  8
0
 10
767.9778785872822482
 20
15.0475350454951702
 30
0.0
 40
0.0238810221507204
 50
309.4920017723973729
 51
326.8571206383613799
  0
ARC
  5
5120
  8
0
 10
768.1478012758775549
 20
14.1830563137925303
 30
0.0
 40
0.864521824189515
 50
92.964479263421282
 51
99.986825931876723
  0
LINE
  5
5121
  8
0
 10
768.103090937252091
 20
15.0464212251249201
 30
0.0
 11
768.1084635734521271
 21
15.0464333062249196
 31
0.0
  0
ARC
  5
5122
  8
0
 10
768.0589989041507124
 20
14.0248411874680805
 30
0.0
 40
1.022788937472046
 50
80.8490292394741488
 51
87.227949336257609
  0
ARC
  5
5123
  8
0
 10
768.2425725584569136
 20
15.05023534660533
 30
0.0
 40
0.026103949089172
 50
216.7607131332677
 51
232.1156947979434051
  0
ARC
  5
5124
  8
0
 10
768.1850554706513776
 20
14.97371595250182
 30
0.0
 40
0.069626841248988
 50
3.8909941996310189
 51
53.4264341472949766
  0
LINE
  5
5125
  8
0
 10
768.2545218190520018
 20
14.9784407236249297
 30
0.0
 11
768.2561420600521842
 21
14.9315426192249099
 31
0.0
  0
ARC
  5
5126
  8
0
 10
767.9695320183534477
 20
14.8699453293464892
 30
0.0
 40
0.0608781289612864
 50
4.0968437091550598
 51
89.3486167440779582
  0
LINE
  5
5127
  8
0
 10
768.0302545866520632
 20
14.8742946149249509
 30
0.0
 11
768.0931113300521247
 21
13.9749912984249107
 31
0.0
  0
ARC
  5
5128
  8
0
 10
768.1419689326517073
 20
13.9784061971953193
 30
0.0
 40
0.0489767992561543
 50
183.9981822500446071
 51
270.1738307345781891
  0
LINE
  5
5129
  8
0
 10
768.1421175240488992
 20
13.9294296233464507
 30
0.0
 11
768.1474912990997836
 21
13.9294481809847497
 31
0.0
  0
ARC
  5
512A
  8
0
 10
768.1472705814702522
 20
13.9785371973411401
 30
0.0
 40
0.0490895125572372
 50
270.2576157428542274
 51
359.8754438096340778
  0
LINE
  5
512B
  8
0
 10
768.1963599780312961
 20
13.9784304809667592
 30
0.0
 11
768.1963311818520879
 21
14.8708344293249102
 31
0.0
  0
ARC
  5
512C
  8
0
 10
768.2570441142217987
 20
14.8708363884158405
 30
0.0
 40
0.0607129324013367
 50
90.8513144812548461
 51
180.0018488259024991
  0
ARC
  5
512D
  8
0
 10
767.7211175053732859
 20
372.1089460524161154
 30
0.0
 40
357.1778041459892847
 50
270.0858246509874903
 51
270.5156621042614233
  0
LINE
  5
512E
  8
0
 10
770.9956002404520632
 20
14.8929705892249302
 30
0.0
 11
771.1300130376894231
 21
12.9707869822114592
 31
0.0
  0
LINE
  5
512F
  8
0
 10
771.2332600760157675
 20
14.8872847448527992
 30
0.0
 11
771.2332613913522437
 21
12.9742050494249206
 31
0.0
  0
LINE
  5
5130
  8
0
 10
771.1935364301215259
 20
14.9338292746308898
 30
0.0
 11
771.1952945251521214
 21
14.3952184865249393
 31
0.0
  0
LINE
  5
5131
  8
0
 10
771.1952945251521214
 20
14.3952184865249393
 30
0.0
 11
771.2332613913522437
 21
12.9742050592249303
 31
0.0
  0
LINE
  5
5132
  8
0
 10
771.0317033055314369
 20
14.9395548186814597
 30
0.0
 11
771.0685120095522507
 21
14.3899156369249202
 31
0.0
  0
LINE
  5
5133
  8
0
 10
771.0685120095522507
 20
14.3899156369249202
 30
0.0
 11
771.0983075530521091
 21
13.8652134735249106
 31
0.0
  0
LINE
  5
5134
  8
0
 10
771.0983075530521091
 20
13.8652134735249106
 30
0.0
 11
771.1300130376894231
 21
12.9707869822114592
 31
0.0
  0
ARC
  5
5135
  8
0
 10
771.1788936761522564
 20
12.9742050494249792
 30
0.0
 40
0.0490000000000895
 50
184.0000000000570139
 51
270.0
  0
ARC
  5
5136
  8
0
 10
771.1842613913521518
 20
12.9742050494249206
 30
0.0
 40
0.0490000000000119
 50
270.0
 51
359.9999999999836859
  0
ARC
  5
5137
  8
0
 10
770.7908623045453851
 20
14.8814342387375191
 30
0.0
 40
0.074972785231517
 50
2.0060702610678578
 51
57.5229830554764092
  0
LINE
  5
5138
  8
0
 10
770.8657891407522129
 20
14.8840586894249203
 30
0.0
 11
770.9258108841521562
 21
12.9727195481249105
 31
0.0
  0
ARC
  5
5139
  8
0
 10
770.586670608890131
 20
12.9620600443599994
 30
0.0
 40
0.3393077531170338
 50
353.7643334320005124
 51
1.8002685669164551
  0
LINE
  5
513A
  8
0
 10
771.3638595910522326
 20
14.8834372893249292
 30
0.0
 11
771.4373869764522169
 21
12.9707074534249092
 31
0.0
  0
ARC
  5
513B
  8
0
 10
771.8694923205925988
 20
12.9873044179604893
 30
0.0
 40
0.4324239674977531
 50
182.1996228716772066
 51
188.2566567487102134
  0
LINE
  5
513C
  8
0
 10
770.9356748983520902
 20
14.9456075148249106
 30
0.0
 11
770.9354542026520676
 21
14.9487637673249303
 31
0.0
  0
ARC
  5
513D
  8
0
 10
770.9353654041748314
 20
14.8848252503270402
 30
0.0
 40
0.0607830736893377
 50
7.7011858831784243
 51
89.7082522438750658
  0
ARC
  5
513E
  8
0
 10
770.940882584265978
 20
14.9489677086977597
 30
0.0
 40
0.0054322112467796
 50
121.7338685844154043
 51
182.1515596670842001
  0
ARC
  5
513F
  8
0
 10
770.9451592531066808
 20
14.9420523384695105
 30
0.0
 40
0.0135631547200736
 50
92.4499179665437367
 51
121.7338685844230071
  0
ARC
  5
5140
  8
0
 10
770.9424566557847811
 20
14.9857130247755599
 30
0.0
 40
0.0301846682354454
 50
274.0328227056152173
 51
13.7128447379312597
  0
ARC
  5
5141
  8
0
 10
771.1103537370361209
 20
14.32756633428572
 30
0.0
 40
0.6795802858144419
 50
93.2191901660858662
 51
101.7656628195570931
  0
LINE
  5
5142
  8
0
 10
771.0721912868521031
 20
15.0060742504249305
 30
0.0
 11
771.1454950301522331
 21
15.0063978534249003
 31
0.0
  0
ARC
  5
5143
  8
0
 10
771.1474832014798722
 20
14.5560299623696103
 30
0.0
 40
0.4503722794742379
 50
76.4182067861887759
 51
90.2529334091174178
  0
ARC
  5
5144
  8
0
 10
771.2852108518712839
 20
14.9895078056602902
 30
0.0
 40
0.0322532014112977
 50
172.3383693868472903
 51
266.2199144909673123
  0
ARC
  5
5145
  8
0
 10
771.2814695826309617
 20
14.9384015306336995
 30
0.0
 40
0.0189920254816796
 50
63.087591815026137
 51
85.122196435810082
  0
ARC
  5
5146
  8
0
 10
771.2872965292078788
 20
14.95040492778746
 30
0.0
 40
0.0056561390270078
 50
1.5375561874179551
 51
60.6842300934264784
  0
LINE
  5
5147
  8
0
 10
771.2929506317522055
 20
14.95055669442492
 30
0.0
 11
771.2929485119522042
 21
14.9474102371249096
 31
0.0
  0
ARC
  5
5148
  8
0
 10
771.2937199528953442
 20
14.88695437940647
 30
0.0
 40
0.060460779465684
 50
90.7310774021301114
 51
179.6869262232766005
  0
ARC
  5
5149
  8
0
 10
771.4439235025641892
 20
14.88361523074194
 30
0.0
 40
0.0800641092485372
 50
127.4823276740463029
 51
180.1273392120887138
  0
ARC
  5
514A
  8
0
 10
770.9720815957430204
 20
14.9328744350370197
 30
0.0
 40
0.0599947981389914
 50
6.3931073189694887
 51
90.2871309404994378
  0
ARC
  5
514B
  8
0
 10
771.2535252981522262
 20
14.9338196671248902
 30
0.0
 40
0.05998886880002
 50
90.2671575595176421
 51
179.990823805181094
  0
LINE
  5
514C
  8
0
 10
768.0925926678613678
 20
13.9270282458890495
 30
0.0
 11
768.0969745047607375
 21
13.8643364765941701
 31
0.0
  0
ARC
  5
514D
  8
0
 10
768.1458321073599791
 20
13.8677513753645894
 30
0.0
 40
0.0489767992561543
 50
183.9981822500446071
 51
270.1738307345781891
  0
LINE
  5
514E
  8
0
 10
768.1459806987572847
 20
13.8187748015157101
 30
0.0
 11
768.1513544738082828
 21
13.8187933591540109
 31
0.0
  0
ARC
  5
514F
  8
0
 10
768.1511337561787514
 20
13.8678823755103995
 30
0.0
 40
0.0490895125572372
 50
270.2576157428542274
 51
359.8754438096340778
  0
LINE
  5
5150
  8
0
 10
768.200223152739909
 20
13.8677756591360293
 30
0.0
 11
768.2002212320229546
 21
13.9272993610211806
 31
0.0
  0
LINE
  5
5151
  8
0
 10
768.0960070492162686
 20
13.8164328307566802
 30
0.0
 11
768.1012821192664433
 21
13.7409614058271501
 31
0.0
  0
ARC
  5
5152
  8
0
 10
768.1501397218656848
 20
13.7443763045975391
 30
0.0
 40
0.0489767992561543
 50
183.9981822500446071
 51
270.1738307345781891
  0
LINE
  5
5153
  8
0
 10
768.1502883132629904
 20
13.6953997307486901
 30
0.0
 11
768.1556620883139885
 21
13.6954182883869908
 31
0.0
  0
ARC
  5
5154
  8
0
 10
768.1554413706844571
 20
13.7445073047433493
 30
0.0
 40
0.0490895125572372
 50
270.2576157428542274
 51
359.8754438096340778
  0
LINE
  5
5155
  8
0
 10
768.204530767245501
 20
13.7444005883690004
 30
0.0
 11
768.2045284325186003
 21
13.8167546128753802
 31
0.0
  0
LINE
  5
5156
  8
0
 10
768.1019128895078438
 20
13.6931791006245902
 30
0.0
 11
768.1040004635359537
 21
13.6633117841613902
 31
0.0
  0
ARC
  5
5157
  8
0
 10
768.1528580661354226
 20
13.6667266829318095
 30
0.0
 40
0.0489767992561543
 50
183.9981822500446071
 51
270.1738307345781891
  0
LINE
  5
5158
  8
0
 10
768.1530066575326146
 20
13.6177501090829303
 30
0.0
 11
768.1583804325837264
 21
13.6177686667212292
 31
0.0
  0
ARC
  5
5159
  8
0
 10
768.1581597149540812
 20
13.6668576830776196
 30
0.0
 40
0.0490895125572372
 50
270.2576157428542274
 51
359.8754438096340778
  0
LINE
  5
515A
  8
0
 10
768.2072491115152388
 20
13.6667509667032494
 30
0.0
 11
768.2072482462829157
 21
13.6935648239483907
 31
0.0
  0
LINE
  5
515B
  8
0
 10
768.1046432822745373
 20
13.6155022946626705
 30
0.0
 11
768.1067045949305339
 21
13.5860107046174097
 31
0.0
  0
ARC
  5
515C
  8
0
 10
768.1555621975300028
 20
13.5894256033877898
 30
0.0
 40
0.0489767992561543
 50
183.9981822500446071
 51
270.1738307345781891
  0
LINE
  5
515D
  8
0
 10
768.1557107889271947
 20
13.5404490295389195
 30
0.0
 11
768.1610845639781928
 21
13.5404675871772397
 31
0.0
  0
ARC
  5
515E
  8
0
 10
768.160863846348775
 20
13.5895566035335804
 30
0.0
 40
0.0490895125572372
 50
270.2576157428542274
 51
359.8754438096340778
  0
LINE
  5
515F
  8
0
 10
768.2099532429097053
 20
13.5894498871592599
 30
0.0
 11
768.2099523879342087
 21
13.6159458869488308
 31
0.0
  0
LINE
  5
5160
  8
0
 10
768.1073472978675909
 20
13.5381800432631199
 30
0.0
 11
768.109365072114656
 21
13.5093113654696602
 31
0.0
  0
ARC
  5
5161
  8
0
 10
768.1582226747142386
 20
13.5127262642400403
 30
0.0
 40
0.0489767992561543
 50
183.9981822500446071
 51
270.1738307345781891
  0
LINE
  5
5162
  8
0
 10
768.1583712661114305
 20
13.46374969039117
 30
0.0
 11
768.1637450411624286
 21
13.4637682480294902
 31
0.0
  0
ARC
  5
5163
  8
0
 10
768.1635243235330108
 20
13.5128572643858291
 30
0.0
 40
0.0490895125572372
 50
270.2576157428542274
 51
359.8754438096340778
  0
LINE
  5
5164
  8
0
 10
768.2126137200939411
 20
13.5127505480115104
 30
0.0
 11
768.2126128823559839
 21
13.5387123442508699
 31
0.0
  0
LINE
  5
5165
  8
0
 10
768.1100734892061155
 20
13.4613108494363392
 30
0.0
 11
768.1119986568440936
 21
13.4337671119135198
 31
0.0
  0
ARC
  5
5166
  8
0
 10
768.1608562594434488
 20
13.4371820106839408
 30
0.0
 40
0.0489767992561543
 50
183.9981822500446071
 51
270.1738307345781891
  0
LINE
  5
5167
  8
0
 10
768.1610048508407544
 20
13.3882054368350598
 30
0.0
 11
768.1663786258917526
 21
13.3882239944733605
 31
0.0
  0
ARC
  5
5168
  8
0
 10
768.1661579082624485
 20
13.4373130108297492
 30
0.0
 40
0.0490895125572372
 50
270.2576157428542274
 51
359.8754438096340778
  0
LINE
  5
5169
  8
0
 10
768.215247304823265
 20
13.4372062944553807
 30
0.0
 11
768.2152465057392874
 21
13.4619701927225393
 31
0.0
  0
LINE
  5
516A
  8
0
 10
768.1128019615392759
 20
13.3857476463145808
 30
0.0
 11
768.114541635507976
 21
13.3608578018067696
 31
0.0
  0
ARC
  5
516B
  8
0
 10
768.1633992381073313
 20
13.3642727005771906
 30
0.0
 40
0.0489767992561543
 50
183.9981822500446071
 51
270.1738307345781891
  0
LINE
  5
516C
  8
0
 10
768.1635478295045232
 20
13.3152961267282794
 30
0.0
 11
768.168921604555635
 21
13.3153146843666104
 31
0.0
  0
ARC
  5
516D
  8
0
 10
768.1687008869261035
 20
13.3644037007229706
 30
0.0
 40
0.0490895125572372
 50
270.2576157428542274
 51
359.8754438096340778
  0
LINE
  5
516E
  8
0
 10
768.2177902834871475
 20
13.3642969843486199
 30
0.0
 11
768.2177895639064218
 21
13.3865970506461593
 31
0.0
  0
LINE
  5
516F
  8
0
 10
768.1156119945078444
 20
13.3128699519543403
 30
0.0
 11
768.1168099653164063
 21
13.2957303570143299
 31
0.0
  0
ARC
  5
5170
  8
0
 10
768.1656675679157615
 20
13.2991452557847207
 30
0.0
 40
0.0489767992561543
 50
183.9981822500446071
 51
270.1738307345781891
  0
LINE
  5
5171
  8
0
 10
768.1658161593129535
 20
13.2501686819358397
 30
0.0
 11
768.1711899343639516
 21
13.2501872395741707
 31
0.0
  0
ARC
  5
5172
  8
0
 10
768.1709692167346475
 20
13.2992762559305007
 30
0.0
 40
0.0490895125572372
 50
270.2576157428542274
 51
359.8754438096340778
  0
LINE
  5
5173
  8
0
 10
768.2200586132955777
 20
13.2991695395561909
 30
0.0
 11
768.2200581333943319
 21
13.3140418510963805
 31
0.0
  0
LINE
  5
5174
  8
0
 10
768.1088586381896448
 20
13.2472754260727292
 30
0.0
 11
768.1281827509615141
 21
12.9708016896983693
 31
0.0
  0
ARC
  5
5175
  8
0
 10
768.1770854699598203
 20
12.9742381485887499
 30
0.0
 40
0.0490233125678504
 50
184.0196426577282978
 51
269.8790639678431944
  0
ARC
  5
5176
  8
0
 10
768.1822557571275638
 20
12.9743833637439092
 30
0.0
 40
0.0491758482544455
 50
270.9959873994388886
 51
359.8339800229014145
  0
LINE
  5
5177
  8
0
 10
768.2314313989405719
 20
12.9742408722402303
 30
0.0
 11
768.2314225200180999
 21
13.2494018749377904
 31
0.0
  0
LINE
  5
5178
  8
0
 10
768.0931113300521247
 20
13.9749912984249107
 30
0.0
 11
768.0578679718521471
 21
14.9787082160249092
 31
0.0
  0
ARC
  5
5179
  8
0
 10
767.9980104200133155
 20
14.9744714532355498
 30
0.0
 40
0.0600073051475424
 50
4.048686423640901
 51
90.1298730300150055
  0
ARC
  5
517A
  8
0
 10
768.2218048472634564
 20
14.9745877916421506
 30
0.0
 40
0.0600251852387651
 50
90.1386519729616253
 51
179.9500311810353139
  0
LINE
  5
517B
  8
0
 10
768.1617796848521493
 20
14.9746401408249099
 30
0.0
 11
768.1963599780312961
 21
13.9784304809667592
 31
0.0
  0
ARC
  5
517C
  8
0
 10
771.5894766946121308
 20
13.17520993309064
 30
0.0
 40
0.2499949878692434
 50
269.9996957624913989
 51
348.1835500364334166
  0
ARC
  5
517D
  8
0
 10
772.5686817193529805
 20
12.9703499223302696
 30
0.0
 40
0.7504099823736134
 50
90.5204910845761077
 51
168.1835500364342977
  0
ARC
  5
517E
  8
0
 10
772.5431784593173461
 20
15.7776774853777901
 30
0.0
 40
2.0570334208883021
 50
270.5204910845761219
 51
296.5740081315690873
  0
ARC
  5
517F
  8
0
 10
772.093214948552145
 20
13.1827374498249803
 30
0.0
 40
0.249977552399925
 50
103.7604037257916048
 51
127.7322638344956971
  0
ARC
  5
5180
  8
0
 10
771.5501001777056445
 20
15.3941032478973998
 30
0.0
 40
2.0271066872530281
 50
283.8035443480583808
 51
286.6992676076943098
  0
ARC
  5
5181
  8
0
 10
772.0831963805010218
 20
15.51784350539093
 30
0.0
 40
2.0174607686768731
 50
269.6506891219095792
 51
292.8658459041254218
  0
ARC
  5
5182
  8
0
 10
771.8403970433540735
 20
15.4500261863106392
 30
0.0
 40
2.01879553114847
 50
274.1679967649494074
 51
289.4893874700355241
  0
ARC
  5
5183
  8
0
 10
772.3302802481216531
 20
13.0732310391658295
 30
0.0
 40
0.4997703484371396
 50
91.040374738451689
 51
138.020867528823203
  0
ARC
  5
5184
  8
0
 10
772.2848723105405497
 20
15.5792860508283102
 30
0.0
 40
2.0066960097772402
 50
271.0374650959229257
 51
297.96298322650199
  0
ARC
  5
5185
  8
0
 10
772.3740938184832885
 20
16.0027368671304515
 30
0.0
 40
2.3345046652849888
 50
297.8145333625960234
 51
328.2107699361245068
  0
ARC
  5
5186
  8
0
 10
775.1850957692674911
 20
14.2605732455144292
 30
0.0
 40
0.9725886281971591
 50
116.4551489988621
 51
148.2107699361258142
  0
ARC
  5
5187
  8
0
 10
773.5337811981008826
 20
17.6018562657685997
 30
0.0
 40
2.7544810413323289
 50
273.0188149055015856
 51
296.2442790142551985
  0
ARC
  5
5188
  8
0
 10
771.9118281723654036
 20
61.7254242235185728
 30
0.0
 40
48.082240659963837
 50
270.3894630522289049
 51
270.6526269627862007
  0
ARC
  5
5189
  8
0
 10
772.4400252032282879
 20
15.6481599751384497
 30
0.0
 40
2.0019519657318399
 50
270.557278659962094
 51
305.2221974617431215
  0
ARC
  5
518A
  8
0
 10
771.5872506461785179
 20
13.1752149453611302
 30
0.0
 40
0.2500000001511414
 50
270.0
 51
352.000032175273418
  0
ARC
  5
518B
  8
0
 10
772.8482148468392552
 20
13.0699362909492596
 30
0.0
 40
1.015845470455033
 50
106.7322110053518998
 51
176.0212745003533996
  0
ARC
  5
518C
  8
0
 10
771.9638482787279372
 20
16.0493911728412186
 30
0.0
 40
2.092098041626699
 50
286.4348238453050044
 51
325.0849246228377751
  0
ARC
  5
518D
  8
0
 10
774.5505345809491473
 20
14.2373418715881606
 30
0.0
 40
1.066149119482714
 50
114.6488584766579066
 51
144.7967239459730138
  0
ARC
  5
518E
  8
0
 10
772.1294100847927666
 20
20.4280018022201517
 30
0.0
 40
5.5832053850804932
 50
286.8954595698600087
 51
290.7324535484617059
  0
ARC
  5
518F
  8
0
 10
772.8608973014192998
 20
17.9997722737548287
 30
0.0
 40
3.047202489464599
 50
270.2668456850049097
 51
287.0043985799865141
  0
ARC
  5
5190
  8
0
 10
771.6676826920502208
 20
141.8041580955097913
 30
0.0
 40
126.8573013385968977
 50
269.8307490545781775
 51
270.5453398019712949
  0
ARC
  5
5191
  8
0
 10
770.9169455022837383
 20
241.2904917610563018
 30
0.0
 40
227.4571533857337045
 50
270.3188922560811989
 51
270.4445655262304058
  0
ARC
  5
5192
  8
0
 10
772.6662617235355128
 20
15.8424549692833097
 30
0.0
 40
2.0023299720250329
 50
270.4445655262304058
 51
326.2900561311388969
  0
ARC
  5
5193
  8
0
 10
772.7594504710982619
 20
18.3384110574674892
 30
0.0
 40
3.8287594626148951
 50
296.3491204408957174
 51
312.4482418831117911
  0
ARC
  5
5194
  8
0
 10
773.5279085763323792
 20
17.4613280478256883
 30
0.0
 40
2.6630369534441889
 50
312.9845978405901974
 51
349.8668574393237236
  0
ARC
  5
5195
  8
0
 10
1564.3840920111028936
 20
-99.4483653979770139
 30
0.0
 40
796.7528514509916704
 50
170.8611649762598006
 51
171.1345022277741919
  0
ARC
  5
5196
  8
0
 10
925.2294017638643027
 20
-0.5927231460118492
 30
0.0
 40
150.001349208548902
 50
170.8178481811389133
 51
171.5107054868670957
  0
ARC
  5
5197
  8
0
 10
928.1163253176640637
 20
0.2211432793368999
 30
0.0
 40
152.741457034914788
 50
171.9725272627703134
 51
172.6590786188297102
  0
ARC
  5
5198
  8
0
 10
700.2100931422661461
 20
31.6162032560788901
 30
0.0
 40
77.3344884930784104
 50
349.1001506004528778
 51
351.1642039046270725
  0
ARC
  5
5199
  8
0
 10
778.0380508355350457
 20
27.050492474852561
 30
0.0
 40
0.2969157617001796
 50
153.0151833711350093
 51
170.8441291140688918
  0
ARC
  5
519A
  8
0
 10
806.2941992084099638
 20
12.6030083551164402
 30
0.0
 40
32.0323800254547493
 50
151.6952454009498013
 51
152.920044036900606
  0
ARC
  5
519B
  8
0
 10
778.2045593571447171
 20
27.7287089810530887
 30
0.0
 40
0.1291842165702363
 50
99.0661381952073725
 51
150.9068062507078025
  0
ARC
  5
519C
  8
0
 10
745.9152450264941763
 20
36.3179429618628973
 30
0.0
 40
27.3528673877725588
 50
333.9847557285207813
 51
339.7623390477486964
  0
ARC
  5
519D
  8
0
 10
771.8245098519378189
 20
26.7658491801323208
 30
0.0
 40
0.2611236205903424
 50
145.139618553189905
 51
159.7623390477486964
  0
ARC
  5
519E
  8
0
 10
895.9282685276598386
 20
-59.5298544685962412
 30
0.0
 40
151.4189595358186011
 50
144.7870069728028
 51
145.1870494783995866
  0
ARC
  5
519F
  8
0
 10
772.2717489186691182
 20
27.7422951498399613
 30
0.0
 40
0.0671741685459498
 50
98.2800704516983643
 51
144.834437898007991
  0
ARC
  5
51A0
  8
0
 10
777.8308441610283808
 20
-190.5451671792409059
 30
0.0
 40
218.4249360175805066
 50
91.0501324130162999
 51
91.4609208532980347
  0
LINE
  5
51A1
  8
0
 10
773.8277174886521834
 20
27.8430826217249212
 30
0.0
 11
772.4630305404521096
 21
26.6919211145249307
 31
0.0
  0
LINE
  5
51A2
  8
0
 10
772.4630305404521096
 20
26.6919211145249307
 30
0.0
 11
770.6073611527522189
 21
24.356930691224921
 31
0.0
  0
LINE
  5
51A3
  8
0
 10
770.6073611527522189
 20
24.356930691224921
 30
0.0
 11
770.4966482315210214
 21
24.3206945004770496
 31
0.0
  0
LINE
  5
51A4
  8
0
 10
775.0959379887522118
 20
27.7372082551249086
 30
0.0
 11
774.3794371128520879
 21
26.9525442602249399
 31
0.0
  0
ARC
  5
51A5
  8
0
 10
774.5927868791327455
 20
26.7577280135172799
 30
0.0
 40
0.2889143346274349
 50
137.599833212193488
 51
155.6107160291678042
  0
ARC
  5
51A6
  8
0
 10
757.1294016666618063
 20
34.2982472079921905
 30
0.0
 40
18.7329434601775588
 50
327.7915500568353764
 51
336.6617475493865754
  0
LINE
  5
51A7
  8
0
 10
772.9796180427522359
 20
24.3135683692249103
 30
0.0
 11
773.1010894651521994
 21
24.3780853511249092
 31
0.0
  0
LINE
  5
51A8
  8
0
 10
773.1010894651521994
 20
24.3780853511249092
 30
0.0
 11
775.621316440352075
 21
26.9608417156249409
 31
0.0
  0
LINE
  5
51A9
  8
0
 10
775.621316440352075
 20
26.9608417156249409
 30
0.0
 11
777.2978807228521418
 21
27.8296173014249284
 31
0.0
  0
ARC
  5
51AA
  8
0
 10
771.496999250734234
 20
196.347900245764805
 30
0.0
 40
168.6180948545029139
 50
271.2460966082124969
 51
271.9715062132004846
  0
ARC
  5
51AB
  8
0
 10
775.1670606442417011
 20
27.6757133017726602
 30
0.0
 40
0.0940216007717727
 50
91.9271103182297082
 51
139.1522438869401128
  0
LINE
  5
51AC
  8
0
 10
770.4966482332522446
 20
24.3206944973249399
 30
0.0
 11
772.3811153360521757
 21
26.6919211145249307
 31
0.0
  0
LINE
  5
51AD
  8
0
 10
772.3811153360521757
 20
26.6919211145249307
 30
0.0
 11
773.743963228452003
 21
27.8415313134262199
 31
0.0
  0
LINE
  5
51AE
  8
0
 10
772.3811153360521757
 20
26.6919211145249307
 30
0.0
 11
772.4630305404521096
 21
26.6919211145249307
 31
0.0
  0
LINE
  5
51AF
  8
0
 10
772.9796180427522359
 20
24.3135683692249103
 30
0.0
 11
775.5639587966521731
 21
26.9608417156249409
 31
0.0
  0
LINE
  5
51B0
  8
0
 10
775.5639587966521731
 20
26.9608417156249409
 30
0.0
 11
777.2364648452240772
 21
27.8275143957086293
 31
0.0
  0
LINE
  5
51B1
  8
0
 10
775.5639587966521731
 20
26.9608417156249409
 30
0.0
 11
775.621316440352075
 21
26.9608417156249409
 31
0.0
  0
ARC
  5
51B2
  8
0
 10
775.5938138732008156
 20
100.1990975780734061
 30
0.0
 40
72.4306917518724305
 50
268.5543777683126905
 51
269.6599168281986181
  0
LINE
  5
51B3
  8
0
 10
772.2620750323521861
 20
27.8087690909249403
 30
0.0
 11
771.9461605175563363
 21
27.8120243122776998
 31
0.0
  0
ARC
  5
51B4
  8
0
 10
765.536070077879117
 20
-709.6280300666137464
 30
0.0
 40
737.4688086017920341
 50
89.6021665146294168
 51
90.6215660759641253
  0
ARC
  5
51B5
  8
0
 10
766.025729077787787
 20
1072.0061895811170416
 30
0.0
 40
1045.1647727188089902
 50
269.5894517317080954
 51
270.3044586340145088
  0
ARC
  5
51B6
  8
0
 10
771.503328914731128
 20
218.2171314332979932
 30
0.0
 40
191.3609738387125105
 50
270.3468887940795184
 51
270.8462668270558993
  0
ARC
  5
51B7
  8
0
 10
775.136939699411414
 20
52.1934081038011328
 30
0.0
 40
25.296749539165809
 50
270.9632155051875202
 51
274.0533969312265867
  0
ARC
  5
51B8
  8
0
 10
776.4245649879138682
 20
34.0228771116769479
 30
0.0
 40
7.080652937002748
 50
274.0533969312265867
 51
279.1951216282948849
  0
ARC
  5
51B9
  8
0
 10
777.461050375844593
 20
27.6199688455450207
 30
0.0
 40
0.5943954472098488
 50
279.1951216282948849
 51
298.5270599538008014
  0
ARC
  5
51BB
  8
0
 10
759.331996786652212
 20
13.8102658395248703
 30
0.0
 40
0.5001823610999416
 50
245.5372012716979953
 51
266.6128026400511999
  0
LINE
  5
51BC
  8
0
 10
759.1248701048073144
 20
13.3549846824104907
 30
0.0
 11
759.096166360431198
 21
13.3683014690248694
 31
0.0
  0
ARC
  5
51BD
  8
0
 10
758.7669874199623337
 20
12.6587708266274692
 30
0.0
 40
0.7821716610496178
 50
65.1115755694881813
 51
78.3873862444264375
  0
LINE
  5
51BE
  8
0
 10
760.4394083497452357
 20
13.2847483651152007
 30
0.0
 11
759.8408473949505151
 21
13.2980317602891294
 31
0.0
  0
ENDSEC
  0
EOF
