  0
SECTION
  2
HEADER
  9
$ACADVER
  1
AC1009
  9
$INSBASE
 10
660.2204526089875571
 20
57.6921492616654916
 30
0.0
  9
$EXTMIN
 10
630.1807323449918385
 20
28.3225173500550191
 30
-0.0000000349181948
  9
$EXTMAX
 10
690.2405493437461246
 20
57.7008525949120994
 30
0.0000000814935746
  9
$LIMMIN
 10
0.0
 20
0.0
  9
$LIMMAX
 10
11.6929133858000007
 20
8.2677165353999982
  9
$ORTHOMODE
 70
     0
  9
$REGENMODE
 70
     1
  9
$FILLMODE
 70
     1
  9
$QTEXTMODE
 70
     0
  9
$MIRRTEXT
 70
     0
  9
$DRAGMODE
 70
     2
  9
$LTSCALE
 40
0.6431102362
  9
$OSMODE
 70
  4095
  9
$ATTMODE
 70
     1
  9
$TEXTSIZE
 40
0.2
  9
$TRACEWID
 40
0.05
  9
$TEXTSTYLE
  7
STANDARD
  9
$CLAYER
  8
0
  9
$CELTYPE
  6
BYLAYER
  9
$CECOLOR
 62
   256
  9
$DIMSCALE
 40
1.0
  9
$DIMASZ
 40
0.1875
  9
$DIMEXO
 40
0.0625
  9
$DIMDLI
 40
0.4443307087
  9
$DIMRND
 40
0.0
  9
$DIMDLE
 40
0.0
  9
$DIMEXE
 40
0.125
  9
$DIMTP
 40
0.01
  9
$DIMTM
 40
0.01
  9
$DIMTXT
 40
2.0
  9
$DIMCEN
 40
0.1052362205
  9
$DIMTSZ
 40
0.0
  9
$DIMTOL
 70
     1
  9
$DIMLIM
 70
     0
  9
$DIMTIH
 70
     1
  9
$DIMTOH
 70
     1
  9
$DIMSE1
 70
     0
  9
$DIMSE2
 70
     0
  9
$DIMTAD
 70
     0
  9
$DIMZIN
 70
     0
  9
$DIMBLK
  1

  9
$DIMASO
 70
     1
  9
$DIMSHO
 70
     1
  9
$DIMPOST
  1
\X
  9
$DIMAPOST
  1

  9
$DIMALT
 70
     1
  9
$DIMALTD
 70
     2
  9
$DIMALTF
 40
25.3999999999999986
  9
$DIMLFAC
 40
1.0
  9
$DIMTOFL
 70
     0
  9
$DIMTVP
 40
0.0
  9
$DIMTIX
 70
     0
  9
$DIMSOXD
 70
     0
  9
$DIMSAH
 70
     0
  9
$DIMBLK1
  1

  9
$DIMBLK2
  1

  9
$DIMSTYLE
  2
STANDARD
  9
$DIMCLRD
 70
     0
  9
$DIMCLRE
 70
     0
  9
$DIMCLRT
 70
     0
  9
$DIMTFAC
 40
1.0
  9
$DIMGAP
 40
0.09
  9
$LUNITS
 70
     2
  9
$LUPREC
 70
     4
  9
$SKETCHINC
 40
0.1
  9
$FILLETRAD
 40
0.0
  9
$AUNITS
 70
     0
  9
$AUPREC
 70
     0
  9
$MENU
  1
.
  9
$ELEVATION
 40
0.0
  9
$PELEVATION
 40
0.0
  9
$THICKNESS
 40
0.0
  9
$LIMCHECK
 70
     0
  9
$BLIPMODE
 70
     0
  9
$CHAMFERA
 40
0.0
  9
$CHAMFERB
 40
0.0
  9
$SKPOLY
 70
     0
  9
$TDCREATE
 40
2458106.4931018520146608
  9
$TDUPDATE
 40
2459710.7481018519029021
  9
$TDINDWG
 40
0.2531698611
  9
$TDUSRTIMER
 40
0.2531698611
  9
$USRTIMER
 70
     1
  9
$ANGBASE
 50
0.0
  9
$ANGDIR
 70
     0
  9
$PDMODE
 70
     0
  9
$PDSIZE
 40
0.3125
  9
$PLINEWID
 40
0.0
  9
$COORDS
 70
     1
  9
$SPLFRAME
 70
     0
  9
$SPLINETYPE
 70
     6
  9
$SPLINESEGS
 70
     8
  9
$ATTDIA
 70
     1
  9
$ATTREQ
 70
     1
  9
$HANDLING
 70
     1
  9
$HANDSEED
  5
5A87
  9
$SURFTAB1
 70
     6
  9
$SURFTAB2
 70
     6
  9
$SURFTYPE
 70
     6
  9
$SURFU
 70
     6
  9
$SURFV
 70
     6
  9
$UCSNAME
  2

  9
$UCSORG
 10
0.0
 20
0.0
 30
0.0
  9
$UCSXDIR
 10
1.0
 20
0.0
 30
0.0
  9
$UCSYDIR
 10
0.0
 20
1.0
 30
0.0
  9
$PUCSNAME
  2

  9
$PUCSORG
 10
0.0
 20
0.0
 30
0.0
  9
$PUCSXDIR
 10
1.0
 20
0.0
 30
0.0
  9
$PUCSYDIR
 10
0.0
 20
1.0
 30
0.0
  9
$USERI1
 70
     0
  9
$USERI2
 70
     0
  9
$USERI3
 70
     0
  9
$USERI4
 70
     0
  9
$USERI5
 70
     0
  9
$USERR1
 40
0.0
  9
$USERR2
 40
0.0
  9
$USERR3
 40
0.0
  9
$USERR4
 40
0.0
  9
$USERR5
 40
0.0
  9
$WORLDVIEW
 70
     1
  9
$SHADEDGE
 70
     3
  9
$SHADEDIF
 70
    70
  9
$TILEMODE
 70
     1
  9
$MAXACTVP
 70
    64
  9
$PLIMCHECK
 70
     0
  9
$PEXTMIN
 10
1.0000000000000000E+20
 20
1.0000000000000000E+20
 30
1.0000000000000000E+20
  9
$PEXTMAX
 10
-1.0000000000000000E+20
 20
-1.0000000000000000E+20
 30
-1.0000000000000000E+20
  9
$PLIMMIN
 10
0.0
 20
0.0
  9
$PLIMMAX
 10
12.0
 20
9.0
  9
$UNITMODE
 70
     0
  9
$VISRETAIN
 70
     1
  9
$PLINEGEN
 70
     0
  9
$PSLTSCALE
 70
     1
  0
ENDSEC
  0
SECTION
  2
TABLES
  0
TABLE
  2
VPORT
 70
     1
  0
VPORT
  2
*ACTIVE
 70
     0
 10
0.0
 20
0.0
 11
1.0
 21
1.0
 12
386.6364392878559215
 22
60.6176457065050371
 13
0.0
 23
0.0
 14
1.0
 24
1.0
 15
0.0
 25
0.0
 16
-0.0000000000000568
 26
0.0
 36
193.9250709296327955
 17
273.5742015565131169
 27
-17.6059607340214797
 37
0.0
 40
29.607555025701231
 41
2.4830729166666661
 42
50.0
 43
0.0
 44
0.0
 50
0.0
 51
0.0
 71
     0
 72
   100
 73
     1
 74
     1
 75
     0
 76
     0
 77
     0
 78
     0
  0
ENDTAB
  0
TABLE
  2
LTYPE
 70
     2
  0
LTYPE
  2
CONTINUOUS
 70
     0
  3
Solid line
 72
    65
 73
     0
 40
0.0
  0
LTYPE
  2
PHANTOM2
 70
     0
  3
___ _ _ ___ _ _ ___ _ _ ___ _ _
 72
    65
 73
     6
 40
1.25
 49
0.625
 49
-0.125
 49
0.125
 49
-0.125
 49
0.125
 49
-0.125
  0
ENDTAB
  0
TABLE
  2
LAYER
 70
     2
  0
LAYER
  2
0
 70
     0
 62
   255
  6
CONTINUOUS
  0
LAYER
  2
DEFPOINTS
 70
     0
 62
     7
  6
CONTINUOUS
  0
ENDTAB
  0
TABLE
  2
STYLE
 70
     1
  0
STYLE
  2
STANDARD
 70
     0
 40
0.0
 41
0.8
 50
0.0
 71
     0
 42
0.2
  3
txt
  4

  0
ENDTAB
  0
TABLE
  2
VIEW
 70
     0
  0
ENDTAB
  0
TABLE
  2
UCS
 70
     0
  0
ENDTAB
  0
TABLE
  2
APPID
 70
     9
  0
APPID
  2
ACAD
 70
     0
  0
APPID
  2
ACAD_MLEADERVER
 70
     0
  0
APPID
  2
ACAD_EXEMPT_FROM_CAD_STANDARDS
 70
     0
  0
APPID
  2
ACAD_NAV_VCDISPLAY
 70
     0
  0
APPID
  2
ACAD_DSTYLE_DIMJAG
 70
     0
  0
APPID
  2
ACAD_DSTYLE_DIMTALN
 70
     0
  0
APPID
  2
ACAECLAYERSTANDARD
 70
     0
  0
APPID
  2
ACCMTRANSPARENCY
 70
     0
  0
APPID
  2
ACDBATTR
 70
     0
  0
ENDTAB
  0
TABLE
  2
DIMSTYLE
 70
     1
  0
DIMSTYLE
  2
STANDARD
 70
     0
  3

  4

  5

  6

  7

 40
1.0
 41
0.1875
 42
0.0625
 43
0.38
 44
0.125
 45
0.0
 46
0.0
 47
0.01
 48
0.01
140
0.15625
141
0.09
142
0.0
143
25.3999999999999986
144
1.0
145
0.0
146
1.0
147
0.09
 71
     1
 72
     0
 73
     1
 74
     1
 75
     0
 76
     0
 77
     0
 78
     4
170
     0
171
     2
172
     0
173
     0
174
     0
175
     0
176
     0
177
     0
178
     0
  0
ENDTAB
  0
ENDSEC
  0
SECTION
  2
BLOCKS
  0
BLOCK
  8
0
  2
$MODEL_SPACE
 70
     0
 10
0.0
 20
0.0
 30
0.0
  3
$MODEL_SPACE
  1

  0
ENDBLK
  5
21
  8
0
  0
BLOCK
 67
     1
  8
0
  2
$PAPER_SPACE
 70
     0
 10
0.0
 20
0.0
 30
0.0
  3
$PAPER_SPACE
  1

  0
ENDBLK
  5
1D
 67
     1
  8
0
  0
BLOCK
  8
0
  2
_FILLED
 70
     0
 10
0.0
 20
0.0
 30
0.0
  3
_FILLED
  1

  0
SOLID
  5
5785
  8
0
  6
BYBLOCK
 62
     0
 10
0.0
 20
0.0
 30
0.0
 11
-1.0
 21
0.1666666667
 31
0.0
 12
-1.0
 22
-0.1666666667
 32
0.0
 13
-1.0
 23
-0.1666666667
 33
0.0
  0
ENDBLK
  5
5786
  8
0
  6
BYBLOCK
 62
     0
  0
ENDSEC
  0
SECTION
  2
ENTITIES
  0
ATTDEF
  5
FAA
  8
DEFPOINTS
 10
660.2166209778423536
 20
57.6963827784837235
 30
0.0
 40
0.001
  1
71341820
  3

  2
MODELNUMBER
 70
     0
1001
ACDBATTR
1070
     0
1070
     1
  0
ATTDEF
  5
FAB
  8
DEFPOINTS
 10
660.2166209778423536
 20
57.6947161118170513
 30
0.0
 40
0.001
  1

  3

  2
TRADENAME
 70
     0
1001
ACDBATTR
1070
     0
1070
     1
  0
ATTDEF
  5
FAC
  8
DEFPOINTS
 10
660.2166209778423536
 20
57.693049445150379
 30
0.0
 40
0.001
  1
BATH
  3

  2
PRODUCT
 70
     0
1001
ACDBATTR
1070
     0
1070
     1
  0
LINE
  5
58C8
  8
0
 10
690.220393454470809
 20
29.6085645336652306
 30
0.0
 11
690.220393454470809
 21
57.4421439259395683
 31
0.0
  0
LINE
  5
58C9
  8
0
 10
689.9703584599108126
 20
57.6921492616654916
 30
0.0
 11
630.4705467580640743
 21
57.6921492616654916
 31
0.0
  0
ARC
  5
58CA
  8
0
 10
689.9703082411359674
 20
57.4420640406138077
 30
0.0
 40
0.2500852260938087
 50
0.0183021337601508
 51
89.9884946267500254
  0
LINE
  5
58CB
  8
0
 10
690.1391201467706651
 20
28.3249145177655102
 30
0.0
 11
630.301785071197628
 21
28.3249145177655102
 31
0.0
  0
ARC
  5
58CC
  8
0
 10
685.9004430595335862
 20
32.359211598662263
 30
0.0
 40
3.8566318336730592
 50
273.3141652896342748
 51
276.9627603075829825
  0
ARC
  5
58CD
  8
0
 10
679.2194758309070721
 20
147.731916115354494
 30
0.0
 40
119.4226141580835048
 50
272.8139926747602999
 51
273.3141652896342748
  0
ARC
  5
58CE
  8
0
 10
684.8963518710679637
 20
32.2378443535654426
 30
0.0
 40
3.7891089197979211
 50
268.6326019249598858
 51
272.8139926747602999
  0
ARC
  5
58CF
  8
0
 10
1296.3555449309581036
 20
-577797.9372510781977326
 30
0.0
 40
577826.710685946745798
 50
90.0606396653671339
 51
90.0609512413147542
  0
ARC
  5
58D0
  8
0
 10
630.4705969768391469
 20
57.4420640406138077
 30
0.0
 40
0.2500852260938087
 50
90.0115053732499888
 51
179.9816978662398128
  0
ARC
  5
58D1
  8
0
 10
634.5404621584414144
 20
32.359211598662263
 30
0.0
 40
3.8566318336730592
 50
263.0372396924169038
 51
266.6858347103657252
  0
ARC
  5
58D2
  8
0
 10
641.2214293870679285
 20
147.731916115354494
 30
0.0
 40
119.4226141580835048
 50
266.6858347103657252
 51
267.1860073252332199
  0
ARC
  5
58D3
  8
0
 10
635.5445533469071506
 20
32.2378443535654426
 30
0.0
 40
3.7891089197979211
 50
267.1860073252332199
 51
271.3673980750400005
  0
ARC
  5
58D4
  8
0
 10
24.0853602870170107
 20
-577797.9372510781977326
 30
0.0
 40
577826.710685946745798
 50
89.9390487586852316
 51
89.9393603346328661
  0
LINE
  5
58D5
  8
0
 10
630.2205117635041915
 20
29.6085645336750609
 30
0.0
 11
630.2205117635041915
 21
57.4421439259395683
 31
0.0
  0
LINE
  5
58D6
  8
0
 10
638.777209121454689
 20
28.4464802912728203
 30
0.0
 11
681.6636960924721507
 21
28.4464802912728203
 31
0.0
  0
LINE
  5
58D7
  8
0
 10
686.3679601957707064
 20
28.5310218400654989
 30
0.0
 11
634.0729450222042942
 21
28.5310218400654989
 31
0.0
  0
CIRCLE
  5
58D8
  8
0
 10
680.970393454470809
 20
43.5671439210655009
 30
0.0
 40
1.0
  0
CIRCLE
  5
58D9
  8
0
 10
680.970393454470809
 20
43.5671439210655009
 30
0.0
 40
1.3875122315601931
  0
LINE
  5
58DA
  8
0
 10
690.1705029744706508
 20
28.551913436665501
 30
0.0
 11
630.2704022435043498
 21
28.551913436665501
 31
0.0
  0
LINE
  5
58DB
  8
0
 10
687.3421365681977022
 20
36.4387821946919814
 30
0.0
 11
687.1715692746350896
 21
34.1813773321231622
 31
0.0
  0
ARC
  5
58DC
  8
0
 10
647.3302409114128295
 20
307.212388257314899
 30
0.0
 40
276.6687201098736182
 50
276.1905910798653849
 51
278.1943643932581267
  0
ARC
  5
58DD
  8
0
 10
649.1075354290026098
 20
286.2780883185048992
 30
0.0
 40
255.6653087446240136
 50
274.6755740447781022
 51
276.3005240304784138
  0
ARC
  5
58DE
  8
0
 10
684.8124575449444364
 20
34.4321086944950423
 30
0.0
 40
2.3723984423451792
 50
344.9175228514919809
 51
353.9332585704182179
  0
ARC
  5
58DF
  8
0
 10
686.2188505485448786
 20
34.0466922593942911
 30
0.0
 40
0.9141845040732356
 50
319.0966417012974716
 51
345.3050576371236957
  0
ARC
  5
58E0
  8
0
 10
686.7025649193379877
 20
33.6537539165858632
 30
0.0
 40
0.2919638069313446
 50
282.2012574526958133
 51
315.2198050377791105
  0
ARC
  5
58E1
  8
0
 10
676.3029229560104341
 20
44.4126187994284507
 30
0.0
 40
11.8152208004523303
 50
293.1176709518716734
 51
332.0031637384947203
  0
ARC
  5
58E2
  8
0
 10
676.0480702516133533
 20
44.7708460804700223
 30
0.0
 40
12.2451018758355108
 50
275.8328063574232942
 51
293.5562950890908951
  0
ARC
  5
58E3
  8
0
 10
656.4883828134743453
 20
215.4158436585732943
 30
0.0
 40
184.0065599179374942
 50
274.5530292147105911
 51
276.491843481044782
  0
ARC
  5
58E4
  8
0
 10
654.0735282183791242
 20
246.2868903269680914
 30
0.0
 40
214.9718862618360049
 50
272.9409497297151006
 51
274.5414716811911831
  0
ARC
  5
58E5
  8
0
 10
643.9583992622729056
 20
41.9305231233298912
 30
0.0
 40
10.4563202483109006
 50
254.9698034598526135
 51
262.9802396095010977
  0
ARC
  5
58E6
  8
0
 10
644.0848563800335569
 20
42.269418594673958
 30
0.0
 40
10.8164699581580308
 50
232.9138702112607859
 51
254.7884000904149104
  0
ARC
  5
58E7
  8
0
 10
644.6348845723880459
 20
42.9787499973071689
 30
0.0
 40
11.7140052379251198
 50
217.1424647909076953
 51
232.8598879881083974
  0
ARC
  5
58E8
  8
0
 10
645.2311468061005826
 20
43.4524497870980326
 30
0.0
 40
12.4753395371542304
 50
202.1949760008193095
 51
217.2232092432413992
  0
ARC
  5
58E9
  8
0
 10
651.9279937278148509
 20
91.6446062813678992
 30
0.0
 40
60.2296930494980103
 50
261.9025251031937955
 51
265.9483319733864164
  0
ARC
  5
58EA
  8
0
 10
645.0549796768279975
 20
43.1926237340818986
 30
0.0
 40
11.29268529284656
 50
241.0326888202496036
 51
261.7993217878573091
  0
ARC
  5
58EB
  8
0
 10
645.0051329545002545
 20
42.9317011507823381
 30
0.0
 40
11.0405739975016299
 50
209.8063635664113917
 51
240.6032127076801999
  0
ARC
  5
58EC
  8
0
 10
645.0996270581904355
 20
42.9315173022366423
 30
0.0
 40
11.1225759663113895
 50
187.6266479187727896
 51
209.563583165272405
  0
ARC
  5
58ED
  8
0
 10
653.7309900286303446
 20
248.7969512640019047
 30
0.0
 40
217.4963204125361074
 50
271.0243998619159242
 51
272.9971411358534965
  0
ARC
  5
58EE
  8
0
 10
654.708042885162854
 20
120.6136913383943039
 30
0.0
 40
89.3257565221237968
 50
265.4824850398487115
 51
271.8677689367194716
  0
ARC
  5
58EF
  8
0
 10
653.6705611208874416
 20
228.2633555707612061
 30
0.0
 40
197.4717701557785006
 50
271.817220782741515
 51
274.7281341178518232
  0
ARC
  5
58F0
  8
0
 10
655.5771821351254403
 20
142.5696151618344913
 30
0.0
 40
111.7636143539197064
 50
263.3737438239807034
 51
272.2333879895720088
  0
ARC
  5
58F2
  8
0
 10
681.0513741709644364
 20
41.8007221794500623
 30
0.0
 40
6.3968462073139429
 50
332.6946895567663205
 51
352.2865559827775996
  0
LINE
  5
58F3
  8
0
 10
687.3421365681977022
 20
50.6955056474390275
 30
0.0
 11
687.1715692746350896
 21
52.9529105100078468
 31
0.0
  0
ARC
  5
58F4
  8
0
 10
647.3302409114128295
 20
-220.0781004151839113
 30
0.0
 40
276.6687201098736182
 50
81.8056356067354358
 51
83.8094089201345724
  0
ARC
  5
58F5
  8
0
 10
649.1075354290026098
 20
-199.1438004763739116
 30
0.0
 40
255.6653087446240136
 50
83.6994759695216288
 51
85.3244259552218836
  0
ARC
  5
58F6
  8
0
 10
684.8124575449444364
 20
52.7021791476359667
 30
0.0
 40
2.3723984423451792
 50
6.0667414295817839
 51
15.0824771485078006
  0
ARC
  5
58F7
  8
0
 10
686.2188505485448786
 20
53.0875955827367179
 30
0.0
 40
0.9141845040732356
 50
14.6949423628762794
 51
40.9033582987024715
  0
ARC
  5
58F8
  8
0
 10
686.7025649193379877
 20
53.4805339255451599
 30
0.0
 40
0.2919638069313446
 50
44.7801949622209605
 51
77.7987425473041441
  0
ARC
  5
58F9
  8
0
 10
676.3029229560104341
 20
42.7216690427025583
 30
0.0
 40
11.8152208004523303
 50
27.9968362615049493
 51
66.8823290481282555
  0
ARC
  5
58FA
  8
0
 10
676.0480702516133533
 20
42.3634417616609866
 30
0.0
 40
12.2451018758355108
 50
66.4437049109091049
 51
84.1671936425701688
  0
ARC
  5
58FB
  8
0
 10
656.4883828134743453
 20
-128.2815558164423067
 30
0.0
 40
184.0065599179374942
 50
83.5081565189552038
 51
85.4469707852893237
  0
ARC
  5
58FC
  8
0
 10
654.0735282183791242
 20
-159.1526024848371037
 30
0.0
 40
214.9718862618360049
 50
85.4585283188088454
 51
87.0590502702848852
  0
ARC
  5
58FD
  8
0
 10
643.9583992622729056
 20
45.2037647188011178
 30
0.0
 40
10.4563202483109006
 50
97.0197603904988455
 51
105.0301965401411053
  0
ARC
  5
58FE
  8
0
 10
644.0848563800335569
 20
44.864869247457051
 30
0.0
 40
10.8164699581580308
 50
105.2115999095850043
 51
127.0861297887398962
  0
ARC
  5
58FF
  8
0
 10
644.6348845723880459
 20
44.15553784482384
 30
0.0
 40
11.7140052379251198
 50
127.1401120118864014
 51
142.8575352090923047
  0
ARC
  5
5900
  8
0
 10
645.2311468061005826
 20
43.6818380550329834
 30
0.0
 40
12.4753395371542304
 50
142.7767907567584871
 51
157.8050239991806052
  0
ARC
  5
5901
  8
0
 10
651.9279937278148509
 20
-4.5103184392369036
 30
0.0
 40
60.2296930494980103
 50
94.0516680266135978
 51
98.0974748968063039
  0
ARC
  5
5902
  8
0
 10
645.0549796768279975
 20
43.9416641080491104
 30
0.0
 40
11.29268529284656
 50
98.2006782121427335
 51
118.9673111797503964
  0
ARC
  5
5903
  8
0
 10
645.0051329545002545
 20
44.2025866913486709
 30
0.0
 40
11.0405739975016299
 50
119.3967872923198001
 51
150.1936364335907115
  0
ARC
  5
5904
  8
0
 10
645.0996270581904355
 20
44.2027705398943667
 30
0.0
 40
11.1225759663113895
 50
150.436416834727595
 51
172.3733520812270967
  0
ARC
  5
5905
  8
0
 10
653.7309900286303446
 20
-161.6626634218708887
 30
0.0
 40
217.4963204125361074
 50
87.0028588641465177
 51
88.9756001380840758
  0
ARC
  5
5906
  8
0
 10
654.708042885162854
 20
-33.479403496263302
 30
0.0
 40
89.3257565221237968
 50
88.1322310632804289
 51
94.5175149601513169
  0
ARC
  5
5907
  8
0
 10
653.6705611208874416
 20
-141.12906772863019
 30
0.0
 40
197.4717701557785006
 50
85.2718658821481483
 51
88.1827792172584708
  0
ARC
  5
5908
  8
0
 10
655.5771821351254403
 20
-55.4353273197035321
 30
0.0
 40
111.7636143539197064
 50
87.7666120104279912
 51
96.626256176019254
  0
ARC
  5
5909
  8
0
 10
681.0513741709644364
 20
45.3335656626809467
 30
0.0
 40
6.3968462073139429
 50
7.7134440172223631
 51
27.3053104432332709
  0
ARC
  5
590A
  8
0
 10
655.7201608822402932
 20
43.572476358990329
 30
0.0
 40
31.7783400219248193
 50
0.0142864897958583
 51
4.7285764945957212
  0
ARC
  5
590B
  8
0
 10
524.9354207341639267
 20
43.5671439210655009
 30
0.0
 40
162.5630797226068864
 50
357.4867845582829773
 51
2.513215441716957
  0
ARC
  5
590C
  8
0
 10
683.4466862391727773
 20
43.5659872955191076
 30
0.0
 40
3.881785943396276
 50
341.2330957422325923
 51
18.8029595297556718
  0
ARC
  5
590D
  8
0
 10
690.8975869728972157
 20
43.5683316589579022
 30
0.0
 40
3.9774097446823831
 50
161.7009826191539901
 51
198.3350726528348105
  0
ARC
  5
590E
  8
0
 10
692.3207772947107514
 20
43.5681075124166171
 30
0.0
 40
5.262502412770302
 50
168.0619464851656062
 51
191.9654319757505903
  0
LINE
  5
590F
  8
0
 10
689.9683819696876981
 20
57.567143921065508
 30
0.0
 11
630.4725232482873025
 21
57.567143921065508
 31
0.0
  0
LINE
  5
5910
  8
0
 10
690.0933701815706627
 20
57.4421439210594826
 30
0.0
 11
690.0933701815706627
 21
29.6126846529764087
 31
0.0
  0
ARC
  5
5911
  8
0
 10
689.9683013109291778
 20
57.4420750574747387
 30
0.0
 40
0.1250688895997793
 50
0.0315473602202149
 51
89.9630491101456755
  0
ARC
  5
5912
  8
0
 10
687.4428163009235959
 20
29.6128545894660107
 30
0.0
 40
2.7775804666086739
 50
358.3099601183678828
 51
359.9115049259772263
  0
LINE
  5
5913
  8
0
 10
690.2191885258707771
 20
29.5309368439655202
 30
0.0
 11
690.1874347995708376
 21
28.5767644104655005
 31
0.0
  0
ARC
  5
5914
  8
0
 10
690.087085500324747
 20
28.5801039160629884
 30
0.0
 40
0.1004048512612139
 50
352.5837191821016177
 51
358.0939678717027732
  0
LINE
  5
5915
  8
0
 10
690.1866504172708119
 20
28.5671439210655009
 30
0.0
 11
630.2542548007043024
 21
28.5671439210655009
 31
0.0
  0
LINE
  5
5916
  8
0
 10
690.1705029744706508
 20
28.5671439210655009
 30
0.0
 11
690.1705029744706508
 21
28.3254539848655007
 31
0.0
  0
ARC
  5
5917
  8
0
 10
690.1396501145475213
 20
29.2071825229450894
 30
0.0
 40
0.8822681643521951
 50
269.9655831186685191
 51
272.004038253763099
  0
ARC
  5
5918
  8
0
 10
689.7072576411162572
 20
32.2455437873324513
 30
0.0
 40
0.0298775737019739
 50
5.7719354617369483
 51
92.4072959527249367
  0
LINE
  5
5919
  8
0
 10
689.7060026969706996
 20
32.2753949937655022
 30
0.0
 11
689.5027607503707259
 21
32.2747698083655123
 31
0.0
  0
ARC
  5
591A
  8
0
 10
689.5028389369380193
 20
32.2493520840953067
 30
0.0
 40
0.0254178445233881
 50
90.1762449752732351
 51
151.9397948145567057
  0
ARC
  5
591B
  8
0
 10
689.5263308440731862
 20
32.2368295342355111
 30
0.0
 40
0.0520389631294528
 50
151.9397948145559951
 51
182.1041074252233045
  0
LINE
  5
591C
  8
0
 10
689.4743269674708017
 20
32.2349189055655074
 30
0.0
 11
689.4743146492706956
 21
31.1184993819654991
 31
0.0
  0
LINE
  5
591D
  8
0
 10
689.4743269674708017
 20
32.2349189055655074
 30
0.0
 11
689.4944457937707512
 21
32.1272081390655231
 31
0.0
  0
ARC
  5
591E
  8
0
 10
688.2203674035816903
 20
31.9481380203489707
 30
0.0
 40
1.286532360738639
 50
359.5278964675903239
 51
8.0008593885021231
  0
LINE
  5
591F
  8
0
 10
689.5068560908707695
 20
31.9375374210655103
 30
0.0
 11
689.5092058240708184
 21
31.4427649545655186
 31
0.0
  0
ARC
  5
5920
  8
0
 10
688.2284994360478549
 20
31.4216601749089399
 30
0.0
 40
1.2808802692082559
 50
352.6048703061553056
 51
0.9440925521446372
  0
LINE
  5
5921
  8
0
 10
689.4987254799707443
 20
31.2567964087654886
 30
0.0
 11
689.4743146492706956
 21
31.1184993819654991
 31
0.0
  0
ARC
  5
5922
  8
0
 10
689.5325123400873508
 20
31.1155833998832598
 30
0.0
 40
0.0582706973347749
 50
177.1316067298378982
 51
205.2866426852490065
  0
ARC
  5
5923
  8
0
 10
689.5037791062325141
 20
31.1020094568606105
 30
0.0
 40
0.0264925498598354
 50
205.2866426852463064
 51
266.7417089330057252
  0
LINE
  5
5924
  8
0
 10
689.5022733422706551
 20
31.0755597333654983
 30
0.0
 11
689.7080188421706453
 21
31.0755597346655108
 31
0.0
  0
ARC
  5
5925
  8
0
 10
689.7080188419729438
 20
31.1068590219634409
 30
0.0
 40
0.0312992872979336
 50
270.0000003620226039
 51
351.8226453470351203
  0
LINE
  5
5926
  8
0
 10
689.7389998945707248
 20
31.1024070824655006
 30
0.0
 11
689.7296525514707355
 21
31.2569487269655006
 31
0.0
  0
ARC
  5
5927
  8
0
 10
694.1857594491565351
 20
31.4416625776948884
 30
0.0
 40
4.4599336194896386
 50
179.9376811543891108
 51
182.3736568558296938
  0
LINE
  5
5928
  8
0
 10
689.7258284677707252
 20
31.4465135084655003
 30
0.0
 11
689.7258284795707368
 21
31.9377353853655102
 31
0.0
  0
ARC
  5
5929
  8
0
 10
693.6099397196103382
 20
31.9542257918012602
 30
0.0
 40
3.884146245767008
 50
177.4450244581557001
 51
180.2432538503618105
  0
LINE
  5
592A
  8
0
 10
689.7296546697707527
 20
32.1273731004655119
 30
0.0
 11
689.7369837380707622
 21
32.2485485432655068
 31
0.0
  0
ARC
  5
592B
  8
0
 10
688.6498849093652552
 20
29.6149028773380394
 30
0.0
 40
1.443486976592959
 50
358.3091092290899269
 51
359.9119528295407235
  0
LINE
  5
592C
  8
0
 10
690.0927433397707773
 20
29.5723094341655184
 30
0.0
 11
690.0613781420707937
 21
28.6298118886655111
 31
0.0
  0
ARC
  5
592D
  8
0
 10
689.5850263865958141
 20
28.6456643087132292
 30
0.0
 40
0.4766154573295515
 50
354.2778839123752732
 51
358.0939680041760766
  0
ARC
  5
592E
  8
0
 10
690.091699085541336
 20
28.5980328872145506
 30
0.0
 40
0.0324323309363085
 50
179.8038443958143091
 51
252.2531896887529967
  0
ARC
  5
592F
  8
0
 10
690.0202316443875361
 20
28.741456395799549
 30
0.0
 40
0.0310442311608922
 50
270.1160936407712825
 51
359.7792668479029885
  0
LINE
  5
5930
  8
0
 10
690.0202945466708115
 20
28.7104122283654988
 30
0.0
 11
689.7071867765706656
 21
28.7104122282655112
 31
0.0
  0
ARC
  5
5931
  8
0
 10
689.7099217510182143
 20
28.6729277289466289
 30
0.0
 40
0.0375841425925162
 50
94.1730664212785342
 51
179.5084450546951018
  0
LINE
  5
5932
  8
0
 10
689.6723389915806592
 20
28.6732501688310393
 30
0.0
 11
689.6692466039706915
 21
28.5981434583655094
 31
0.0
  0
ARC
  5
5933
  8
0
 10
689.697868537710292
 20
28.5940916251922808
 30
0.0
 40
0.0289073077793201
 50
171.9425249748096007
 51
248.7821011954810047
  0
LINE
  5
5934
  8
0
 10
690.0274513914580439
 20
29.6921439210655116
 30
0.0
 11
689.8057009977708276
 21
29.6921439210655116
 31
0.0
  0
ARC
  5
5935
  8
0
 10
690.0185968264275971
 20
29.6611514855711711
 30
0.0
 40
0.0309944358663273
 50
359.9860163851828929
 51
89.3490409798864391
  0
LINE
  5
5936
  8
0
 10
690.0495912613706651
 20
29.6611439210654986
 30
0.0
 11
690.0512756451707901
 21
28.7413367975655092
 31
0.0
  0
ARC
  5
5937
  8
0
 10
690.0260969474173862
 20
28.7332316364751108
 30
0.0
 40
0.0391428886134008
 50
273.3976022112574924
 51
349.4810116454061131
  0
LINE
  5
5938
  8
0
 10
690.0421631764736503
 20
28.719484773448869
 30
0.0
 11
690.0520027410428838
 21
28.7038878878116286
 31
0.0
  0
LINE
  5
5939
  8
0
 10
690.0284167349707332
 20
28.6941575489655101
 30
0.0
 11
689.8669153867707564
 21
28.6941589458654889
 31
0.0
  0
ARC
  5
593A
  8
0
 10
689.8669301240937557
 20
30.3980014305410009
 30
0.0
 40
1.703842484739239
 50
265.4687045628539863
 51
269.9995044222563934
  0
ARC
  5
593B
  8
0
 10
689.7382535802163375
 20
28.7743497306089608
 30
0.0
 40
0.0750998728952161
 50
247.9236428596863959
 51
265.4687045628539863
  0
LINE
  5
593C
  8
0
 10
689.7100279010707027
 20
28.7047558950655102
 30
0.0
 11
689.7071867765706656
 21
28.7104122282655112
 31
0.0
  0
ARC
  5
593D
  8
0
 10
689.8056996554903435
 20
29.7553912723384784
 30
0.0
 40
0.0632473512872347
 50
180.2240733872320959
 51
270.0012159719386773
  0
LINE
  5
593E
  8
0
 10
689.7424527878706613
 20
29.7551439240655213
 30
0.0
 11
689.7400794634708063
 21
31.0519577824655002
 31
0.0
  0
ARC
  5
593F
  8
0
 10
688.4504762950050463
 20
31.0495976544901495
 30
0.0
 40
1.289605328122073
 50
0.1048580093736331
 51
2.3469224010995151
  0
LINE
  5
5940
  8
0
 10
689.7380651911706764
 20
32.3044433116655227
 30
0.0
 11
689.7368469972707317
 21
49.0497168645655108
 31
0.0
  0
ARC
  5
5941
  8
0
 10
688.6101617156601833
 20
32.2983081634164435
 30
0.0
 40
1.127920161231714
 50
357.4715038598067167
 51
0.3116531176840731
  0
ARC
  5
5942
  8
0
 10
689.7060373378162694
 20
50.277851459832462
 30
0.0
 40
0.0298775737019739
 50
5.7719354617369483
 51
92.4072959527249367
  0
LINE
  5
5943
  8
0
 10
689.7047823936708255
 20
50.3077026662655129
 30
0.0
 11
689.4997965173707826
 21
50.3038872443655123
 31
0.0
  0
ARC
  5
5944
  8
0
 10
689.4998747039378486
 20
50.2784695200953067
 30
0.0
 40
0.0254178445233881
 50
90.1762449752732351
 51
151.9397948145567057
  0
ARC
  5
5945
  8
0
 10
689.5233666110731292
 20
50.2659469702355111
 30
0.0
 40
0.0520389631294528
 50
151.9397948145559951
 51
182.1041074252233045
  0
LINE
  5
5946
  8
0
 10
689.4713627344707447
 20
50.2640363415655074
 30
0.0
 11
689.4713135216208002
 21
49.1205594591655199
 31
0.0
  0
LINE
  5
5947
  8
0
 10
689.4713627344707447
 20
50.2640363415655074
 30
0.0
 11
689.4914815607708078
 21
50.1563255750655301
 31
0.0
  0
ARC
  5
5948
  8
0
 10
688.217403170581747
 20
49.9772554563489919
 30
0.0
 40
1.286532360738639
 50
359.5278964675903239
 51
8.0008593885025281
  0
LINE
  5
5949
  8
0
 10
689.5038918578708262
 20
49.9666548570655209
 30
0.0
 11
689.5062046964206957
 21
49.4448250317654967
 31
0.0
  0
ARC
  5
594A
  8
0
 10
688.2254983083978459
 20
49.4237202521089216
 30
0.0
 40
1.2808802692082559
 50
352.6048703061553056
 51
0.9440925521446372
  0
LINE
  5
594B
  8
0
 10
689.495724352320849
 20
49.2588564859655094
 30
0.0
 11
689.4713135216208002
 21
49.1205594591655199
 31
0.0
  0
ARC
  5
594C
  8
0
 10
689.5295112124373418
 20
49.1176434770832628
 30
0.0
 40
0.0582706973347749
 50
177.1316067298378982
 51
205.2866426852490065
  0
ARC
  5
594D
  8
0
 10
689.5007779785823914
 20
49.1040695340606135
 30
0.0
 40
0.0264925498598354
 50
205.2866426852463064
 51
266.7417089330057252
  0
LINE
  5
594E
  8
0
 10
689.4992722146206461
 20
49.0776198105655084
 30
0.0
 11
689.7050177145207499
 21
49.0776198118655032
 31
0.0
  0
ARC
  5
594F
  8
0
 10
689.7050177143230485
 20
49.1089190991634368
 30
0.0
 40
0.0312992872979336
 50
270.0000003620226039
 51
351.8226453470351203
  0
LINE
  5
5950
  8
0
 10
689.7359987669208294
 20
49.1044671596655178
 30
0.0
 11
689.7266514238208401
 21
49.2590088041655179
 31
0.0
  0
ARC
  5
5951
  8
0
 10
694.182758321506526
 20
49.4437226548948985
 30
0.0
 40
4.4599336194896386
 50
179.9376811543891108
 51
182.3736568558296938
  0
LINE
  5
5952
  8
0
 10
689.7228273401208298
 20
49.4485735856655069
 30
0.0
 11
689.7228642465707935
 21
49.9668528213655208
 31
0.0
  0
ARC
  5
5953
  8
0
 10
619.0956135311738535
 20
51.8812425324892885
 30
0.0
 40
70.6531912342363739
 50
358.4473471793294834
 51
358.5900944637800194
  0
LINE
  5
5954
  8
0
 10
689.7274145755708332
 20
50.1428200273655165
 30
0.0
 11
689.7357634347707744
 21
50.2808562157655103
 31
0.0
  0
ARC
  5
5955
  8
0
 10
688.7956508152145716
 20
49.0625169049293532
 30
0.0
 40
0.9412832167581067
 50
359.2208392944859838
 51
2.5543522799249119
  0
ARC
  5
5956
  8
0
 10
688.6365183505293999
 20
50.3298988455133482
 30
0.0
 40
1.1003385546654341
 50
357.4454527650070759
 51
0.2432828259475297
  0
LINE
  5
5957
  8
0
 10
689.7368469860706455
 20
50.334570963965497
 30
0.0
 11
689.7381220611706567
 21
57.0956438702654978
 31
0.0
  0
ARC
  5
5958
  8
0
 10
689.6125753267079972
 20
57.0954426729830899
 30
0.0
 40
0.1255468956789468
 50
0.0918203512993639
 51
85.7474336219673887
  0
ARC
  5
5959
  8
0
 10
689.6261954786193655
 20
57.0955691190134189
 30
0.0
 40
0.1250748265194683
 50
0.034266270747837
 51
89.9641617878131541
  0
LINE
  5
595A
  8
0
 10
689.6262737122679027
 20
57.2206439210655233
 30
0.0
 11
630.8146315057069842
 21
57.2206439210655233
 31
0.0
  0
LINE
  5
595B
  8
0
 10
689.7512702827707471
 20
57.0956439211685307
 30
0.0
 11
689.7512702827707471
 21
29.755047413526249
 31
0.0
  0
ARC
  5
595C
  8
0
 10
689.814255619203891
 20
29.7551266680139612
 30
0.0
 40
0.0629853862960713
 50
180.0720952766808978
 51
269.4754732561963237
  0
LINE
  5
595D
  8
0
 10
690.2191885258707771
 20
29.5309368439655202
 30
0.0
 11
690.152707155070857
 21
29.5309368422655005
 31
0.0
  0
ARC
  5
595E
  8
0
 10
690.1527071531013462
 20
29.6079532221262198
 30
0.0
 40
0.0770163798607158
 50
240.3496755694845888
 51
270.0000014651175775
  0
ARC
  5
595F
  8
0
 10
690.1366143192509526
 20
29.5796825565187191
 30
0.0
 40
0.0444862425227566
 50
189.5401893686284041
 51
240.3496755694845888
  0
ARC
  5
5960
  8
0
 10
650.6404089393005279
 20
43.5671439210655009
 30
0.0
 40
16.6990347011289799
 50
172.7348337316132927
 51
187.2651662683863947
  0
ARC
  5
5961
  8
0
 10
645.443694342695153
 20
43.5671439210655009
 30
0.0
 40
12.7154912860595406
 50
157.6883016181241999
 51
202.3116983818758001
  0
LINE
  5
5962
  8
0
 10
674.6542734234708405
 20
56.9572189453655113
 30
0.0
 11
675.7865134913706697
 21
56.957218943365497
 31
0.0
  0
ARC
  5
5963
  8
0
 10
675.786513491490382
 20
57.0249522273455511
 30
0.0
 40
0.0677332839800471
 50
269.9999998987888716
 51
293.8509803771648876
  0
ARC
  5
5964
  8
0
 10
675.8034207694920497
 20
56.9867104887896829
 30
0.0
 40
0.025920766509809
 50
293.8509803771432871
 51
356.5448998594598038
  0
LINE
  5
5965
  8
0
 10
675.8292944206707489
 20
56.9851483392655069
 30
0.0
 11
675.8354819761707404
 21
57.1896439210655103
 31
0.0
  0
ARC
  5
5966
  8
0
 10
675.8037093528549804
 20
57.1906052859439882
 30
0.0
 40
0.031787164308695
 50
358.2668931964250874
 51
39.3674244275882614
  0
ARC
  5
5967
  8
0
 10
675.8065059179446052
 20
57.1928997488719091
 30
0.0
 40
0.0281697983571618
 50
39.3674244275939671
 51
80.0274031081769266
  0
LINE
  5
5968
  8
0
 10
675.7865134913706697
 20
56.957218943365497
 30
0.0
 11
675.6652601671706861
 21
56.9792926018655095
 31
0.0
  0
ARC
  5
5969
  8
0
 10
675.4920119166569066
 20
55.6927606059189984
 30
0.0
 40
1.2981446502220859
 50
82.3305164872660811
 51
90.724359819348166
  0
ARC
  5
596A
  8
0
 10
674.6542734159511383
 20
57.0249522273455511
 30
0.0
 40
0.0677332839800471
 50
246.1490196228349987
 51
270.0000001012111284
  0
ARC
  5
596B
  8
0
 10
674.6373661379495843
 20
56.9867104887896829
 30
0.0
 40
0.025920766509809
 50
183.4551001405401109
 51
246.1490196228567129
  0
LINE
  5
596C
  8
0
 10
674.6114924867707714
 20
56.9851483392655069
 30
0.0
 11
674.6053049312706662
 21
57.1896439210655103
 31
0.0
  0
ARC
  5
596D
  8
0
 10
674.6370775545864262
 20
57.1906052859439882
 30
0.0
 40
0.031787164308695
 50
140.6325755724116959
 51
181.7331068035749126
  0
ARC
  5
596E
  8
0
 10
674.6342809894970287
 20
57.1928997488719091
 30
0.0
 40
0.0281697983571618
 50
99.9725968918230876
 51
140.6325755724060116
  0
LINE
  5
596F
  8
0
 10
674.6542734160707369
 20
56.957218943365497
 30
0.0
 11
674.7755267402708341
 21
56.9792926018655095
 31
0.0
  0
ARC
  5
5970
  8
0
 10
674.9487749907847274
 20
55.6927606059189984
 30
0.0
 40
1.2981446502220859
 50
89.2756401806518483
 51
97.6694835127339331
  0
LINE
  5
5971
  8
0
 10
675.4756006070707599
 20
56.9908015150655132
 30
0.0
 11
674.9651863003706467
 21
56.9908015150655132
 31
0.0
  0
LINE
  5
5972
  8
0
 10
659.6543325750375288
 20
56.9572189453655113
 30
0.0
 11
660.7865726429374718
 21
56.957218943365497
 31
0.0
  0
ARC
  5
5973
  8
0
 10
660.786572643057184
 20
57.0249522273455511
 30
0.0
 40
0.0677332839800471
 50
269.9999998987888716
 51
293.8509803771648876
  0
ARC
  5
5974
  8
0
 10
660.8034799210588517
 20
56.9867104887896829
 30
0.0
 40
0.025920766509809
 50
293.8509803771432871
 51
356.5448998594598038
  0
LINE
  5
5975
  8
0
 10
660.8293535722375509
 20
56.9851483392655069
 30
0.0
 11
660.8355411277375424
 21
57.1896439210655103
 31
0.0
  0
ARC
  5
5976
  8
0
 10
660.8037685044218961
 20
57.1906052859439882
 30
0.0
 40
0.031787164308695
 50
358.2668931964250874
 51
39.3674244275882614
  0
ARC
  5
5977
  8
0
 10
660.8065650695114073
 20
57.1928997488719091
 30
0.0
 40
0.0281697983571618
 50
39.3674244275939671
 51
80.0274031081769266
  0
LINE
  5
5978
  8
0
 10
660.7865726429374718
 20
56.957218943365497
 30
0.0
 11
660.6653193187374882
 21
56.9792926018655095
 31
0.0
  0
ARC
  5
5979
  8
0
 10
660.4920710682235949
 20
55.6927606059189984
 30
0.0
 40
1.2981446502220859
 50
82.3305164872660811
 51
90.724359819348166
  0
ARC
  5
597A
  8
0
 10
659.6543325675179403
 20
57.0249522273455511
 30
0.0
 40
0.0677332839800471
 50
246.1490196228349987
 51
270.0000001012111284
  0
ARC
  5
597B
  8
0
 10
659.637425289516159
 20
56.9867104887896829
 30
0.0
 40
0.025920766509809
 50
183.4551001405401109
 51
246.1490196228567129
  0
LINE
  5
597C
  8
0
 10
659.6115516383375734
 20
56.9851483392655069
 30
0.0
 11
659.6053640828374682
 21
57.1896439210655103
 31
0.0
  0
ARC
  5
597D
  8
0
 10
659.6371367061532283
 20
57.1906052859439882
 30
0.0
 40
0.031787164308695
 50
140.6325755724116959
 51
181.7331068035749126
  0
ARC
  5
597E
  8
0
 10
659.6343401410637171
 20
57.1928997488719091
 30
0.0
 40
0.0281697983571618
 50
99.9725968918230876
 51
140.6325755724060116
  0
LINE
  5
597F
  8
0
 10
659.6543325676375389
 20
56.957218943365497
 30
0.0
 11
659.7755858918375225
 21
56.9792926018655095
 31
0.0
  0
ARC
  5
5980
  8
0
 10
659.9488341423514157
 20
55.6927606059189984
 30
0.0
 40
1.2981446502220859
 50
89.2756401806518483
 51
97.6694835127339331
  0
LINE
  5
5981
  8
0
 10
660.4756597586375619
 20
56.9908015150655132
 30
0.0
 11
659.9652454519374487
 21
56.9908015150655132
 31
0.0
  0
ARC
  5
5982
  8
0
 10
689.9359151973535518
 20
57.44171789877187
 30
0.0
 40
0.1254974271225135
 50
0.194500702559962
 51
88.0671212811275126
  0
LINE
  5
5983
  8
0
 10
690.061411901370775
 20
57.4421439212762692
 30
0.0
 11
690.061411901370775
 21
29.7527126899316308
 31
0.0
  0
ARC
  5
5984
  8
0
 10
689.5147331251894229
 20
29.7176159384723597
 30
0.0
 40
0.5463203804503096
 50
354.0671914817737047
 51
358.9942219857459804
  0
ARC
  5
5985
  8
0
 10
687.6816006582264436
 20
29.7539365414852206
 30
0.0
 40
2.3798115578357608
 50
358.8946060668014866
 51
359.9705348385580237
  0
ARC
  5
5986
  8
0
 10
690.0271207245752976
 20
29.6611391070698502
 30
0.0
 40
0.0310065772295424
 50
0.0147972765787771
 51
89.3889626774720512
  0
LINE
  5
5987
  8
0
 10
630.3475350364043379
 20
57.4421439210594826
 30
0.0
 11
630.3475350364043379
 21
29.6126846529764087
 31
0.0
  0
ARC
  5
5988
  8
0
 10
630.4726039070458228
 20
57.4420750574747387
 30
0.0
 40
0.1250688895997793
 50
90.0369508898543245
 51
179.9684526397797129
  0
ARC
  5
5989
  8
0
 10
632.9980889170514047
 20
29.6128545894660107
 30
0.0
 40
2.7775804666086739
 50
180.0884950740228021
 51
181.6900398816320887
  0
LINE
  5
598A
  8
0
 10
630.2217166921043372
 20
29.5309368439655202
 30
0.0
 11
630.2534704184042766
 21
28.5767644104655005
 31
0.0
  0
ARC
  5
598B
  8
0
 10
630.3538197176502536
 20
28.5801039160629884
 30
0.0
 40
0.1004048512612139
 50
181.9060321282971131
 51
187.4162808178984108
  0
LINE
  5
598C
  8
0
 10
630.2704022435043498
 20
28.5671439210655009
 30
0.0
 11
630.2704022435043498
 21
28.3254539848655007
 31
0.0
  0
ARC
  5
598D
  8
0
 10
630.3012551034274793
 20
29.2071825229450894
 30
0.0
 40
0.8822681643521951
 50
267.995961746236901
 51
270.0344168813314809
  0
ARC
  5
598E
  8
0
 10
630.7336475768587434
 20
32.2455437873324513
 30
0.0
 40
0.0298775737019739
 50
87.5927040472685974
 51
174.2280645382629984
  0
LINE
  5
598F
  8
0
 10
630.734902521004301
 20
32.2753949937655022
 30
0.0
 11
630.9381444676042747
 21
32.2747698083655123
 31
0.0
  0
ARC
  5
5990
  8
0
 10
630.938066281037095
 20
32.2493520840953067
 30
0.0
 40
0.0254178445233881
 50
28.0602051854432908
 51
89.8237550247267649
  0
ARC
  5
5991
  8
0
 10
630.9145743739019281
 20
32.2368295342355111
 30
0.0
 40
0.0520389631294528
 50
357.8958925747766102
 51
28.0602051854440191
  0
LINE
  5
5992
  8
0
 10
630.9665782505041989
 20
32.2349189055655074
 30
0.0
 11
630.966590568704305
 21
31.1184993819654991
 31
0.0
  0
LINE
  5
5993
  8
0
 10
630.9665782505041989
 20
32.2349189055655074
 30
0.0
 11
630.9464594242042494
 21
32.1272081390655231
 31
0.0
  0
ARC
  5
5994
  8
0
 10
632.2205378143933103
 20
31.9481380203489707
 30
0.0
 40
1.286532360738639
 50
171.9991406114978929
 51
180.4721035324097045
  0
LINE
  5
5995
  8
0
 10
630.9340491271043447
 20
31.9375374210655103
 30
0.0
 11
630.9316993939041822
 21
31.4427649545655186
 31
0.0
  0
ARC
  5
5996
  8
0
 10
632.2124057819271457
 20
31.4216601749089399
 30
0.0
 40
1.2808802692082559
 50
179.0559074478553043
 51
187.3951296938446944
  0
LINE
  5
5997
  8
0
 10
630.9421797380043699
 20
31.2567964087654886
 30
0.0
 11
630.966590568704305
 21
31.1184993819654991
 31
0.0
  0
ARC
  5
5998
  8
0
 10
630.9083928778877635
 20
31.1155833998832598
 30
0.0
 40
0.0582706973347749
 50
334.7133573147510788
 51
2.8683932701620858
  0
ARC
  5
5999
  8
0
 10
630.9371261117424865
 20
31.1020094568606105
 30
0.0
 40
0.0264925498598354
 50
273.2582910669942748
 51
334.7133573147535799
  0
LINE
  5
599A
  8
0
 10
630.9386318757043455
 20
31.0755597333654983
 30
0.0
 11
630.7328863758043553
 21
31.0755597346655108
 31
0.0
  0
ARC
  5
599B
  8
0
 10
630.7328863760020567
 20
31.1068590219634409
 30
0.0
 40
0.0312992872979336
 50
188.1773546529645955
 51
269.9999996379772824
  0
LINE
  5
599C
  8
0
 10
630.7019053234043895
 20
31.1024070824655006
 30
0.0
 11
630.7112526665043788
 21
31.2569487269655006
 31
0.0
  0
ARC
  5
599D
  8
0
 10
626.2551457688185792
 20
31.4416625776948884
 30
0.0
 40
4.4599336194896386
 50
357.6263431441702778
 51
0.0623188456108421
  0
LINE
  5
599E
  8
0
 10
630.7150767502043891
 20
31.4465135084655003
 30
0.0
 11
630.7150767384043775
 21
31.9377353853655102
 31
0.0
  0
ARC
  5
599F
  8
0
 10
626.8309654983647761
 20
31.9542257918012602
 30
0.0
 40
3.884146245767008
 50
359.7567461496382748
 51
2.554975541844231
  0
LINE
  5
59A0
  8
0
 10
630.7112505482042479
 20
32.1273731004655119
 30
0.0
 11
630.7039214799043521
 21
32.2485485432655068
 31
0.0
  0
ARC
  5
59A1
  8
0
 10
631.7910203086097454
 20
29.6149028773380394
 30
0.0
 40
1.443486976592959
 50
180.0880471704591912
 51
181.6908907709099879
  0
LINE
  5
59A2
  8
0
 10
630.348161878204337
 20
29.5723094341655184
 30
0.0
 11
630.3795270759043206
 21
28.6298118886655111
 31
0.0
  0
ARC
  5
59A3
  8
0
 10
630.8558788313793002
 20
28.6456643087132292
 30
0.0
 40
0.4766154573295515
 50
181.9060319958238949
 51
185.7221160876246131
  0
ARC
  5
59A4
  8
0
 10
630.3492061324336646
 20
28.5980328872145506
 30
0.0
 40
0.0324323309363085
 50
287.7468103112469748
 51
0.1961556041856928
  0
ARC
  5
59A5
  8
0
 10
630.4206735735874645
 20
28.741456395799549
 30
0.0
 40
0.0310442311608922
 50
180.2207331520970115
 51
269.8839063592286038
  0
LINE
  5
59A6
  8
0
 10
630.4206106713043027
 20
28.7104122283654988
 30
0.0
 11
630.733718441404335
 21
28.7104122282655112
 31
0.0
  0
ARC
  5
59A7
  8
0
 10
630.7309834669569
 20
28.6729277289466289
 30
0.0
 40
0.0375841425925162
 50
0.4915549453048284
 51
85.8269335787214516
  0
LINE
  5
59A8
  8
0
 10
630.7685662263943414
 20
28.6732501688310393
 30
0.0
 11
630.7716586140043091
 21
28.5981434583655094
 31
0.0
  0
ARC
  5
59A9
  8
0
 10
630.7430366802648223
 20
28.5940916251922808
 30
0.0
 40
0.0289073077793201
 50
291.2178988045189953
 51
8.0574750251903957
  0
LINE
  5
59AA
  8
0
 10
630.4134538265169567
 20
29.6921439210655116
 30
0.0
 11
630.6352042202042867
 21
29.6921439210655116
 31
0.0
  0
ARC
  5
59AB
  8
0
 10
630.4223083915474035
 20
29.6611514855711711
 30
0.0
 40
0.0309944358663273
 50
90.6509590201135467
 51
180.0139836148171071
  0
LINE
  5
59AC
  8
0
 10
630.3913139566043355
 20
29.6611439210654986
 30
0.0
 11
630.3896295728043242
 21
28.7413367975655092
 31
0.0
  0
ARC
  5
59AD
  8
0
 10
630.4148082705577281
 20
28.7332316364751108
 30
0.0
 40
0.0391428886134008
 50
190.5189883545938017
 51
266.6023977887360275
  0
LINE
  5
59AE
  8
0
 10
630.3987420415013503
 20
28.719484773448869
 30
0.0
 11
630.3889024769321168
 21
28.7038878878116286
 31
0.0
  0
LINE
  5
59AF
  8
0
 10
630.4124884830042674
 20
28.6941575489655101
 30
0.0
 11
630.5739898312042442
 21
28.6941589458654889
 31
0.0
  0
ARC
  5
59B0
  8
0
 10
630.5739750938812449
 20
30.3980014305410009
 30
0.0
 40
1.703842484739239
 50
270.0004955777436066
 51
274.5312954371394198
  0
ARC
  5
59B1
  8
0
 10
630.7026516377587768
 20
28.7743497306089608
 30
0.0
 40
0.0750998728952161
 50
274.5312954371394198
 51
292.076357140313803
  0
LINE
  5
59B2
  8
0
 10
630.7308773169042979
 20
28.7047558950655102
 30
0.0
 11
630.733718441404335
 21
28.7104122282655112
 31
0.0
  0
ARC
  5
59B3
  8
0
 10
630.6352023846095562
 20
29.7553989658625504
 30
0.0
 40
0.0632550448236866
 50
270.0016626632267958
 51
359.7689607910842255
  0
LINE
  5
59B4
  8
0
 10
630.6984524301043393
 20
29.7551439240655213
 30
0.0
 11
630.7008257545041943
 21
31.0519577824655002
 31
0.0
  0
ARC
  5
59B5
  8
0
 10
631.9904289229699543
 20
31.0495976544901495
 30
0.0
 40
1.289605328122073
 50
177.6530775989004098
 51
179.8951419906263141
  0
LINE
  5
59B6
  8
0
 10
630.7028400268043242
 20
32.3044433116655227
 30
0.0
 11
630.7040582207043826
 21
49.0497168645655108
 31
0.0
  0
ARC
  5
59B7
  8
0
 10
631.830743502314931
 20
32.2983081634164435
 30
0.0
 40
1.127920161231714
 50
179.6883468823158978
 51
182.5284961401928001
  0
ARC
  5
59B8
  8
0
 10
630.7348678801587312
 20
50.277851459832462
 30
0.0
 40
0.0298775737019739
 50
87.5927040472685974
 51
174.2280645382629984
  0
LINE
  5
59B9
  8
0
 10
630.7361228243042888
 20
50.3077026662655129
 30
0.0
 11
630.9411087006043317
 21
50.3038872443655123
 31
0.0
  0
ARC
  5
59BA
  8
0
 10
630.941030514037152
 20
50.2784695200953067
 30
0.0
 40
0.0254178445233881
 50
28.0602051854431203
 51
89.8237550247267649
  0
ARC
  5
59BB
  8
0
 10
630.9175386069019851
 20
50.2659469702355111
 30
0.0
 40
0.0520389631294528
 50
357.8958925747766102
 51
28.0602051854440191
  0
LINE
  5
59BC
  8
0
 10
630.9695424835042559
 20
50.2640363415655074
 30
0.0
 11
630.9695916963542004
 21
49.1205594591655199
 31
0.0
  0
LINE
  5
59BD
  8
0
 10
630.9695424835042559
 20
50.2640363415655074
 30
0.0
 11
630.9494236572041928
 21
50.1563255750655301
 31
0.0
  0
ARC
  5
59BE
  8
0
 10
632.2235020473932536
 20
49.9772554563489919
 30
0.0
 40
1.286532360738639
 50
171.999140611497495
 51
180.4721035324097045
  0
LINE
  5
59BF
  8
0
 10
630.9370133601041744
 20
49.9666548570655209
 30
0.0
 11
630.9347005215543049
 21
49.4448250317654967
 31
0.0
  0
ARC
  5
59C0
  8
0
 10
632.2154069095771547
 20
49.4237202521089216
 30
0.0
 40
1.2808802692082559
 50
179.0559074478553043
 51
187.3951296938446944
  0
LINE
  5
59C1
  8
0
 10
630.9451808656541516
 20
49.2588564859655094
 30
0.0
 11
630.9695916963542004
 21
49.1205594591655199
 31
0.0
  0
ARC
  5
59C2
  8
0
 10
630.9113940055376588
 20
49.1176434770832628
 30
0.0
 40
0.0582706973347749
 50
334.7133573147510788
 51
2.8683932701620858
  0
ARC
  5
59C3
  8
0
 10
630.9401272393926092
 20
49.1040695340606135
 30
0.0
 40
0.0264925498598354
 50
273.2582910669942748
 51
334.7133573147535799
  0
LINE
  5
59C4
  8
0
 10
630.9416330033543545
 20
49.0776198105655084
 30
0.0
 11
630.7358875034542507
 21
49.0776198118655032
 31
0.0
  0
ARC
  5
59C5
  8
0
 10
630.7358875036519521
 20
49.1089190991634368
 30
0.0
 40
0.0312992872979336
 50
188.1773546529645955
 51
269.9999996379772824
  0
LINE
  5
59C6
  8
0
 10
630.7049064510541712
 20
49.1044671596655178
 30
0.0
 11
630.7142537941541605
 21
49.2590088041655179
 31
0.0
  0
ARC
  5
59C7
  8
0
 10
626.2581468964684746
 20
49.4437226548948985
 30
0.0
 40
4.4599336194896386
 50
357.6263431441702778
 51
0.0623188456108421
  0
LINE
  5
59C8
  8
0
 10
630.7180778778541708
 20
49.4485735856655069
 30
0.0
 11
630.7180409714042071
 21
49.9668528213655208
 31
0.0
  0
ARC
  5
59C9
  8
0
 10
701.3452916868011471
 20
51.8812425324892885
 30
0.0
 40
70.6531912342363739
 50
181.4099055362198953
 51
181.5526528206704029
  0
LINE
  5
59CA
  8
0
 10
630.7134906424041674
 20
50.1428200273655165
 30
0.0
 11
630.7051417832043398
 21
50.2808562157655103
 31
0.0
  0
ARC
  5
59CB
  8
0
 10
631.6452544027605427
 20
49.0625169049293532
 30
0.0
 40
0.9412832167581067
 50
177.445647720075101
 51
180.7791607055139878
  0
ARC
  5
59CC
  8
0
 10
631.8043868674457144
 20
50.3298988455133482
 30
0.0
 40
1.1003385546654341
 50
179.7567171740525112
 51
182.5545472349928104
  0
LINE
  5
59CD
  8
0
 10
630.7040582319043551
 20
50.334570963965497
 30
0.0
 11
630.7027831568043439
 21
57.0956438702654978
 31
0.0
  0
ARC
  5
59CE
  8
0
 10
630.8283298912670034
 20
57.0954426729830899
 30
0.0
 40
0.1255468956789468
 50
94.2525663780326113
 51
179.9081796487006102
  0
ARC
  5
59CF
  8
0
 10
630.8147097393557488
 20
57.0955691190134189
 30
0.0
 40
0.1250748265194683
 50
90.0358382121868601
 51
179.9657337292520936
  0
LINE
  5
59D0
  8
0
 10
630.6896349352043671
 20
57.0956439211685307
 30
0.0
 11
630.6896349352043671
 21
29.755047413526249
 31
0.0
  0
ARC
  5
59D1
  8
0
 10
630.6266495987712233
 20
29.7551266680139612
 30
0.0
 40
0.0629853862960713
 50
270.5245267438036763
 51
359.9279047233189885
  0
LINE
  5
59D2
  8
0
 10
630.2217166921043372
 20
29.5309368439655202
 30
0.0
 11
630.2881980629042573
 21
29.5309368422655005
 31
0.0
  0
ARC
  5
59D3
  8
0
 10
630.2881980648736544
 20
29.6079532221262198
 30
0.0
 40
0.0770163798607158
 50
269.9999985348824225
 51
299.6503244305154112
  0
ARC
  5
59D4
  8
0
 10
630.304290898724048
 20
29.5796825565187191
 30
0.0
 40
0.0444862425227566
 50
299.6503244305154112
 51
350.4598106313716244
  0
ARC
  5
59D5
  8
0
 10
630.5049900206214488
 20
57.44171789877187
 30
0.0
 40
0.1254974271225135
 50
91.9328787188790244
 51
179.8054992974400079
  0
LINE
  5
59D6
  8
0
 10
630.3794933166043393
 20
57.4421439212762692
 30
0.0
 11
630.3794933166043393
 21
29.7527126899316308
 31
0.0
  0
ARC
  5
59D7
  8
0
 10
630.9261720927856913
 20
29.7176159384723597
 30
0.0
 40
0.5463203804503096
 50
181.0057780142539912
 51
185.93280851822621
  0
ARC
  5
59D8
  8
0
 10
632.759304559748557
 20
29.7539365414852206
 30
0.0
 40
2.3798115578357608
 50
180.0294651614420047
 51
181.105393933198286
  0
ARC
  5
59D9
  8
0
 10
630.4137844933998167
 20
29.6611391070698502
 30
0.0
 40
0.0310065772295424
 50
90.6110373225213976
 51
179.985202723421196
  0
LINE
  5
59DA
  8
0
 10
645.7866317945041601
 20
56.9572189453655113
 30
0.0
 11
644.6543917266043309
 21
56.957218943365497
 31
0.0
  0
ARC
  5
59DB
  8
0
 10
644.6543917264846186
 20
57.0249522273455511
 30
0.0
 40
0.0677332839800471
 50
246.1490196228349987
 51
270.0000001012111284
  0
ARC
  5
59DC
  8
0
 10
644.6374844484830646
 20
56.9867104887896829
 30
0.0
 40
0.025920766509809
 50
183.4551001405401109
 51
246.1490196228567129
  0
LINE
  5
59DD
  8
0
 10
644.6116107973042517
 20
56.9851483392655069
 30
0.0
 11
644.6054232418043739
 21
57.1896439210655103
 31
0.0
  0
ARC
  5
59DE
  8
0
 10
644.6371958651200202
 20
57.1906052859439882
 30
0.0
 40
0.031787164308695
 50
140.6325755724116959
 51
181.7331068035749126
  0
ARC
  5
59DF
  8
0
 10
644.6343993000303954
 20
57.1928997488719091
 30
0.0
 40
0.0281697983571618
 50
99.9725968918230876
 51
140.6325755724060116
  0
LINE
  5
59E0
  8
0
 10
644.6543917266043309
 20
56.957218943365497
 30
0.0
 11
644.7756450508043145
 21
56.9792926018655095
 31
0.0
  0
ARC
  5
59E1
  8
0
 10
644.948893301318094
 20
55.6927606059189984
 30
0.0
 40
1.2981446502220859
 50
89.2756401806518483
 51
97.6694835127339331
  0
ARC
  5
59E2
  8
0
 10
645.7866318020238623
 20
57.0249522273455511
 30
0.0
 40
0.0677332839800471
 50
269.9999998987888716
 51
293.8509803771648876
  0
ARC
  5
59E3
  8
0
 10
645.80353908002553
 20
56.9867104887896829
 30
0.0
 40
0.025920766509809
 50
293.8509803771432871
 51
356.5448998594598038
  0
LINE
  5
59E4
  8
0
 10
645.8294127312043429
 20
56.9851483392655069
 30
0.0
 11
645.8356002867043344
 21
57.1896439210655103
 31
0.0
  0
ARC
  5
59E5
  8
0
 10
645.8038276633885744
 20
57.1906052859439882
 30
0.0
 40
0.031787164308695
 50
358.2668931964250874
 51
39.3674244275882614
  0
ARC
  5
59E6
  8
0
 10
645.8066242284780856
 20
57.1928997488719091
 30
0.0
 40
0.0281697983571618
 50
39.3674244275939671
 51
80.0274031081769266
  0
LINE
  5
59E7
  8
0
 10
645.7866318019043774
 20
56.957218943365497
 30
0.0
 11
645.6653784777041665
 21
56.9792926018655095
 31
0.0
  0
ARC
  5
59E8
  8
0
 10
645.4921302271903869
 20
55.6927606059189984
 30
0.0
 40
1.2981446502220859
 50
82.3305164872660811
 51
90.724359819348166
  0
LINE
  5
59E9
  8
0
 10
644.9653046109043544
 20
56.9908015150655132
 30
0.0
 11
645.4757189176043539
 21
56.9908015150655132
 31
0.0
  0
LINE
  5
59EA
  8
0
 10
630.3841626769702771
 20
57.5305079471055976
 30
0.0
 11
630.4149139957550005
 21
57.5291016155536923
 31
0.0
  0
LINE
  5
59EB
  8
0
 10
630.7363906853837534
 20
57.1809365642044867
 30
0.0
 11
630.7262672681589493
 21
57.1840091637753005
 31
0.0
  0
LINE
  5
59EC
  8
0
 10
630.6798408345589451
 20
29.7105814527483112
 30
0.0
 11
630.6713624879033659
 21
29.710765463878861
 31
0.0
  0
ARC
  5
59ED
  8
0
 10
655.7201608822402932
 20
43.56181148314068
 30
0.0
 40
31.7783400219248193
 50
355.2714235054037886
 51
359.9857135102037091
  0
LINE
  5
59EE
  8
0
 10
689.7610643834160555
 20
29.7105814527483112
 30
0.0
 11
689.7695427300716347
 21
29.710765463878861
 31
0.0
  0
LINE
  5
59EF
  8
0
 10
689.7045145325912472
 20
57.1809365642044867
 30
0.0
 11
689.714637949816165
 21
57.1840091637753005
 31
0.0
  0
LINE
  5
59F0
  8
0
 10
690.0567425410047235
 20
57.5305079471055976
 30
0.0
 11
690.0259912222201137
 21
57.5291016155536923
 31
0.0
  0
ARC
  5
59F1
  8
0
 10
679.986429950663819
 20
45.5859840902244073
 30
0.0
 40
3.1936069848280781
 50
6.0765310610518046
 51
35.8757894784119173
  0
ARC
  5
59F2
  8
0
 10
678.4354507351102939
 20
44.6413653267315311
 30
0.0
 40
5.0059812193822113
 50
34.2330731997502511
 51
52.3420221053433465
  0
ARC
  5
59F3
  8
0
 10
675.7889575057307638
 20
42.0277382039304825
 30
0.0
 40
8.7062577505713552
 50
49.0604770380157333
 51
72.8901804703104403
  0
ARC
  5
59F4
  8
0
 10
672.4203313242634295
 20
23.9231993728957413
 30
0.0
 40
27.0826775171289498
 50
77.352000320226793
 51
85.2035288628213436
  0
ARC
  5
59F5
  8
0
 10
651.7372161238447461
 20
-186.6260615530547113
 30
0.0
 40
238.6429703519596899
 50
84.4819680710224219
 51
88.9585683144841965
  0
ARC
  5
59F6
  8
0
 10
655.5595722629986994
 20
28.3475348044613611
 30
0.0
 40
23.6355664978579796
 50
88.7512832433926349
 51
95.6898969442157181
  0
ARC
  5
59F7
  8
0
 10
653.9331441356383721
 20
43.7227143940933303
 30
0.0
 40
8.1754293516651142
 50
95.0307276032106358
 51
125.7607427693207995
  0
ARC
  5
59F8
  8
0
 10
655.0032757789143716
 20
43.0872208738572198
 30
0.0
 40
9.3297432152611321
 50
128.8143020956358953
 51
157.7106067244559995
  0
ARC
  5
59F9
  8
0
 10
679.986429950663819
 20
41.5483037519066016
 30
0.0
 40
3.1936069848280781
 50
324.1242105215881111
 51
353.9234689389489859
  0
ARC
  5
59FA
  8
0
 10
678.4354507351102939
 20
42.4929225153994778
 30
0.0
 40
5.0059812193822113
 50
307.6579778946565966
 51
325.7669268002496779
  0
ARC
  5
59FB
  8
0
 10
675.7889575057307638
 20
45.1065496382005335
 30
0.0
 40
8.7062577505713552
 50
287.1098195296895028
 51
310.9395229619843235
  0
ARC
  5
59FC
  8
0
 10
672.4203313242634295
 20
63.2110884692352784
 30
0.0
 40
27.0826775171289498
 50
274.7964711371786848
 51
282.6479996797731928
  0
ARC
  5
59FD
  8
0
 10
651.7372161238447461
 20
273.7603493951858127
 30
0.0
 40
238.6429703519596899
 50
271.0414316855158177
 51
275.5180319289776207
  0
ARC
  5
59FE
  8
0
 10
655.5595722629986994
 20
58.7867530376696479
 30
0.0
 40
23.6355664978579796
 50
264.3101030557842819
 51
271.2487167566072799
  0
ARC
  5
59FF
  8
0
 10
653.9331441356383721
 20
43.4115734480376787
 30
0.0
 40
8.1754293516651142
 50
234.239257230679101
 51
264.9692723967893926
  0
ARC
  5
5A00
  8
0
 10
655.0032757789143716
 20
44.0470669682737892
 30
0.0
 40
9.3297432152611321
 50
202.2893932755441995
 51
231.1856979043641047
  0
ARC
  5
5A01
  8
0
 10
652.3625956548594331
 20
43.5671439210655222
 30
0.0
 40
30.8895460721310187
 50
355.6240182386957827
 51
4.37598176130422
  0
ARC
  5
5A02
  8
0
 10
654.5240582298791878
 20
43.5671439210655009
 30
0.0
 40
8.7082566138083664
 50
159.4366858579629138
 51
200.5633141420397862
  0
ENDSEC
  0
EOF
