  0
SECTION
  2
HEADER
  9
$ACADVER
  1
AC1009
  9
$INSBASE
 10
667.2417759682765563
 20
37.197022437471567
 30
0.0
  9
$EXTMIN
 10
637.2243879375305369
 20
7.8251760711675606
 30
-0.0000000349181948
  9
$EXTMAX
 10
697.283687223368247
 20
37.2047527585016766
 30
0.0000000814935746
  9
$LIMMIN
 10
0.0
 20
0.0
  9
$LIMMAX
 10
11.6929133858000007
 20
8.2677165353999982
  9
$ORTHOMODE
 70
     1
  9
$REGENMODE
 70
     1
  9
$FILLMODE
 70
     1
  9
$QTEXTMODE
 70
     0
  9
$MIRRTEXT
 70
     0
  9
$DRAGMODE
 70
     2
  9
$LTSCALE
 40
0.6431102362
  9
$OSMODE
 70
    23
  9
$ATTMODE
 70
     1
  9
$TEXTSIZE
 40
0.2
  9
$TRACEWID
 40
0.05
  9
$TEXTSTYLE
  7
STANDARD
  9
$CLAYER
  8
0
  9
$CELTYPE
  6
BYLAYER
  9
$CECOLOR
 62
   256
  9
$DIMSCALE
 40
1.0
  9
$DIMASZ
 40
0.1875
  9
$DIMEXO
 40
0.0625
  9
$DIMDLI
 40
0.4443307087
  9
$DIMRND
 40
0.0
  9
$DIMDLE
 40
0.0
  9
$DIMEXE
 40
0.125
  9
$DIMTP
 40
0.01
  9
$DIMTM
 40
0.01
  9
$DIMTXT
 40
2.0
  9
$DIMCEN
 40
0.1052362205
  9
$DIMTSZ
 40
0.0
  9
$DIMTOL
 70
     1
  9
$DIMLIM
 70
     0
  9
$DIMTIH
 70
     1
  9
$DIMTOH
 70
     1
  9
$DIMSE1
 70
     0
  9
$DIMSE2
 70
     0
  9
$DIMTAD
 70
     0
  9
$DIMZIN
 70
     0
  9
$DIMBLK
  1

  9
$DIMASO
 70
     1
  9
$DIMSHO
 70
     1
  9
$DIMPOST
  1
\X
  9
$DIMAPOST
  1

  9
$DIMALT
 70
     1
  9
$DIMALTD
 70
     2
  9
$DIMALTF
 40
25.3999999999999986
  9
$DIMLFAC
 40
1.0
  9
$DIMTOFL
 70
     0
  9
$DIMTVP
 40
0.0
  9
$DIMTIX
 70
     0
  9
$DIMSOXD
 70
     0
  9
$DIMSAH
 70
     0
  9
$DIMBLK1
  1

  9
$DIMBLK2
  1

  9
$DIMSTYLE
  2
STANDARD
  9
$DIMCLRD
 70
     0
  9
$DIMCLRE
 70
     0
  9
$DIMCLRT
 70
     0
  9
$DIMTFAC
 40
1.0
  9
$DIMGAP
 40
0.09
  9
$LUNITS
 70
     2
  9
$LUPREC
 70
     4
  9
$SKETCHINC
 40
0.1
  9
$FILLETRAD
 40
0.0
  9
$AUNITS
 70
     0
  9
$AUPREC
 70
     0
  9
$MENU
  1
.
  9
$ELEVATION
 40
0.0
  9
$PELEVATION
 40
0.0
  9
$THICKNESS
 40
0.0
  9
$LIMCHECK
 70
     0
  9
$BLIPMODE
 70
     0
  9
$CHAMFERA
 40
0.0
  9
$CHAMFERB
 40
0.0
  9
$SKPOLY
 70
     0
  9
$TDCREATE
 40
2458106.4931018520146608
  9
$TDUPDATE
 40
2459713.4716666671447456
  9
$TDINDWG
 40
0.2505425463
  9
$TDUSRTIMER
 40
0.2505425463
  9
$USRTIMER
 70
     1
  9
$ANGBASE
 50
0.0
  9
$ANGDIR
 70
     0
  9
$PDMODE
 70
     0
  9
$PDSIZE
 40
0.3125
  9
$PLINEWID
 40
0.0
  9
$COORDS
 70
     1
  9
$SPLFRAME
 70
     0
  9
$SPLINETYPE
 70
     6
  9
$SPLINESEGS
 70
     8
  9
$ATTDIA
 70
     1
  9
$ATTREQ
 70
     1
  9
$HANDLING
 70
     1
  9
$HANDSEED
  5
48D7
  9
$SURFTAB1
 70
     6
  9
$SURFTAB2
 70
     6
  9
$SURFTYPE
 70
     6
  9
$SURFU
 70
     6
  9
$SURFV
 70
     6
  9
$UCSNAME
  2

  9
$UCSORG
 10
0.0
 20
0.0
 30
0.0
  9
$UCSXDIR
 10
1.0
 20
0.0
 30
0.0
  9
$UCSYDIR
 10
0.0
 20
1.0
 30
0.0
  9
$PUCSNAME
  2

  9
$PUCSORG
 10
0.0
 20
0.0
 30
0.0
  9
$PUCSXDIR
 10
1.0
 20
0.0
 30
0.0
  9
$PUCSYDIR
 10
0.0
 20
1.0
 30
0.0
  9
$USERI1
 70
     0
  9
$USERI2
 70
     0
  9
$USERI3
 70
     0
  9
$USERI4
 70
     0
  9
$USERI5
 70
     0
  9
$USERR1
 40
0.0
  9
$USERR2
 40
0.0
  9
$USERR3
 40
0.0
  9
$USERR4
 40
0.0
  9
$USERR5
 40
0.0
  9
$WORLDVIEW
 70
     1
  9
$SHADEDGE
 70
     3
  9
$SHADEDIF
 70
    70
  9
$TILEMODE
 70
     1
  9
$MAXACTVP
 70
    64
  9
$PLIMCHECK
 70
     0
  9
$PEXTMIN
 10
1.0000000000000000E+20
 20
1.0000000000000000E+20
 30
1.0000000000000000E+20
  9
$PEXTMAX
 10
-1.0000000000000000E+20
 20
-1.0000000000000000E+20
 30
-1.0000000000000000E+20
  9
$PLIMMIN
 10
0.0
 20
0.0
  9
$PLIMMAX
 10
12.0
 20
9.0
  9
$UNITMODE
 70
     0
  9
$VISRETAIN
 70
     1
  9
$PLINEGEN
 70
     0
  9
$PSLTSCALE
 70
     1
  0
ENDSEC
  0
SECTION
  2
TABLES
  0
TABLE
  2
VPORT
 70
     1
  0
VPORT
  2
*ACTIVE
 70
     0
 10
0.0
 20
0.0
 11
1.0
 21
1.0
 12
393.6798360239362751
 22
40.1209251488561023
 13
0.0
 23
0.0
 14
1.0
 24
1.0
 15
0.0
 25
0.0
 16
-0.0000000000000568
 26
0.0
 36
193.9250709296327955
 17
273.5742015565131169
 27
-17.6059607340214797
 37
0.0
 40
30.0449558465457187
 41
2.005224660397074
 42
50.0
 43
0.0
 44
0.0
 50
0.0
 51
0.0
 71
     0
 72
   100
 73
     1
 74
     1
 75
     0
 76
     0
 77
     0
 78
     0
  0
ENDTAB
  0
TABLE
  2
LTYPE
 70
     2
  0
LTYPE
  2
CONTINUOUS
 70
     0
  3
Solid line
 72
    65
 73
     0
 40
0.0
  0
LTYPE
  2
PHANTOM2
 70
     0
  3
___ _ _ ___ _ _ ___ _ _ ___ _ _
 72
    65
 73
     6
 40
1.25
 49
0.625
 49
-0.125
 49
0.125
 49
-0.125
 49
0.125
 49
-0.125
  0
ENDTAB
  0
TABLE
  2
LAYER
 70
     2
  0
LAYER
  2
0
 70
     0
 62
   255
  6
CONTINUOUS
  0
LAYER
  2
DEFPOINTS
 70
     0
 62
     7
  6
CONTINUOUS
  0
ENDTAB
  0
TABLE
  2
STYLE
 70
     1
  0
STYLE
  2
STANDARD
 70
     0
 40
0.0
 41
0.8
 50
0.0
 71
     0
 42
0.2
  3
txt
  4

  0
ENDTAB
  0
TABLE
  2
VIEW
 70
     0
  0
ENDTAB
  0
TABLE
  2
UCS
 70
     0
  0
ENDTAB
  0
TABLE
  2
APPID
 70
     9
  0
APPID
  2
ACAD
 70
     0
  0
APPID
  2
ACAD_MLEADERVER
 70
     0
  0
APPID
  2
ACAD_EXEMPT_FROM_CAD_STANDARDS
 70
     0
  0
APPID
  2
ACAD_NAV_VCDISPLAY
 70
     0
  0
APPID
  2
ACAD_DSTYLE_DIMJAG
 70
     0
  0
APPID
  2
ACAD_DSTYLE_DIMTALN
 70
     0
  0
APPID
  2
ACAECLAYERSTANDARD
 70
     0
  0
APPID
  2
ACCMTRANSPARENCY
 70
     0
  0
APPID
  2
ACDBATTR
 70
     0
  0
ENDTAB
  0
TABLE
  2
DIMSTYLE
 70
     1
  0
DIMSTYLE
  2
STANDARD
 70
     0
  3

  4

  5

  6

  7

 40
1.0
 41
0.1875
 42
0.0625
 43
0.38
 44
0.125
 45
0.0
 46
0.0
 47
0.01
 48
0.01
140
0.15625
141
0.09
142
0.0
143
25.3999999999999986
144
1.0
145
0.0
146
1.0
147
0.09
 71
     1
 72
     0
 73
     1
 74
     1
 75
     0
 76
     0
 77
     0
 78
     4
170
     0
171
     2
172
     0
173
     0
174
     0
175
     0
176
     0
177
     0
178
     0
  0
ENDTAB
  0
ENDSEC
  0
SECTION
  2
BLOCKS
  0
BLOCK
  8
0
  2
$MODEL_SPACE
 70
     0
 10
0.0
 20
0.0
 30
0.0
  3
$MODEL_SPACE
  1

  0
ENDBLK
  5
21
  8
0
  0
BLOCK
 67
     1
  8
0
  2
$PAPER_SPACE
 70
     0
 10
0.0
 20
0.0
 30
0.0
  3
$PAPER_SPACE
  1

  0
ENDBLK
  5
1D
 67
     1
  8
0
  0
ENDSEC
  0
SECTION
  2
ENTITIES
  0
ATTDEF
  5
FAA
  8
DEFPOINTS
 10
667.2418407121316477
 20
37.2004239026747001
 30
0.0
 40
0.001
  1
71341810
  3

  2
MODELNUMBER
 70
     0
1001
ACDBATTR
1070
     0
1070
     1
  0
ATTDEF
  5
FAB
  8
DEFPOINTS
 10
667.2418407121316477
 20
37.1987572360080421
 30
0.0
 40
0.001
  1
PERFORMA2
  3

  2
TRADENAME
 70
     0
1001
ACDBATTR
1070
     0
1070
     1
  0
ATTDEF
  5
FAC
  8
DEFPOINTS
 10
667.2418407121316477
 20
37.1970905693413698
 30
0.0
 40
0.001
  1
BATH
  3

  2
PRODUCT
 70
     0
1001
ACDBATTR
1070
     0
1070
     1
  0
LINE
  5
46D4
  8
0
 10
637.2418351227935318
 20
9.1134377094712988
 30
0.0
 11
637.2418351227935318
 21
36.9470171017456579
 31
0.0
  0
LINE
  5
46D5
  8
0
 10
637.4918701173535283
 20
37.197022437471567
 30
0.0
 11
696.9916818192000392
 21
37.197022437471567
 31
0.0
  0
ARC
  5
46D6
  8
0
 10
637.4919203361282598
 20
36.9469372164198973
 30
0.0
 40
0.2500852260938087
 50
90.0115053732499888
 51
179.9816978662398128
  0
LINE
  5
46D7
  8
0
 10
637.3231084304934484
 20
7.8297876935715891
 30
0.0
 11
697.1604435060667129
 21
7.8297876935715891
 31
0.0
  0
ARC
  5
46D8
  8
0
 10
641.5617855177305273
 20
11.8640847744683402
 30
0.0
 40
3.8566318336730592
 50
263.0372396924169038
 51
266.6858347103657252
  0
ARC
  5
46D9
  8
0
 10
648.2427527463570414
 20
127.2367892911606049
 30
0.0
 40
119.4226141580835048
 50
266.6858347103657252
 51
267.1860073252397001
  0
ARC
  5
46DA
  8
0
 10
642.5658767061961498
 20
11.7427175293715198
 30
0.0
 40
3.7891089197979211
 50
267.1860073252397001
 51
271.3673980750400005
  0
ARC
  5
46DB
  8
0
 10
31.1066836463062408
 20
-577818.4323779022088274
 30
0.0
 40
577826.710685946745798
 50
89.9390487586787231
 51
89.9393603346328661
  0
ARC
  5
46DC
  8
0
 10
696.9916316004249666
 20
36.9469372164198973
 30
0.0
 40
0.2500852260938087
 50
0.0183021337601508
 51
89.9884946267500254
  0
ARC
  5
46DD
  8
0
 10
692.9217664188229264
 20
11.8640847744683402
 30
0.0
 40
3.8566318336730592
 50
273.3141652896342748
 51
276.9627603075829825
  0
ARC
  5
46DE
  8
0
 10
686.2407991901964124
 20
127.2367892911606049
 30
0.0
 40
119.4226141580835048
 50
272.8139926747602999
 51
273.3141652896342748
  0
ARC
  5
46DF
  8
0
 10
691.9176752303570765
 20
11.7427175293715198
 30
0.0
 40
3.7891089197979211
 50
268.6326019249598858
 51
272.8139926747602999
  0
ARC
  5
46E0
  8
0
 10
1303.3768682902471028
 20
-577818.4323779022088274
 30
0.0
 40
577826.710685946745798
 50
90.0606396653671339
 51
90.0609512413147542
  0
LINE
  5
46E1
  8
0
 10
697.2417168137599219
 20
9.1134377094811327
 30
0.0
 11
697.2417168137599219
 21
36.9470171017456579
 31
0.0
  0
LINE
  5
46E2
  8
0
 10
688.6850194558096518
 20
7.9513534670789019
 30
0.0
 11
645.7985324847918491
 21
7.9513534670789019
 31
0.0
  0
LINE
  5
46E3
  8
0
 10
641.0942683814935208
 20
8.0358950158715885
 30
0.0
 11
693.3892835550600466
 21
8.0358950158715885
 31
0.0
  0
CIRCLE
  5
46E4
  8
0
 10
646.4918351227935318
 20
23.0720170968715905
 30
0.0
 40
1.0
  0
CIRCLE
  5
46E5
  8
0
 10
646.4918351227935318
 20
23.0720170968715905
 30
0.0
 40
1.387500000000002
  0
LINE
  5
46E6
  8
0
 10
637.2917256027934627
 20
8.0567866124715835
 30
0.0
 11
697.191826333759991
 21
8.0567866124715835
 31
0.0
  0
LINE
  5
46E7
  8
0
 10
640.120092009066525
 20
15.9436553704980604
 30
0.0
 11
640.2906593026290238
 21
13.6862505079292394
 31
0.0
  0
ARC
  5
46E8
  8
0
 10
680.1319876658515113
 20
286.7172614331209957
 30
0.0
 40
276.6687201098736182
 50
261.8056356067418733
 51
263.8094089201346151
  0
ARC
  5
46E9
  8
0
 10
678.354693148261731
 20
265.7829614943109959
 30
0.0
 40
255.6653087446240136
 50
263.6994759695216999
 51
265.3244259552218978
  0
ARC
  5
46EA
  8
0
 10
642.6497710323197907
 20
13.9369818703011195
 30
0.0
 40
2.3723984423451792
 50
186.0667414295818105
 51
195.0824771485077918
  0
ARC
  5
46EB
  8
0
 10
641.2433780287193485
 20
13.55156543520037
 30
0.0
 40
0.9141845040732356
 50
194.6949423628763043
 51
220.9033582986980093
  0
ARC
  5
46EC
  8
0
 10
640.7596636579262395
 20
13.1586270923919404
 30
0.0
 40
0.2919638069313446
 50
224.7801949622256927
 51
257.798742547304073
  0
ARC
  5
46ED
  8
0
 10
651.1593056212539068
 20
23.9174919752345403
 30
0.0
 40
11.8152208004523303
 50
207.9968362615055071
 51
246.8823290481282982
  0
ARC
  5
46EE
  8
0
 10
651.4141583256509875
 20
24.2757192562761013
 30
0.0
 40
12.2451018758355108
 50
246.4437049109089912
 51
264.1671936425767058
  0
ARC
  5
46EF
  8
0
 10
670.9738457637897682
 20
194.920716834379391
 30
0.0
 40
184.0065599179374942
 50
263.5081565189552748
 51
265.4469707852828151
  0
ARC
  5
46F0
  8
0
 10
673.3887003588852167
 20
225.7917635027741881
 30
0.0
 40
214.9718862618360049
 50
265.45852831880228
 51
267.0590502702848994
  0
ARC
  5
46F1
  8
0
 10
683.5038293149913216
 20
21.4353962991359701
 30
0.0
 40
10.4563202483109006
 50
277.0197603904989023
 51
285.0301965401474149
  0
ARC
  5
46F2
  8
0
 10
683.3773721972305566
 20
21.7742917704800512
 30
0.0
 40
10.8164699581580308
 50
285.2115999095914276
 51
307.0861297887395835
  0
ARC
  5
46F3
  8
0
 10
682.8273440048760676
 20
22.4836231731132585
 30
0.0
 40
11.7140052379251198
 50
307.1401120118864014
 51
322.8575352090923047
  0
ARC
  5
46F4
  8
0
 10
682.2310817711636446
 20
22.9573229629041116
 30
0.0
 40
12.4753395371542304
 50
322.7767907567579186
 51
337.8050239991800936
  0
ARC
  5
46F5
  8
0
 10
675.5342348494493763
 20
71.1494794571739959
 30
0.0
 40
60.2296930494980103
 50
274.0516680266135836
 51
278.0974748968127983
  0
ARC
  5
46F6
  8
0
 10
682.4072489004362296
 20
22.6974969098879917
 30
0.0
 40
11.29268529284656
 50
278.2006782121426909
 51
298.9673111797504248
  0
ARC
  5
46F7
  8
0
 10
682.457095622763859
 20
22.4365743265884312
 30
0.0
 40
11.0405739975016299
 50
299.3967872923196865
 51
330.1936364335892904
  0
ARC
  5
46F8
  8
0
 10
682.3626015190737917
 20
22.4363904780427212
 30
0.0
 40
11.1225759663113895
 50
330.4364168347270834
 51
352.3733520812270967
  0
ARC
  5
46F9
  8
0
 10
673.7312385486338826
 20
228.3018244398080014
 30
0.0
 40
217.4963204125361074
 50
267.0028588641400233
 51
268.9756001380840758
  0
ARC
  5
46FA
  8
0
 10
672.7541856921011458
 20
100.1185645142004006
 30
0.0
 40
89.3257565221237968
 50
268.1322310632804147
 51
274.5175149601512885
  0
ARC
  5
46FB
  8
0
 10
673.7916674563768993
 20
207.768228746567388
 30
0.0
 40
197.4717701557785006
 50
265.2718658821481768
 51
268.182779217258485
  0
ARC
  5
46FC
  8
0
 10
671.8850464421389006
 20
122.0744883376406023
 30
0.0
 40
111.7636143539197064
 50
267.7666120104279912
 51
276.6262561760191829
  0
ARC
  5
46FE
  8
0
 10
646.4108544062996771
 20
21.3055953552561412
 30
0.0
 40
6.3968462073139429
 50
187.7134440172216898
 51
207.3053104432331963
  0
LINE
  5
46FF
  8
0
 10
640.120092009066525
 20
30.2003788232451207
 30
0.0
 11
640.2906593026290238
 21
32.4577836858139435
 31
0.0
  0
ARC
  5
4700
  8
0
 10
680.1319876658515113
 20
-240.5732272393777862
 30
0.0
 40
276.6687201098736182
 50
96.1905910798654418
 51
98.1943643932580983
  0
ARC
  5
4701
  8
0
 10
678.354693148261731
 20
-219.6389273005677865
 30
0.0
 40
255.6653087446240136
 50
94.6755740447781022
 51
96.3005240304783428
  0
ARC
  5
4702
  8
0
 10
642.6497710323197907
 20
32.2070523234420634
 30
0.0
 40
2.3723984423451792
 50
164.9175228514918103
 51
173.9332585704181895
  0
ARC
  5
4703
  8
0
 10
641.2433780287193485
 20
32.5924687585428074
 30
0.0
 40
0.9141845040732356
 50
139.0966417012973011
 51
165.3050576371236957
  0
ARC
  5
4704
  8
0
 10
640.7596636579262395
 20
32.9854071013512424
 30
0.0
 40
0.2919638069313446
 50
102.2012574526957991
 51
135.2198050377743073
  0
ARC
  5
4705
  8
0
 10
651.1593056212539068
 20
22.2265422185086408
 30
0.0
 40
11.8152208004523303
 50
113.1176709518717018
 51
152.0031637384948056
  0
ARC
  5
4706
  8
0
 10
651.4141583256509875
 20
21.8683149374670798
 30
0.0
 40
12.2451018758355108
 50
95.8328063574233084
 51
113.5562950890909946
  0
ARC
  5
4707
  8
0
 10
670.9738457637897682
 20
-148.77668264063621
 30
0.0
 40
184.0065599179374942
 50
94.5530292147171565
 51
96.4918434810447536
  0
ARC
  5
4708
  8
0
 10
673.3887003588852167
 20
-179.647729309031007
 30
0.0
 40
214.9718862618360049
 50
92.9409497297151148
 51
94.5414716811976632
  0
ARC
  5
4709
  8
0
 10
683.5038293149913216
 20
24.7086378946072109
 30
0.0
 40
10.4563202483109006
 50
74.9698034598526277
 51
82.9802396095011829
  0
ARC
  5
470A
  8
0
 10
683.3773721972305566
 20
24.3697424232631299
 30
0.0
 40
10.8164699581580308
 50
52.9138702112603312
 51
74.7884000904086292
  0
ARC
  5
470B
  8
0
 10
682.8273440048760676
 20
23.660411020629919
 30
0.0
 40
11.7140052379251198
 50
37.1424647909083205
 51
52.859887988108369
  0
ARC
  5
470C
  8
0
 10
682.2310817711636446
 20
23.1867112308390695
 30
0.0
 40
12.4753395371542304
 50
22.1949760008195511
 51
37.2232092432421027
  0
ARC
  5
470D
  8
0
 10
675.5342348494493763
 20
-25.0054452634308184
 30
0.0
 40
60.2296930494980103
 50
81.9025251031872159
 51
85.948331973386388
  0
ARC
  5
470E
  8
0
 10
682.4072489004362296
 20
23.4465372838551893
 30
0.0
 40
11.29268529284656
 50
61.032688820249632
 51
81.7993217878573091
  0
ARC
  5
470F
  8
0
 10
682.457095622763859
 20
23.7074598671547498
 30
0.0
 40
11.0405739975016299
 50
29.8063635664103792
 51
60.6032127076803206
  0
ARC
  5
4710
  8
0
 10
682.3626015190737917
 20
23.7076437157004598
 30
0.0
 40
11.1225759663113895
 50
7.62664791877285
 51
29.5635831652728989
  0
ARC
  5
4711
  8
0
 10
673.7312385486338826
 20
-182.157790246064792
 30
0.0
 40
217.4963204125361074
 50
91.0243998619093873
 51
92.9971411358599909
  0
ARC
  5
4712
  8
0
 10
672.7541856921011458
 20
-53.9745303204572195
 30
0.0
 40
89.3257565221237968
 50
85.4824850398486547
 51
91.8677689367195569
  0
ARC
  5
4713
  8
0
 10
673.7916674563768993
 20
-161.6241945528240933
 30
0.0
 40
197.4717701557785006
 50
91.8172207827415292
 51
94.7281341178518375
  0
ARC
  5
4714
  8
0
 10
671.8850464421389006
 20
-75.9304541438974496
 30
0.0
 40
111.7636143539197064
 50
83.373743823980746
 51
92.2333879895719946
  0
ARC
  5
4715
  8
0
 10
646.4108544062996771
 20
24.8384388384870398
 30
0.0
 40
6.3968462073139429
 50
152.69468955676669
 51
172.2865559827777986
  0
ARC
  5
4716
  8
0
 10
671.7420676950240477
 20
23.0773495347964115
 30
0.0
 40
31.7783400219248193
 50
175.2714235054043002
 51
179.985713510204107
  0
ARC
  5
4717
  8
0
 10
802.5268078431004142
 20
23.0720170968715905
 30
0.0
 40
162.5630797226068864
 50
177.4867845582830057
 51
182.513215441716909
  0
ARC
  5
4718
  8
0
 10
644.0155423380914499
 20
23.0708604713251901
 30
0.0
 40
3.881785943396276
 50
161.1970404702450992
 51
198.7669042577674077
  0
ARC
  5
4719
  8
0
 10
636.5646416043671252
 20
23.0732048347639918
 30
0.0
 40
3.9774097446823831
 50
341.6649273471655874
 51
18.2990173808457612
  0
ARC
  5
471A
  8
0
 10
635.1414512825534757
 20
23.0729806882226995
 30
0.0
 40
5.262502412770302
 50
348.0345680242493245
 51
11.9380535148342304
  0
LINE
  5
471B
  8
0
 10
637.4938466075763017
 20
37.0720170968715905
 30
0.0
 11
696.9897053289770383
 21
37.0720170968715905
 31
0.0
  0
LINE
  5
471C
  8
0
 10
637.3688583956934508
 20
36.9470170968655722
 30
0.0
 11
637.3688583956934508
 21
9.1175578287824948
 31
0.0
  0
ARC
  5
471D
  8
0
 10
637.4939272663349357
 20
36.9469482332808212
 30
0.0
 40
0.1250688895997793
 50
90.0369508898543245
 51
179.9684526397797129
  0
ARC
  5
471E
  8
0
 10
640.0194122763407449
 20
9.1177277652720932
 30
0.0
 40
2.7775804666086739
 50
180.0884950740228021
 51
181.6900398816320887
  0
LINE
  5
471F
  8
0
 10
637.2430400513934501
 20
9.0358100197715885
 30
0.0
 11
637.2747937776935032
 21
8.081637586271583
 31
0.0
  0
ARC
  5
4720
  8
0
 10
637.3751430769392528
 20
8.0849770918690762
 30
0.0
 40
0.1004048512612139
 50
181.9060321282971131
 51
187.4162808178984108
  0
LINE
  5
4721
  8
0
 10
637.275578159993529
 20
8.0720170968715905
 30
0.0
 11
697.2079737765600385
 21
8.0720170968715905
 31
0.0
  0
LINE
  5
4722
  8
0
 10
637.2917256027934627
 20
8.0720170968715905
 30
0.0
 11
637.2917256027934627
 21
7.8303271606715859
 31
0.0
  0
ARC
  5
4723
  8
0
 10
637.3225784627167059
 20
8.7120556987511701
 30
0.0
 40
0.8822681643521951
 50
267.995961746236901
 51
270.0344168813314809
  0
ARC
  5
4724
  8
0
 10
637.7549709361478563
 20
11.7504169631385302
 30
0.0
 40
0.0298775737019739
 50
87.5927040472751059
 51
174.2280645382629984
  0
LINE
  5
4725
  8
0
 10
637.7562258802935276
 20
11.7802681695715794
 30
0.0
 11
637.9594678268935013
 21
11.7796429841715806
 31
0.0
  0
ARC
  5
4726
  8
0
 10
637.9593896403263216
 20
11.7542252599013892
 30
0.0
 40
0.0254178445233881
 50
28.0602051854427614
 51
89.8237550247267649
  0
ARC
  5
4727
  8
0
 10
637.9358977331911547
 20
11.7417027100415901
 30
0.0
 40
0.0520389631294528
 50
357.8958925747766102
 51
28.0602051854441896
  0
LINE
  5
4728
  8
0
 10
637.9879016097934255
 20
11.7397920813715899
 30
0.0
 11
637.9879139279935316
 21
10.6233725577715905
 31
0.0
  0
LINE
  5
4729
  8
0
 10
637.9879016097934255
 20
11.7397920813715899
 30
0.0
 11
637.9677827834933623
 21
11.6320813148716002
 31
0.0
  0
ARC
  5
472A
  8
0
 10
639.2418611736825369
 20
11.4530111961550602
 30
0.0
 40
1.286532360738639
 50
171.9991406114978929
 51
180.4721035324097045
  0
LINE
  5
472B
  8
0
 10
637.9553724863933439
 20
11.4424105968715892
 30
0.0
 11
637.9530227531935225
 21
10.9476381303715797
 31
0.0
  0
ARC
  5
472C
  8
0
 10
639.2337291412163722
 20
10.9265333507149993
 30
0.0
 40
1.2808802692082559
 50
179.0559074478557022
 51
187.3951296938448934
  0
LINE
  5
472D
  8
0
 10
637.9635030972933691
 20
10.76166958457158
 30
0.0
 11
637.9879139279935316
 21
10.6233725577715905
 31
0.0
  0
ARC
  5
472E
  8
0
 10
637.92971623717699
 20
10.6204565756893405
 30
0.0
 40
0.0582706973347749
 50
334.7133573147515904
 51
2.8683932701620858
  0
ARC
  5
472F
  8
0
 10
637.9584494710318268
 20
10.6068826326666894
 30
0.0
 40
0.0264925498598354
 50
273.2582910669942748
 51
334.7133573147538073
  0
LINE
  5
4730
  8
0
 10
637.9599552349933447
 20
10.5804329091715896
 30
0.0
 11
637.7542097350933545
 21
10.5804329104715809
 31
0.0
  0
ARC
  5
4731
  8
0
 10
637.7542097352912833
 20
10.6117321977695305
 30
0.0
 40
0.0312992872979336
 50
188.1773546529649082
 51
269.9999996379772824
  0
LINE
  5
4732
  8
0
 10
637.7232286826933887
 20
10.6072802582715795
 30
0.0
 11
637.732576025793378
 21
10.7618219027715796
 31
0.0
  0
ARC
  5
4733
  8
0
 10
633.2764691281075784
 20
10.9465357535009797
 30
0.0
 40
4.4599336194896386
 50
357.6263431441702778
 51
0.0623188456108421
  0
LINE
  5
4734
  8
0
 10
637.7364001094933883
 20
10.9513866842715792
 30
0.0
 11
637.7364000976934904
 21
11.4426085611715909
 31
0.0
  0
ARC
  5
4735
  8
0
 10
633.8522888576540026
 20
11.4590989676073303
 30
0.0
 40
3.884146245767008
 50
359.7567461496382748
 51
2.554975541844231
  0
LINE
  5
4736
  8
0
 10
637.7325739074933608
 20
11.6322462762715801
 30
0.0
 11
637.7252448391933513
 21
11.7534217190715893
 31
0.0
  0
ARC
  5
4737
  8
0
 10
638.8123436678989719
 20
9.1197760531441219
 30
0.0
 40
1.443486976592959
 50
180.0880471704591912
 51
181.6908907709099879
  0
LINE
  5
4738
  8
0
 10
637.3694852374934499
 20
9.0771826099716009
 30
0.0
 11
637.4008504351934334
 21
8.1346850644715971
 31
0.0
  0
ARC
  5
4739
  8
0
 10
637.8772021906684131
 20
8.1505374845193188
 30
0.0
 40
0.4766154573295515
 50
181.9060319958238949
 51
185.7221160876246131
  0
ARC
  5
473A
  8
0
 10
637.3705294917228912
 20
8.1029060630206402
 30
0.0
 40
0.0324323309363085
 50
287.7468103112469748
 51
0.1961556041856928
  0
ARC
  5
473B
  8
0
 10
637.4419969328766911
 20
8.2463295716056262
 30
0.0
 40
0.0310442311608922
 50
180.2207331520970115
 51
269.8839063592221805
  0
LINE
  5
473C
  8
0
 10
637.4419340305935293
 20
8.2152854041715813
 30
0.0
 11
637.7550418006935615
 21
8.2152854040715937
 31
0.0
  0
ARC
  5
473D
  8
0
 10
637.7523068262461265
 20
8.1778009047527132
 30
0.0
 40
0.0375841425925162
 50
0.4915549453048284
 51
85.8269335787214516
  0
LINE
  5
473E
  8
0
 10
637.7898895856834542
 20
8.1781233446371289
 30
0.0
 11
637.7929819732935357
 21
8.1030166341715812
 31
0.0
  0
ARC
  5
473F
  8
0
 10
637.7643600395540489
 20
8.0989648009983597
 30
0.0
 40
0.0289073077793201
 50
291.2178988045188817
 51
8.0574750251903957
  0
LINE
  5
4740
  8
0
 10
637.4347771858061833
 20
9.1970170968715763
 30
0.0
 11
637.6565275794935133
 21
9.1970170968715905
 31
0.0
  0
ARC
  5
4741
  8
0
 10
637.4436317508367438
 20
9.16602466137725
 30
0.0
 40
0.0309944358663273
 50
90.6509590201135467
 51
180.0139836148171071
  0
LINE
  5
4742
  8
0
 10
637.4126373158935621
 20
9.1660170968715846
 30
0.0
 11
637.4109529320935508
 21
8.2462099733715917
 31
0.0
  0
ARC
  5
4743
  8
0
 10
637.4361316298469546
 20
8.2381048122811933
 30
0.0
 40
0.0391428886134008
 50
190.5189883545940006
 51
266.6023977887426213
  0
LINE
  5
4744
  8
0
 10
637.4200654007904632
 20
8.2243579492549514
 30
0.0
 11
637.4102258362212297
 21
8.2087610636177146
 31
0.0
  0
LINE
  5
4745
  8
0
 10
637.433811842293494
 20
8.199030724771589
 30
0.0
 11
637.5953131904933571
 21
8.1990321216715785
 31
0.0
  0
ARC
  5
4746
  8
0
 10
637.5952984531703578
 20
9.9028746063470834
 30
0.0
 40
1.703842484739239
 50
270.0004955777436066
 51
274.5312954371394198
  0
ARC
  5
4747
  8
0
 10
637.723974997047776
 20
8.2792229064150433
 30
0.0
 40
0.0750998728952161
 50
274.5312954371394198
 51
292.076357140313803
  0
LINE
  5
4748
  8
0
 10
637.7522006761935245
 20
8.2096290708715856
 30
0.0
 11
637.7550418006935615
 21
8.2152854040715937
 31
0.0
  0
ARC
  5
4749
  8
0
 10
637.6565257438985554
 20
9.2602721416686364
 30
0.0
 40
0.0632550448236866
 50
270.0016626632267958
 51
359.7689607910842255
  0
LINE
  5
474A
  8
0
 10
637.7197757893934522
 20
9.2600170998715896
 30
0.0
 11
637.7221491137934208
 21
10.5568309582715898
 31
0.0
  0
ARC
  5
474B
  8
0
 10
639.0117522822591809
 20
10.5544708302962391
 30
0.0
 40
1.289605328122073
 50
177.6530775989004098
 51
179.8951419906263141
  0
LINE
  5
474C
  8
0
 10
637.7241633860935508
 20
11.8093164874715999
 30
0.0
 11
637.7253815799933818
 21
28.5545900403716004
 31
0.0
  0
ARC
  5
474D
  8
0
 10
638.8520668616040439
 20
11.8031813392225207
 30
0.0
 40
1.127920161231714
 50
179.6883468823158978
 51
182.5284961401928001
  0
ARC
  5
474E
  8
0
 10
637.7561912394479577
 20
29.7827246356385409
 30
0.0
 40
0.0298775737019739
 50
87.5927040472751059
 51
174.2280645382629984
  0
LINE
  5
474F
  8
0
 10
637.7574461835934017
 20
29.8125758420715989
 30
0.0
 11
637.9624320598934446
 21
29.8087604201715983
 31
0.0
  0
ARC
  5
4750
  8
0
 10
637.9623538733261512
 20
29.7833426959013998
 30
0.0
 40
0.0254178445233881
 50
28.0602051854423991
 51
89.8237550247267649
  0
ARC
  5
4751
  8
0
 10
637.9388619661909843
 20
29.7708201460416007
 30
0.0
 40
0.0520389631294528
 50
357.8958925747766102
 51
28.0602051854441896
  0
LINE
  5
4752
  8
0
 10
637.9908658427933688
 20
29.7689095173716005
 30
0.0
 11
637.990915055643427
 21
28.6254326349715988
 31
0.0
  0
LINE
  5
4753
  8
0
 10
637.9908658427933688
 20
29.7689095173716005
 30
0.0
 11
637.970747016493533
 21
29.6611987508716091
 31
0.0
  0
ARC
  5
4754
  8
0
 10
639.2448254066824802
 20
29.4821286321550708
 30
0.0
 40
1.286532360738639
 50
171.9991406114978929
 51
180.4721035324097045
  0
LINE
  5
4755
  8
0
 10
637.9583367193935146
 20
29.4715280328715998
 30
0.0
 11
637.9560238808435315
 21
28.9496982075715898
 31
0.0
  0
ARC
  5
4756
  8
0
 10
639.2367302688662676
 20
28.9285934279150112
 30
0.0
 40
1.2808802692082559
 50
179.0559074478557022
 51
187.3951296938448934
  0
LINE
  5
4757
  8
0
 10
637.9665042249434919
 20
28.7637296617715883
 30
0.0
 11
637.990915055643427
 21
28.6254326349715988
 31
0.0
  0
ARC
  5
4758
  8
0
 10
637.9327173648268854
 20
28.6225166528893489
 30
0.0
 40
0.0582706973347749
 50
334.7133573147515904
 51
2.8683932701620858
  0
ARC
  5
4759
  8
0
 10
637.9614505986818358
 20
28.6089427098666889
 30
0.0
 40
0.0264925498598354
 50
273.2582910669942748
 51
334.7133573147538073
  0
LINE
  5
475A
  8
0
 10
637.9629563626433537
 20
28.5824929863715909
 30
0.0
 11
637.7572108627433636
 21
28.5824929876715892
 31
0.0
  0
ARC
  5
475B
  8
0
 10
637.7572108629411787
 20
28.6137922749695299
 30
0.0
 40
0.0312992872979336
 50
188.1773546529649082
 51
269.9999996379772824
  0
LINE
  5
475C
  8
0
 10
637.7262298103435114
 20
28.6093403354716003
 30
0.0
 11
637.7355771534435007
 21
28.7638819799716003
 31
0.0
  0
ARC
  5
475D
  8
0
 10
633.2794702557577011
 20
28.948595830700981
 30
0.0
 40
4.4599336194896386
 50
357.6263431441702778
 51
0.0623188456108421
  0
LINE
  5
475E
  8
0
 10
637.739401237143511
 20
28.9534467614716
 30
0.0
 11
637.7393643306934337
 21
29.4717259971716103
 31
0.0
  0
ARC
  5
475F
  8
0
 10
708.3666150460903737
 20
31.3861157082953817
 30
0.0
 40
70.6531912342363739
 50
181.4099055362198953
 51
181.5526528206704029
  0
LINE
  5
4760
  8
0
 10
637.7348140016935076
 20
29.647693203171599
 30
0.0
 11
637.7264651424934527
 21
29.7857293915715893
 31
0.0
  0
ARC
  5
4761
  8
0
 10
638.6665777620496556
 20
28.5673900807354393
 30
0.0
 40
0.9412832167581067
 50
177.445647720075101
 51
180.7791607055139878
  0
ARC
  5
4762
  8
0
 10
638.8257102267348273
 20
29.8347720213194414
 30
0.0
 40
1.1003385546654341
 50
179.7567171740525112
 51
182.5545472349928104
  0
LINE
  5
4763
  8
0
 10
637.7253815911933543
 20
29.8394441397715902
 30
0.0
 11
637.7241065160934568
 21
36.6005170460715874
 31
0.0
  0
ARC
  5
4764
  8
0
 10
637.84965325055623
 20
36.6003158487891795
 30
0.0
 40
0.1255468956789468
 50
94.2525663780325971
 51
179.9081796487006102
  0
ARC
  5
4765
  8
0
 10
637.836033098644748
 20
36.6004422948195014
 30
0.0
 40
0.1250748265194683
 50
90.0358382121868601
 51
179.9657337292520936
  0
LINE
  5
4766
  8
0
 10
637.8359548649963244
 20
36.7255170968715987
 30
0.0
 11
696.6475970715571293
 21
36.7255170968715987
 31
0.0
  0
LINE
  5
4767
  8
0
 10
637.7109582944933663
 20
36.6005170969746132
 30
0.0
 11
637.7109582944933663
 21
9.2599205893323244
 31
0.0
  0
ARC
  5
4768
  8
0
 10
637.6479729580603362
 20
9.2599998438200402
 30
0.0
 40
0.0629853862960713
 50
270.5245267438036763
 51
359.9279047233189885
  0
LINE
  5
4769
  8
0
 10
637.2430400513934501
 20
9.0358100197715885
 30
0.0
 11
637.3095214221933702
 21
9.0358100180715866
 31
0.0
  0
ARC
  5
476A
  8
0
 10
637.309521424162881
 20
9.1128263979323094
 30
0.0
 40
0.0770163798607158
 50
269.9999985348824225
 51
299.6503244305155818
  0
ARC
  5
476B
  8
0
 10
637.3256142580132746
 20
9.0845557323247874
 30
0.0
 40
0.0444862425227566
 50
299.6503244305154112
 51
350.4598106313712833
  0
ARC
  5
476C
  8
0
 10
676.8218196379636993
 20
23.0720170968715905
 30
0.0
 40
16.6990347011289799
 50
352.7348337316134916
 51
7.2651662683864924
  0
ARC
  5
476D
  8
0
 10
682.0185342345689605
 20
23.0720170968715905
 30
0.0
 40
12.7154912860595406
 50
337.6883016181246262
 51
22.3116983818750398
  0
LINE
  5
476E
  8
0
 10
652.8079551537935004
 20
36.4620921211716009
 30
0.0
 11
651.6757150858934438
 21
36.4620921191715865
 31
0.0
  0
ARC
  5
476F
  8
0
 10
651.6757150857738452
 20
36.5298254031516265
 30
0.0
 40
0.0677332839800471
 50
246.1490196228351124
 51
270.0000001012111284
  0
ARC
  5
4770
  8
0
 10
651.6588078077722912
 20
36.4915836645957725
 30
0.0
 40
0.025920766509809
 50
183.4551001405401109
 51
246.1490196228565992
  0
LINE
  5
4771
  8
0
 10
651.6329341565934783
 20
36.4900215150715894
 30
0.0
 11
651.6267466010933731
 21
36.6945170968715928
 31
0.0
  0
ARC
  5
4772
  8
0
 10
651.6585192244091331
 20
36.6954784617500707
 30
0.0
 40
0.031787164308695
 50
140.6325755724120086
 51
181.7331068035749126
  0
ARC
  5
4773
  8
0
 10
651.6557226593196219
 20
36.6977729246779916
 30
0.0
 40
0.0281697983571618
 50
99.972596891823045
 51
140.6325755724066084
  0
LINE
  5
4774
  8
0
 10
651.6757150858934438
 20
36.4620921191715865
 30
0.0
 11
651.796968410093541
 21
36.484165777671592
 31
0.0
  0
ARC
  5
4775
  8
0
 10
651.9702166606074343
 20
35.1976337817250879
 30
0.0
 40
1.2981446502220859
 50
89.2756401806518483
 51
97.6694835127339331
  0
ARC
  5
4776
  8
0
 10
652.8079551613132026
 20
36.5298254031516265
 30
0.0
 40
0.0677332839800471
 50
269.9999998987888716
 51
293.8509803771648876
  0
ARC
  5
4777
  8
0
 10
652.8248624393147566
 20
36.4915836645957725
 30
0.0
 40
0.025920766509809
 50
293.8509803771373186
 51
356.5448998594598038
  0
LINE
  5
4778
  8
0
 10
652.8507360904934558
 20
36.4900215150715894
 30
0.0
 11
652.8569236459934473
 21
36.6945170968715928
 31
0.0
  0
ARC
  5
4779
  8
0
 10
652.8251510226778009
 20
36.6954784617500707
 30
0.0
 40
0.031787164308695
 50
358.2668931964250874
 51
39.3674244275882614
  0
ARC
  5
477A
  8
0
 10
652.8279475877673121
 20
36.6977729246779916
 30
0.0
 40
0.0281697983571618
 50
39.3674244275933418
 51
80.0274031081769692
  0
LINE
  5
477B
  8
0
 10
652.8079551611933766
 20
36.4620921191715865
 30
0.0
 11
652.6867018369935067
 21
36.484165777671592
 31
0.0
  0
ARC
  5
477C
  8
0
 10
652.5134535864796135
 20
35.1976337817250879
 30
0.0
 40
1.2981446502220859
 50
82.3305164872660811
 51
90.724359819348166
  0
LINE
  5
477D
  8
0
 10
651.9866279701933536
 20
36.4956746908716028
 30
0.0
 11
652.4970422768934668
 21
36.4956746908716028
 31
0.0
  0
LINE
  5
477E
  8
0
 10
667.8078960022266983
 20
36.4620921211716009
 30
0.0
 11
666.6756559343267554
 21
36.4620921191715865
 31
0.0
  0
ARC
  5
477F
  8
0
 10
666.6756559342070432
 20
36.5298254031516265
 30
0.0
 40
0.0677332839800471
 50
246.1490196228351124
 51
270.0000001012111284
  0
ARC
  5
4780
  8
0
 10
666.6587486562054892
 20
36.4915836645957725
 30
0.0
 40
0.025920766509809
 50
183.4551001405401109
 51
246.1490196228565992
  0
LINE
  5
4781
  8
0
 10
666.6328750050267899
 20
36.4900215150715894
 30
0.0
 11
666.6266874495267984
 21
36.6945170968715928
 31
0.0
  0
ARC
  5
4782
  8
0
 10
666.6584600728424448
 20
36.6954784617500707
 30
0.0
 40
0.031787164308695
 50
140.6325755724120086
 51
181.7331068035749126
  0
ARC
  5
4783
  8
0
 10
666.6556635077529336
 20
36.6977729246779916
 30
0.0
 40
0.0281697983571618
 50
99.972596891823045
 51
140.6325755724066084
  0
LINE
  5
4784
  8
0
 10
666.6756559343267554
 20
36.4620921191715865
 30
0.0
 11
666.796909258526739
 21
36.484165777671592
 31
0.0
  0
ARC
  5
4785
  8
0
 10
666.9701575090406322
 20
35.1976337817250879
 30
0.0
 40
1.2981446502220859
 50
89.2756401806518483
 51
97.6694835127339331
  0
ARC
  5
4786
  8
0
 10
667.8078960097462868
 20
36.5298254031516265
 30
0.0
 40
0.0677332839800471
 50
269.9999998987888716
 51
293.8509803771648876
  0
ARC
  5
4787
  8
0
 10
667.8248032877479545
 20
36.4915836645957725
 30
0.0
 40
0.025920766509809
 50
293.8509803771373186
 51
356.5448998594598038
  0
LINE
  5
4788
  8
0
 10
667.8506769389266537
 20
36.4900215150715894
 30
0.0
 11
667.8568644944267589
 21
36.6945170968715928
 31
0.0
  0
ARC
  5
4789
  8
0
 10
667.8250918711109989
 20
36.6954784617500707
 30
0.0
 40
0.031787164308695
 50
358.2668931964250874
 51
39.3674244275882614
  0
ARC
  5
478A
  8
0
 10
667.8278884362005101
 20
36.6977729246779916
 30
0.0
 40
0.0281697983571618
 50
39.3674244275933418
 51
80.0274031081769692
  0
LINE
  5
478B
  8
0
 10
667.807896009626802
 20
36.4620921191715865
 30
0.0
 11
667.6866426854267047
 21
36.484165777671592
 31
0.0
  0
ARC
  5
478C
  8
0
 10
667.5133944349128114
 20
35.1976337817250879
 30
0.0
 40
1.2981446502220859
 50
82.3305164872660811
 51
90.724359819348166
  0
LINE
  5
478D
  8
0
 10
666.9865688186265515
 20
36.4956746908716028
 30
0.0
 11
667.4969831253266648
 21
36.4956746908716028
 31
0.0
  0
ARC
  5
478E
  8
0
 10
637.5263133799107891
 20
36.9465910745779524
 30
0.0
 40
0.1254974271225135
 50
91.9328787188790244
 51
179.8054992974400079
  0
LINE
  5
478F
  8
0
 10
637.4008166758934522
 20
36.9470170970823517
 30
0.0
 11
637.4008166758934522
 21
9.2575858657377097
 31
0.0
  0
ARC
  5
4790
  8
0
 10
637.9474954520749179
 20
9.2224891142784315
 30
0.0
 40
0.5463203804503096
 50
181.0057780142539912
 51
185.9328085182260111
  0
ARC
  5
4791
  8
0
 10
639.7806279190376699
 20
9.2588097172912853
 30
0.0
 40
2.3798115578357608
 50
180.0294651614420047
 51
181.1053939331985134
  0
ARC
  5
4792
  8
0
 10
637.4351078526890433
 20
9.1660122828759398
 30
0.0
 40
0.0310065772295424
 50
90.6110373225213976
 51
179.985202723421196
  0
LINE
  5
4793
  8
0
 10
697.1146935408600029
 20
36.9470170968655722
 30
0.0
 11
697.1146935408600029
 21
9.1175578287824948
 31
0.0
  0
ARC
  5
4794
  8
0
 10
696.9896246702185181
 20
36.9469482332808212
 30
0.0
 40
0.1250688895997793
 50
0.0315473602202149
 51
89.9630491101456755
  0
ARC
  5
4795
  8
0
 10
694.4641396602128225
 20
9.1177277652720932
 30
0.0
 40
2.7775804666086739
 50
358.3099601183678828
 51
359.9115049259772263
  0
LINE
  5
4796
  8
0
 10
697.24051188515989
 20
9.0358100197715885
 30
0.0
 11
697.2087581588599505
 21
8.081637586271583
 31
0.0
  0
ARC
  5
4797
  8
0
 10
697.1084088596138599
 20
8.0849770918690762
 30
0.0
 40
0.1004048512612139
 50
352.5837191821016177
 51
358.0939678717027732
  0
LINE
  5
4798
  8
0
 10
697.191826333759991
 20
8.0720170968715905
 30
0.0
 11
697.191826333759991
 21
7.8303271606715859
 31
0.0
  0
ARC
  5
4799
  8
0
 10
697.1609734738367479
 20
8.7120556987511701
 30
0.0
 40
0.8822681643521951
 50
269.9655831186685191
 51
272.004038253763099
  0
ARC
  5
479A
  8
0
 10
696.7285810004054838
 20
11.7504169631385302
 30
0.0
 40
0.0298775737019739
 50
5.7719354617369483
 51
92.4072959527248941
  0
LINE
  5
479B
  8
0
 10
696.7273260562599262
 20
11.7802681695715794
 30
0.0
 11
696.5240841096599524
 21
11.7796429841715806
 31
0.0
  0
ARC
  5
479C
  8
0
 10
696.5241622962271322
 20
11.7542252599013892
 30
0.0
 40
0.0254178445233881
 50
90.1762449752732351
 51
151.9397948145571888
  0
ARC
  5
479D
  8
0
 10
696.5476542033622991
 20
11.7417027100415901
 30
0.0
 40
0.0520389631294528
 50
151.9397948145557962
 51
182.1041074252233045
  0
LINE
  5
479E
  8
0
 10
696.4956503267599146
 20
11.7397920813715899
 30
0.0
 11
696.4956380085600358
 21
10.6233725577715905
 31
0.0
  0
LINE
  5
479F
  8
0
 10
696.4956503267599146
 20
11.7397920813715899
 30
0.0
 11
696.515769153059864
 21
11.6320813148716002
 31
0.0
  0
ARC
  5
47A0
  8
0
 10
695.2416907628710305
 20
11.4530111961550602
 30
0.0
 40
1.286532360738639
 50
359.5278964675903239
 51
8.0008593885021231
  0
LINE
  5
47A1
  8
0
 10
696.5281794501598824
 20
11.4424105968715892
 30
0.0
 11
696.5305291833599313
 21
10.9476381303715797
 31
0.0
  0
ARC
  5
47A2
  8
0
 10
695.2498227953370815
 20
10.9265333507149993
 30
0.0
 40
1.2808802692082559
 50
352.6048703061546803
 51
0.9440925521446372
  0
LINE
  5
47A3
  8
0
 10
696.5200488392598572
 20
10.76166958457158
 30
0.0
 11
696.4956380085600358
 21
10.6233725577715905
 31
0.0
  0
ARC
  5
47A4
  8
0
 10
696.5538356993764637
 20
10.6204565756893405
 30
0.0
 40
0.0582706973347749
 50
177.1316067298378982
 51
205.2866426852484096
  0
ARC
  5
47A5
  8
0
 10
696.525102465521627
 20
10.6068826326666894
 30
0.0
 40
0.0264925498598354
 50
205.2866426852461927
 51
266.7417089330057252
  0
LINE
  5
47A6
  8
0
 10
696.5235967015598817
 20
10.5804329091715896
 30
0.0
 11
696.7293422014598718
 21
10.5804329104715809
 31
0.0
  0
ARC
  5
47A7
  8
0
 10
696.7293422012620567
 20
10.6117321977695305
 30
0.0
 40
0.0312992872979336
 50
270.0000003620226039
 51
351.8226453470351203
  0
LINE
  5
47A8
  8
0
 10
696.7603232538599514
 20
10.6072802582715795
 30
0.0
 11
696.7509759107598484
 21
10.7618219027715796
 31
0.0
  0
ARC
  5
47A9
  8
0
 10
701.207082808445648
 20
10.9465357535009797
 30
0.0
 40
4.4599336194896386
 50
179.9376811543891108
 51
182.3736568558296938
  0
LINE
  5
47AA
  8
0
 10
696.7471518270599518
 20
10.9513866842715792
 30
0.0
 11
696.7471518388598497
 21
11.4426085611715909
 31
0.0
  0
ARC
  5
47AB
  8
0
 10
700.6312630788994511
 20
11.4590989676073303
 30
0.0
 40
3.884146245767008
 50
177.4450244581557001
 51
180.2432538503618105
  0
LINE
  5
47AC
  8
0
 10
696.7509780290598655
 20
11.6322462762715801
 30
0.0
 11
696.7583070973598751
 21
11.7534217190715893
 31
0.0
  0
ARC
  5
47AD
  8
0
 10
695.6712082686544818
 20
9.1197760531441219
 30
0.0
 40
1.443486976592959
 50
358.3091092290899269
 51
359.9119528295407235
  0
LINE
  5
47AE
  8
0
 10
697.1140666990598902
 20
9.0771826099716009
 30
0.0
 11
697.0827015013599066
 21
8.1346850644715971
 31
0.0
  0
ARC
  5
47AF
  8
0
 10
696.606349745884927
 20
8.1505374845193188
 30
0.0
 40
0.4766154573295515
 50
354.2778839123752732
 51
358.0939680041760766
  0
ARC
  5
47B0
  8
0
 10
697.1130224448304489
 20
8.1029060630206402
 30
0.0
 40
0.0324323309363085
 50
179.8038443958143091
 51
252.2531896887529967
  0
ARC
  5
47B1
  8
0
 10
697.041555003676649
 20
8.2463295716056262
 30
0.0
 40
0.0310442311608922
 50
270.1160936407778195
 51
359.7792668479029885
  0
LINE
  5
47B2
  8
0
 10
697.0416179059600381
 20
8.2152854041715813
 30
0.0
 11
696.7285101358600059
 21
8.2152854040715937
 31
0.0
  0
ARC
  5
47B3
  8
0
 10
696.7312451103073272
 20
8.1778009047527132
 30
0.0
 40
0.0375841425925162
 50
94.1730664212785342
 51
179.5084450546951018
  0
LINE
  5
47B4
  8
0
 10
696.6936623508698858
 20
8.1781233446371289
 30
0.0
 11
696.6905699632600317
 21
8.1030166341715812
 31
0.0
  0
ARC
  5
47B5
  8
0
 10
696.7191918969994049
 20
8.0989648009983597
 30
0.0
 40
0.0289073077793201
 50
171.9425249748096007
 51
248.7821011954810047
  0
LINE
  5
47B6
  8
0
 10
697.0487747507472704
 20
9.1970170968715763
 30
0.0
 11
696.8270243570599405
 21
9.1970170968715905
 31
0.0
  0
ARC
  5
47B7
  8
0
 10
697.0399201857165963
 20
9.16602466137725
 30
0.0
 40
0.0309944358663273
 50
359.9860163851828929
 51
89.3490409798864391
  0
LINE
  5
47B8
  8
0
 10
697.0709146206598916
 20
9.1660170968715846
 30
0.0
 11
697.072599004459903
 21
8.2462099733715917
 31
0.0
  0
ARC
  5
47B9
  8
0
 10
697.0474203067063854
 20
8.2381048122811933
 30
0.0
 40
0.0391428886134008
 50
273.3976022112574924
 51
349.4810116454058857
  0
LINE
  5
47BA
  8
0
 10
697.0634865357627632
 20
8.2243579492549514
 30
0.0
 11
697.0733261003322241
 21
8.2087610636177146
 31
0.0
  0
LINE
  5
47BB
  8
0
 10
697.049740094259846
 20
8.199030724771589
 30
0.0
 11
696.888238746059983
 21
8.1990321216715785
 31
0.0
  0
ARC
  5
47BC
  8
0
 10
696.888253483383096
 20
9.9028746063470834
 30
0.0
 40
1.703842484739239
 50
265.4687045628539863
 51
269.9995044222563934
  0
ARC
  5
47BD
  8
0
 10
696.7595769395054504
 20
8.2792229064150433
 30
0.0
 40
0.0750998728952161
 50
247.9236428596863107
 51
265.4687045628605802
  0
LINE
  5
47BE
  8
0
 10
696.7313512603599293
 20
8.2096290708715856
 30
0.0
 11
696.7285101358600059
 21
8.2152854040715937
 31
0.0
  0
ARC
  5
47BF
  8
0
 10
696.8270261926547846
 20
9.2602721416686364
 30
0.0
 40
0.0632550448236866
 50
180.2310392089158029
 51
269.9983373367730906
  0
LINE
  5
47C0
  8
0
 10
696.7637761471600015
 20
9.2600170998715896
 30
0.0
 11
696.7614028227599192
 21
10.5568309582715898
 31
0.0
  0
ARC
  5
47C1
  8
0
 10
695.4717996542941592
 20
10.5544708302962391
 30
0.0
 40
1.289605328122073
 50
0.1048580093736331
 51
2.3469224010995151
  0
LINE
  5
47C2
  8
0
 10
696.7593885504600166
 20
11.8093164874715999
 30
0.0
 11
696.7581703565598445
 21
28.5545900403716004
 31
0.0
  0
ARC
  5
47C3
  8
0
 10
695.6314850749491825
 20
11.8031813392225207
 30
0.0
 40
1.127920161231714
 50
357.4715038598071146
 51
0.3116531176840731
  0
ARC
  5
47C4
  8
0
 10
696.727360697105496
 20
29.7827246356385409
 30
0.0
 40
0.0298775737019739
 50
5.7719354617369483
 51
92.4072959527248941
  0
LINE
  5
47C5
  8
0
 10
696.7261057529599384
 20
29.8125758420715989
 30
0.0
 11
696.5211198766600091
 21
29.8087604201715983
 31
0.0
  0
ARC
  5
47C6
  8
0
 10
696.5211980632271889
 20
29.7833426959013998
 30
0.0
 40
0.0254178445233881
 50
90.1762449752732351
 51
151.9397948145575867
  0
ARC
  5
47C7
  8
0
 10
696.5446899703623558
 20
29.7708201460416007
 30
0.0
 40
0.0520389631294528
 50
151.9397948145557962
 51
182.1041074252233045
  0
LINE
  5
47C8
  8
0
 10
696.4926860937598576
 20
29.7689095173716005
 30
0.0
 11
696.4926368809097994
 21
28.6254326349715988
 31
0.0
  0
LINE
  5
47C9
  8
0
 10
696.4926860937598576
 20
29.7689095173716005
 30
0.0
 11
696.5128049200600344
 21
29.6611987508716091
 31
0.0
  0
ARC
  5
47CA
  8
0
 10
695.2387265298708598
 20
29.4821286321550708
 30
0.0
 40
1.286532360738639
 50
359.5278964675903239
 51
8.0008593885025281
  0
LINE
  5
47CB
  8
0
 10
696.5252152171599391
 20
29.4715280328715998
 30
0.0
 11
696.5275280557100359
 21
28.9496982075715898
 31
0.0
  0
ARC
  5
47CC
  8
0
 10
695.2468216676869588
 20
28.9285934279150112
 30
0.0
 40
1.2808802692082559
 50
352.6048703061546803
 51
0.9440925521446372
  0
LINE
  5
47CD
  8
0
 10
696.5170477116099619
 20
28.7637296617715883
 30
0.0
 11
696.4926368809097994
 21
28.6254326349715988
 31
0.0
  0
ARC
  5
47CE
  8
0
 10
696.5508345717264547
 20
28.6225166528893489
 30
0.0
 40
0.0582706973347749
 50
177.1316067298378982
 51
205.2866426852484096
  0
ARC
  5
47CF
  8
0
 10
696.5221013378716179
 20
28.6089427098666889
 30
0.0
 40
0.0264925498598354
 50
205.2866426852461927
 51
266.7417089330057252
  0
LINE
  5
47D0
  8
0
 10
696.5205955739099863
 20
28.5824929863715909
 30
0.0
 11
696.7263410738098628
 21
28.5824929876715892
 31
0.0
  0
ARC
  5
47D1
  8
0
 10
696.7263410736122751
 20
28.6137922749695299
 30
0.0
 40
0.0312992872979336
 50
270.0000003620226039
 51
351.8226453470351203
  0
LINE
  5
47D2
  8
0
 10
696.7573221262099423
 20
28.6093403354716003
 30
0.0
 11
696.747974783109953
 21
28.7638819799716003
 31
0.0
  0
ARC
  5
47D3
  8
0
 10
701.2040816807957526
 20
28.948595830700981
 30
0.0
 40
4.4599336194896386
 50
179.9376811543891108
 51
182.3736568558296938
  0
LINE
  5
47D4
  8
0
 10
696.7441506994099427
 20
28.9534467614716
 30
0.0
 11
696.7441876058597927
 21
29.4717259971716103
 31
0.0
  0
ARC
  5
47D5
  8
0
 10
626.1169368904630801
 20
31.3861157082953817
 30
0.0
 40
70.6531912342363739
 50
358.4473471793294834
 51
358.5900944637800194
  0
LINE
  5
47D6
  8
0
 10
696.7487379348599461
 20
29.647693203171599
 30
0.0
 11
696.757086794060001
 21
29.7857293915715893
 31
0.0
  0
ARC
  5
47D7
  8
0
 10
695.8169741745037982
 20
28.5673900807354393
 30
0.0
 40
0.9412832167581067
 50
359.2208392944859838
 51
2.5543522799249119
  0
ARC
  5
47D8
  8
0
 10
695.6578417098185128
 20
29.8347720213194414
 30
0.0
 40
1.1003385546654341
 50
357.4454527650070759
 51
0.2432828259475297
  0
LINE
  5
47D9
  8
0
 10
696.7581703453599857
 20
29.8394441397715902
 30
0.0
 11
696.759445420459997
 21
36.6005170460715874
 31
0.0
  0
ARC
  5
47DA
  8
0
 10
696.6338986859969964
 20
36.6003158487891795
 30
0.0
 40
0.1255468956789468
 50
0.0918203512993639
 51
85.7474336219674029
  0
ARC
  5
47DB
  8
0
 10
696.6475188379084784
 20
36.6004422948195014
 30
0.0
 40
0.1250748265194683
 50
0.034266270747837
 51
89.9641617878131541
  0
LINE
  5
47DC
  8
0
 10
696.77259364205986
 20
36.6005170969746132
 30
0.0
 11
696.77259364205986
 21
9.2599205893323244
 31
0.0
  0
ARC
  5
47DD
  8
0
 10
696.8355789784931176
 20
9.2599998438200402
 30
0.0
 40
0.0629853862960713
 50
180.0720952766808978
 51
269.4754732561963237
  0
LINE
  5
47DE
  8
0
 10
697.24051188515989
 20
9.0358100197715885
 30
0.0
 11
697.1740305143598562
 21
9.0358100180715866
 31
0.0
  0
ARC
  5
47DF
  8
0
 10
697.1740305123905728
 20
9.1128263979323094
 30
0.0
 40
0.0770163798607158
 50
240.3496755694843898
 51
270.0000014651175775
  0
ARC
  5
47E0
  8
0
 10
697.1579376785402928
 20
9.0845557323247874
 30
0.0
 40
0.0444862425227566
 50
189.540189368628603
 51
240.3496755694845888
  0
ARC
  5
47E1
  8
0
 10
696.9572385566426647
 20
36.9465910745779524
 30
0.0
 40
0.1254974271225135
 50
0.194500702559962
 51
88.0671212811209756
  0
LINE
  5
47E2
  8
0
 10
697.0827352606598879
 20
36.9470170970823517
 30
0.0
 11
697.0827352606598879
 21
9.2575858657377097
 31
0.0
  0
ARC
  5
47E3
  8
0
 10
696.5360564844785358
 20
9.2224891142784315
 30
0.0
 40
0.5463203804503096
 50
354.0671914817738752
 51
358.9942219857459804
  0
ARC
  5
47E4
  8
0
 10
694.7029240175155564
 20
9.2588097172912853
 30
0.0
 40
2.3798115578357608
 50
358.8946060668014866
 51
359.9705348385580237
  0
ARC
  5
47E5
  8
0
 10
697.0484440838645241
 20
9.1660122828759398
 30
0.0
 40
0.0310065772295424
 50
0.0147972765787771
 51
89.3889626774785881
  0
LINE
  5
47E6
  8
0
 10
681.6755967827599534
 20
36.4620921211716009
 30
0.0
 11
682.8078368506598963
 21
36.4620921191715865
 31
0.0
  0
ARC
  5
47E7
  8
0
 10
682.8078368507796085
 20
36.5298254031516265
 30
0.0
 40
0.0677332839800471
 50
269.9999998987888716
 51
293.8509803771648876
  0
ARC
  5
47E8
  8
0
 10
682.8247441287811625
 20
36.4915836645957725
 30
0.0
 40
0.025920766509809
 50
293.8509803771373186
 51
356.5448998594598038
  0
LINE
  5
47E9
  8
0
 10
682.8506177799598618
 20
36.4900215150715894
 30
0.0
 11
682.8568053354598533
 21
36.6945170968715928
 31
0.0
  0
ARC
  5
47EA
  8
0
 10
682.8250327121443206
 20
36.6954784617500707
 30
0.0
 40
0.031787164308695
 50
358.2668931964250874
 51
39.3674244275882614
  0
ARC
  5
47EB
  8
0
 10
682.8278292772338318
 20
36.6977729246779916
 30
0.0
 40
0.0281697983571618
 50
39.3674244275933418
 51
80.0274031081769692
  0
LINE
  5
47EC
  8
0
 10
682.8078368506598963
 20
36.4620921191715865
 30
0.0
 11
682.6865835264600264
 21
36.484165777671592
 31
0.0
  0
ARC
  5
47ED
  8
0
 10
682.5133352759459058
 20
35.1976337817250879
 30
0.0
 40
1.2981446502220859
 50
82.3305164872660811
 51
90.724359819348166
  0
ARC
  5
47EE
  8
0
 10
681.6755967752403649
 20
36.5298254031516265
 30
0.0
 40
0.0677332839800471
 50
246.1490196228351124
 51
270.0000001012111284
  0
ARC
  5
47EF
  8
0
 10
681.6586894972385835
 20
36.4915836645957725
 30
0.0
 40
0.025920766509809
 50
183.4551001405401109
 51
246.1490196228565992
  0
LINE
  5
47F0
  8
0
 10
681.6328158460598843
 20
36.4900215150715894
 30
0.0
 11
681.6266282905598928
 21
36.6945170968715928
 31
0.0
  0
ARC
  5
47F1
  8
0
 10
681.6584009138756528
 20
36.6954784617500707
 30
0.0
 40
0.031787164308695
 50
140.6325755724116959
 51
181.7331068035749126
  0
ARC
  5
47F2
  8
0
 10
681.6556043487861416
 20
36.6977729246779916
 30
0.0
 40
0.0281697983571618
 50
99.972596891823045
 51
140.6325755724066084
  0
LINE
  5
47F3
  8
0
 10
681.6755967753598497
 20
36.4620921191715865
 30
0.0
 11
681.796850099559947
 21
36.484165777671592
 31
0.0
  0
ARC
  5
47F4
  8
0
 10
681.9700983500738403
 20
35.1976337817250879
 30
0.0
 40
1.2981446502220859
 50
89.2756401806518483
 51
97.6694835127339331
  0
LINE
  5
47F5
  8
0
 10
682.4969239663599865
 20
36.4956746908716028
 30
0.0
 11
681.9865096596599869
 21
36.4956746908716028
 31
0.0
  0
LINE
  5
47F6
  8
0
 10
697.0780659002939501
 20
37.0353811229116872
 30
0.0
 11
697.0473145815093403
 21
37.0339747913597677
 31
0.0
  0
LINE
  5
47F7
  8
0
 10
696.7258378918803601
 20
36.6858097400105692
 30
0.0
 11
696.7359613091051642
 21
36.6888823395813901
 31
0.0
  0
LINE
  5
47F8
  8
0
 10
696.7823877427051684
 20
9.2154546285543972
 30
0.0
 11
696.7908660893607475
 21
9.2156386396849381
 31
0.0
  0
ARC
  5
47F9
  8
0
 10
671.7420676950240477
 20
23.0666846589467696
 30
0.0
 40
31.7783400219248193
 50
180.0142864897962056
 51
184.7285764945960977
  0
LINE
  5
47FA
  8
0
 10
637.7011641938480579
 20
9.2154546285543972
 30
0.0
 11
637.6926858471924788
 21
9.2156386396849381
 31
0.0
  0
LINE
  5
47FB
  8
0
 10
637.7577140446730937
 20
36.6858097400105692
 30
0.0
 11
637.7475906274479485
 21
36.6888823395813901
 31
0.0
  0
LINE
  5
47FC
  8
0
 10
637.4054860362595036
 20
37.0353811229116872
 30
0.0
 11
637.4362373550439997
 21
37.0339747913597677
 31
0.0
  0
ARC
  5
47FD
  8
0
 10
647.4757986266005219
 20
25.0908572660305005
 30
0.0
 40
3.1936069848280781
 50
144.1242105215883953
 51
173.92346893894819
  0
ARC
  5
47FE
  8
0
 10
649.0267778421539333
 20
24.1462385025376101
 30
0.0
 40
5.0059812193822113
 50
127.6579778946565966
 51
145.7669268002489957
  0
ARC
  5
47FF
  8
0
 10
651.6732710715333496
 20
21.5326113797365686
 30
0.0
 40
8.7062577505713552
 50
107.1098195296896023
 51
130.9395229619842951
  0
ARC
  5
4800
  8
0
 10
655.0418972530007977
 20
3.4280725487018051
 30
0.0
 40
27.0826775171289498
 50
94.7964711371786848
 51
102.647999679773207
  0
ARC
  5
4801
  8
0
 10
675.7250124534192537
 20
-207.1211883772485862
 30
0.0
 40
238.6429703519596899
 50
91.0414316855223404
 51
95.5180319289775923
  0
ARC
  5
4802
  8
0
 10
671.9026563142656414
 20
7.8524079802674294
 30
0.0
 40
23.6355664978579796
 50
84.3101030557842961
 51
91.2487167566073509
  0
ARC
  5
4803
  8
0
 10
673.5290844416257414
 20
23.2275875698994092
 30
0.0
 40
8.1754293516651142
 50
54.239257230684558
 51
84.9692723967893642
  0
ARC
  5
4804
  8
0
 10
672.4589527983498556
 20
22.5920940496632987
 30
0.0
 40
9.3297432152611321
 50
22.2893932755439685
 51
51.1856979043640905
  0
ARC
  5
4805
  8
0
 10
647.4757986266005219
 20
21.0531769277126912
 30
0.0
 40
3.1936069848280781
 50
186.0765310610510141
 51
215.8757894784118889
  0
ARC
  5
4806
  8
0
 10
649.0267778421539333
 20
21.997795691205571
 30
0.0
 40
5.0059812193822113
 50
214.2330731997508906
 51
232.3420221053380033
  0
ARC
  5
4807
  8
0
 10
651.6732710715333496
 20
24.6114228140066196
 30
0.0
 40
8.7062577505713552
 50
229.0604770380157049
 51
252.8901804703104119
  0
ARC
  5
4808
  8
0
 10
655.0418972530007977
 20
42.7159616450413608
 30
0.0
 40
27.0826775171289498
 50
257.3520003202268072
 51
265.2035288628213152
  0
ARC
  5
4809
  8
0
 10
675.7250124534192537
 20
253.2652225709917957
 30
0.0
 40
238.6429703519596899
 50
264.4819680710223793
 51
268.9585683144777022
  0
ARC
  5
480A
  8
0
 10
671.9026563142656414
 20
38.2916262134757375
 30
0.0
 40
23.6355664978579796
 50
268.7512832433927201
 51
275.6898969442157181
  0
ARC
  5
480B
  8
0
 10
673.5290844416257414
 20
22.9164466238437683
 30
0.0
 40
8.1754293516651142
 50
275.0307276032106074
 51
305.7607427693151863
  0
ARC
  5
480C
  8
0
 10
672.4589527983498556
 20
23.5519401440798788
 30
0.0
 40
9.3297432152611321
 50
308.8143020956355826
 51
337.7106067244556016
  0
ARC
  5
480D
  8
0
 10
675.0996329224049077
 20
23.0720170968716083
 30
0.0
 40
30.8895460721310187
 50
175.62401823869601
 51
184.37598176130399
  0
ARC
  5
480E
  8
0
 10
672.938170347385153
 20
23.0720170968715905
 30
0.0
 40
8.7082566138083664
 50
339.4366858579601853
 51
20.5633141420371111
  0
ENDSEC
  0
EOF
