  0
SECTION
  2
HEADER
  9
$ACADVER
  1
AC1009
  9
$INSBASE
 10
597.8812243216630122
 20
12.3501455740123909
 30
0.0
  9
$EXTMIN
 10
567.8453151668593364
 20
12.3473130651500007
 30
-0.0000000349181948
  9
$EXTMAX
 10
627.9180369325117681
 20
28.9659843118668583
 30
0.0000000814935746
  9
$LIMMIN
 10
0.0
 20
0.0
  9
$LIMMAX
 10
11.6929133858000007
 20
8.2677165353999982
  9
$ORTHOMODE
 70
     1
  9
$REGENMODE
 70
     1
  9
$FILLMODE
 70
     1
  9
$QTEXTMODE
 70
     0
  9
$MIRRTEXT
 70
     0
  9
$DRAGMODE
 70
     2
  9
$LTSCALE
 40
0.6431102362
  9
$OSMODE
 70
    23
  9
$ATTMODE
 70
     1
  9
$TEXTSIZE
 40
0.2
  9
$TRACEWID
 40
0.05
  9
$TEXTSTYLE
  7
STANDARD
  9
$CLAYER
  8
0
  9
$CELTYPE
  6
BYLAYER
  9
$CECOLOR
 62
   256
  9
$DIMSCALE
 40
1.0
  9
$DIMASZ
 40
0.1875
  9
$DIMEXO
 40
0.0625
  9
$DIMDLI
 40
0.4443307087
  9
$DIMRND
 40
0.0
  9
$DIMDLE
 40
0.0
  9
$DIMEXE
 40
0.125
  9
$DIMTP
 40
0.01
  9
$DIMTM
 40
0.01
  9
$DIMTXT
 40
2.0
  9
$DIMCEN
 40
0.1052362205
  9
$DIMTSZ
 40
0.0
  9
$DIMTOL
 70
     1
  9
$DIMLIM
 70
     0
  9
$DIMTIH
 70
     1
  9
$DIMTOH
 70
     1
  9
$DIMSE1
 70
     0
  9
$DIMSE2
 70
     0
  9
$DIMTAD
 70
     0
  9
$DIMZIN
 70
     0
  9
$DIMBLK
  1

  9
$DIMASO
 70
     1
  9
$DIMSHO
 70
     1
  9
$DIMPOST
  1
\X
  9
$DIMAPOST
  1

  9
$DIMALT
 70
     1
  9
$DIMALTD
 70
     2
  9
$DIMALTF
 40
25.3999999999999986
  9
$DIMLFAC
 40
1.0
  9
$DIMTOFL
 70
     0
  9
$DIMTVP
 40
0.0
  9
$DIMTIX
 70
     0
  9
$DIMSOXD
 70
     0
  9
$DIMSAH
 70
     0
  9
$DIMBLK1
  1

  9
$DIMBLK2
  1

  9
$DIMSTYLE
  2
STANDARD
  9
$DIMCLRD
 70
     0
  9
$DIMCLRE
 70
     0
  9
$DIMCLRT
 70
     0
  9
$DIMTFAC
 40
1.0
  9
$DIMGAP
 40
0.09
  9
$LUNITS
 70
     2
  9
$LUPREC
 70
     4
  9
$SKETCHINC
 40
0.1
  9
$FILLETRAD
 40
0.0
  9
$AUNITS
 70
     0
  9
$AUPREC
 70
     0
  9
$MENU
  1
.
  9
$ELEVATION
 40
0.0
  9
$PELEVATION
 40
0.0
  9
$THICKNESS
 40
0.0
  9
$LIMCHECK
 70
     0
  9
$BLIPMODE
 70
     0
  9
$CHAMFERA
 40
0.0
  9
$CHAMFERB
 40
0.0
  9
$SKPOLY
 70
     0
  9
$TDCREATE
 40
2458106.4931018520146608
  9
$TDUPDATE
 40
2459713.4714467590674758
  9
$TDINDWG
 40
0.2498018056
  9
$TDUSRTIMER
 40
0.2498018056
  9
$USRTIMER
 70
     1
  9
$ANGBASE
 50
0.0
  9
$ANGDIR
 70
     0
  9
$PDMODE
 70
     0
  9
$PDSIZE
 40
0.3125
  9
$PLINEWID
 40
0.0
  9
$COORDS
 70
     1
  9
$SPLFRAME
 70
     0
  9
$SPLINETYPE
 70
     6
  9
$SPLINESEGS
 70
     8
  9
$ATTDIA
 70
     1
  9
$ATTREQ
 70
     1
  9
$HANDLING
 70
     1
  9
$HANDSEED
  5
45D7
  9
$SURFTAB1
 70
     6
  9
$SURFTAB2
 70
     6
  9
$SURFTYPE
 70
     6
  9
$SURFU
 70
     6
  9
$SURFV
 70
     6
  9
$UCSNAME
  2

  9
$UCSORG
 10
0.0
 20
0.0
 30
0.0
  9
$UCSXDIR
 10
1.0
 20
0.0
 30
0.0
  9
$UCSYDIR
 10
0.0
 20
1.0
 30
0.0
  9
$PUCSNAME
  2

  9
$PUCSORG
 10
0.0
 20
0.0
 30
0.0
  9
$PUCSXDIR
 10
1.0
 20
0.0
 30
0.0
  9
$PUCSYDIR
 10
0.0
 20
1.0
 30
0.0
  9
$USERI1
 70
     0
  9
$USERI2
 70
     0
  9
$USERI3
 70
     0
  9
$USERI4
 70
     0
  9
$USERI5
 70
     0
  9
$USERR1
 40
0.0
  9
$USERR2
 40
0.0
  9
$USERR3
 40
0.0
  9
$USERR4
 40
0.0
  9
$USERR5
 40
0.0
  9
$WORLDVIEW
 70
     1
  9
$SHADEDGE
 70
     3
  9
$SHADEDIF
 70
    70
  9
$TILEMODE
 70
     1
  9
$MAXACTVP
 70
    64
  9
$PLIMCHECK
 70
     0
  9
$PEXTMIN
 10
1.0000000000000000E+20
 20
1.0000000000000000E+20
 30
1.0000000000000000E+20
  9
$PEXTMAX
 10
-1.0000000000000000E+20
 20
-1.0000000000000000E+20
 30
-1.0000000000000000E+20
  9
$PLIMMIN
 10
0.0
 20
0.0
  9
$PLIMMAX
 10
12.0
 20
9.0
  9
$UNITMODE
 70
     0
  9
$VISRETAIN
 70
     1
  9
$PLINEGEN
 70
     0
  9
$PSLTSCALE
 70
     1
  0
ENDSEC
  0
SECTION
  2
TABLES
  0
TABLE
  2
VPORT
 70
     1
  0
VPORT
  2
*ACTIVE
 70
     0
 10
0.0
 20
0.0
 11
1.0
 21
1.0
 12
324.3074744931723785
 22
38.2626094225299127
 13
0.0
 23
0.0
 14
1.0
 24
1.0
 15
0.0
 25
0.0
 16
-0.0000000000000568
 26
0.0
 36
193.9250709296327955
 17
273.5742015565131169
 27
-17.6059607340214797
 37
0.0
 40
30.0516705071923802
 41
2.005224660397074
 42
50.0
 43
0.0
 44
0.0
 50
0.0
 51
0.0
 71
     0
 72
   100
 73
     1
 74
     1
 75
     0
 76
     0
 77
     0
 78
     0
  0
ENDTAB
  0
TABLE
  2
LTYPE
 70
     2
  0
LTYPE
  2
CONTINUOUS
 70
     0
  3
Solid line
 72
    65
 73
     0
 40
0.0
  0
LTYPE
  2
PHANTOM2
 70
     0
  3
___ _ _ ___ _ _ ___ _ _ ___ _ _
 72
    65
 73
     6
 40
1.25
 49
0.625
 49
-0.125
 49
0.125
 49
-0.125
 49
0.125
 49
-0.125
  0
ENDTAB
  0
TABLE
  2
LAYER
 70
     2
  0
LAYER
  2
0
 70
     0
 62
   255
  6
CONTINUOUS
  0
LAYER
  2
DEFPOINTS
 70
     0
 62
     7
  6
CONTINUOUS
  0
ENDTAB
  0
TABLE
  2
STYLE
 70
     1
  0
STYLE
  2
STANDARD
 70
     0
 40
0.0
 41
0.8
 50
0.0
 71
     0
 42
0.2
  3
txt
  4

  0
ENDTAB
  0
TABLE
  2
VIEW
 70
     0
  0
ENDTAB
  0
TABLE
  2
UCS
 70
     0
  0
ENDTAB
  0
TABLE
  2
APPID
 70
     9
  0
APPID
  2
ACAD
 70
     0
  0
APPID
  2
ACAD_MLEADERVER
 70
     0
  0
APPID
  2
ACAD_EXEMPT_FROM_CAD_STANDARDS
 70
     0
  0
APPID
  2
ACAD_NAV_VCDISPLAY
 70
     0
  0
APPID
  2
ACAD_DSTYLE_DIMJAG
 70
     0
  0
APPID
  2
ACAD_DSTYLE_DIMTALN
 70
     0
  0
APPID
  2
ACAECLAYERSTANDARD
 70
     0
  0
APPID
  2
ACCMTRANSPARENCY
 70
     0
  0
APPID
  2
ACDBATTR
 70
     0
  0
ENDTAB
  0
TABLE
  2
DIMSTYLE
 70
     1
  0
DIMSTYLE
  2
STANDARD
 70
     0
  3

  4

  5

  6

  7

 40
1.0
 41
0.1875
 42
0.0625
 43
0.38
 44
0.125
 45
0.0
 46
0.0
 47
0.01
 48
0.01
140
0.15625
141
0.09
142
0.0
143
25.3999999999999986
144
1.0
145
0.0
146
1.0
147
0.09
 71
     1
 72
     0
 73
     1
 74
     1
 75
     0
 76
     0
 77
     0
 78
     4
170
     0
171
     2
172
     0
173
     0
174
     0
175
     0
176
     0
177
     0
178
     0
  0
ENDTAB
  0
ENDSEC
  0
SECTION
  2
BLOCKS
  0
BLOCK
  8
0
  2
$MODEL_SPACE
 70
     0
 10
0.0
 20
0.0
 30
0.0
  3
$MODEL_SPACE
  1

  0
ENDBLK
  5
21
  8
0
  0
BLOCK
 67
     1
  8
0
  2
$PAPER_SPACE
 70
     0
 10
0.0
 20
0.0
 30
0.0
  3
$PAPER_SPACE
  1

  0
ENDBLK
  5
1D
 67
     1
  8
0
  0
ENDSEC
  0
SECTION
  2
ENTITIES
  0
ATTDEF
  5
FAA
  8
DEFPOINTS
 10
597.8812890655181036
 20
12.3535470392155098
 30
0.0
 40
0.001
  1
71341810
  3

  2
MODELNUMBER
 70
     0
1001
ACDBATTR
1070
     0
1070
     1
  0
ATTDEF
  5
FAB
  8
DEFPOINTS
 10
597.8812890655181036
 20
12.35188037254885
 30
0.0
 40
0.001
  1
PERFORMA2
  3

  2
TRADENAME
 70
     0
1001
ACDBATTR
1070
     0
1070
     1
  0
ATTDEF
  5
FAC
  8
DEFPOINTS
 10
597.8812890655181036
 20
12.3502137058821795
 30
0.0
 40
0.001
  1
BATH
  3

  2
PRODUCT
 70
     0
1001
ACDBATTR
1070
     0
1070
     1
  0
LINE
  5
44E4
  8
0
 10
568.4268274465762261
 20
27.6599780270124
 30
0.0
 11
627.3356211967497984
 21
27.6599780270124
 31
0.0
  0
LINE
  5
44E5
  8
0
 10
568.4226464300797943
 20
27.7797066750124095
 30
0.0
 11
568.4268274465762261
 21
27.6599780270124
 31
0.0
  0
ARC
  5
44E6
  8
0
 10
568.2347609543312501
 20
27.773145573892279
 30
0.0
 40
0.1880000001201205
 50
1.9999986996497741
 51
89.9999999852072108
  0
ARC
  5
44E7
  8
0
 10
568.0702804910797568
 20
27.9911455740124104
 30
0.0
 40
0.0300000000000011
 50
182.0012180976918899
 51
270.0000000000130171
  0
ARC
  5
44E8
  8
0
 10
567.9621284488796391
 20
12.3810971364704496
 30
0.0
 40
0.0309545261547637
 50
180.0842376063959023
 51
269.2071411192632127
  0
LINE
  5
44E9
  8
0
 10
567.9311739561795775
 20
12.3810516264124004
 30
0.0
 11
567.9311739561795775
 21
27.5910066910123994
 31
0.0
  0
ARC
  5
44EA
  8
0
 10
566.6951583488643109
 20
27.5578621360231004
 30
0.0
 40
1.236459923755219
 50
1.5360551376329561
 51
5.2356799474269851
  0
LINE
  5
44EB
  8
0
 10
567.928526938128357
 20
27.6115240662982515
 30
0.0
 11
567.8812834761797603
 21
28.9635756740124108
 31
0.0
  0
ARC
  5
44EC
  8
0
 10
567.982855026373727
 20
27.9561846545765711
 30
0.0
 40
0.0641697340059712
 50
22.4488024949907015
 51
91.2844432002964936
  0
LINE
  5
44ED
  8
0
 10
567.9814166049798132
 20
28.0203382632123983
 30
0.0
 11
567.914242131102128
 21
28.0203382281123794
 31
0.0
  0
LINE
  5
44EE
  8
0
 10
568.0402987885797756
 20
27.9900979499123999
 30
0.0
 11
568.0083067843796698
 21
28.9056710017124097
 31
0.0
  0
LINE
  5
44EF
  8
0
 10
571.7337167348797493
 20
24.1580261631124102
 30
0.0
 11
571.9782787213797519
 21
22.5304618926124185
 31
0.0
  0
ARC
  5
44F0
  8
0
 10
897.5197923720511426
 20
77.673336672500497
 30
0.0
 40
330.1787602935121981
 50
189.6139701320965116
 51
190.6413203638797995
  0
ARC
  5
44F1
  8
0
 10
573.3165000150382866
 20
16.7430718109359695
 30
0.0
 40
0.29995694399143
 50
187.7793978703381015
 51
266.0325034072839117
  0
LINE
  5
44F2
  8
0
 10
573.2957458282168091
 20
16.4438337251613902
 30
0.0
 11
576.4379809388060494
 21
16.0976692940497408
 31
0.0
  0
ARC
  5
44F3
  8
0
 10
597.8809403673690213
 20
223.2947489225780942
 30
0.0
 40
208.3036973163119967
 50
264.0914570232815777
 51
266.3325643803821094
  0
LINE
  5
44F4
  8
0
 10
567.9617001138799424
 20
12.3501455740123909
 30
0.0
 11
627.8007485294458547
 21
12.3501455740123909
 31
0.0
  0
LINE
  5
44F5
  8
0
 10
568.0702804910797568
 20
27.9611455740124093
 30
0.0
 11
627.6921681522462677
 21
27.9611455740124093
 31
0.0
  0
ARC
  5
44F6
  8
0
 10
627.8003201944463854
 20
12.3810971364704496
 30
0.0
 40
0.0309545261547637
 50
270.7928588807367873
 51
359.915762393603984
  0
LINE
  5
44F7
  8
0
 10
627.8312746871463332
 20
12.3810516264124004
 30
0.0
 11
627.8312746871463332
 21
27.5910066910123994
 31
0.0
  0
LINE
  5
44F8
  8
0
 10
624.0287319084462752
 20
24.1580261631124102
 30
0.0
 11
623.7841699219462726
 21
22.5304618926124185
 31
0.0
  0
ARC
  5
44F9
  8
0
 10
298.2426562712749956
 20
77.673336672500497
 30
0.0
 40
330.1787602935121981
 50
349.3586796361184952
 51
350.3860298679044831
  0
ARC
  5
44FA
  8
0
 10
622.4459486282878515
 20
16.7430718109359695
 30
0.0
 40
0.29995694399143
 50
273.9674965927160883
 51
352.2206021296616996
  0
LINE
  5
44FB
  8
0
 10
622.4667028151093291
 20
16.4438337251613902
 30
0.0
 11
619.3244677045199751
 21
16.0976692940497408
 31
0.0
  0
ARC
  5
44FC
  8
0
 10
597.8815082759568895
 20
223.2947489225780942
 30
0.0
 40
208.3036973163119967
 50
273.6674356196178906
 51
275.9085429767184223
  0
ARC
  5
44FD
  8
0
 10
597.8812243216625575
 20
223.2972664477121896
 30
0.0
 40
208.3062278491013046
 50
266.3325307303630893
 51
273.6674692696303737
  0
LINE
  5
44FE
  8
0
 10
571.7337167348797493
 20
24.1580261631124102
 30
0.0
 11
624.0287319084462752
 21
24.1580261631124102
 31
0.0
  0
LINE
  5
4500
  8
0
 10
567.8812834761797603
 20
28.9635756740124108
 30
0.0
 11
627.8811651671461505
 21
28.9635756740124108
 31
0.0
  0
ARC
  5
4501
  8
0
 10
567.9482356889275252
 20
28.9034984522578391
 30
0.0
 40
0.0601103691550838
 50
2.0712737750827142
 51
88.0971365251162695
  0
ARC
  5
4502
  8
0
 10
568.0848987916482429
 20
27.6170221694405988
 30
0.0
 40
0.1564684815270001
 50
182.0137152569674868
 51
190.7454571063584865
  0
ARC
  5
4503
  8
0
 10
568.28744508337968
 20
27.8981455740124709
 30
0.0
 40
0.0629999999999322
 50
26.5309573010863602
 51
90.0
  0
LINE
  5
4504
  8
0
 10
627.3398022132462302
 20
27.7797066750124095
 30
0.0
 11
627.3356211967497984
 21
27.6599780270124
 31
0.0
  0
ARC
  5
4505
  8
0
 10
627.5276876889947744
 20
27.773145573892279
 30
0.0
 40
0.1880000001201205
 50
90.0000000147862664
 51
178.000001300350192
  0
ARC
  5
4506
  8
0
 10
627.6921681522462677
 20
27.9911455740124104
 30
0.0
 40
0.0300000000000011
 50
269.9999999999869829
 51
357.9987819023079965
  0
ARC
  5
4507
  8
0
 10
629.0672902944617135
 20
27.5578621360231004
 30
0.0
 40
1.236459923755219
 50
174.7643200525729981
 51
178.4639448623669864
  0
LINE
  5
4508
  8
0
 10
627.8339217051975538
 20
27.6115240662982515
 30
0.0
 11
627.8811651671461505
 21
28.9635756740124108
 31
0.0
  0
ARC
  5
4509
  8
0
 10
627.7795936169522975
 20
27.9561846545765711
 30
0.0
 40
0.0641697340059712
 50
88.7155567997035206
 51
157.5511975050092985
  0
LINE
  5
450A
  8
0
 10
627.781032038346325
 20
28.0203382632123983
 30
0.0
 11
627.8482065122238964
 21
28.0203382281123794
 31
0.0
  0
LINE
  5
450B
  8
0
 10
627.7221498547462488
 20
27.9900979499123999
 30
0.0
 11
627.754141858946241
 21
28.9056710017124097
 31
0.0
  0
ARC
  5
450C
  8
0
 10
627.8142129543984993
 20
28.9034984522578391
 30
0.0
 40
0.0601103691550838
 50
91.9028634748837447
 51
177.9287262249173125
  0
ARC
  5
450D
  8
0
 10
627.6775498516776679
 20
27.6170221694405988
 30
0.0
 40
0.1564684815270001
 50
349.2545428936414851
 51
357.9862847430323995
  0
ARC
  5
450E
  8
0
 10
627.4750035599462308
 20
27.8981455740124709
 30
0.0
 40
0.0629999999999322
 50
90.0
 51
153.4690426989139098
  0
ENDSEC
  0
EOF
