  0
SECTION
  2
HEADER
  9
$ACADVER
  1
AC1009
  9
$INSBASE
 10
923.5394219190521881
 20
18.6872311817447212
 30
0.0
  9
$EXTMIN
 10
894.1323419967940254
 20
18.6863414544728208
 30
-0.0000000349181948
  9
$EXTMAX
 10
923.5644374030456447
 20
37.5482622105943307
 30
0.0000000814935746
  9
$LIMMIN
 10
0.0
 20
0.0
  9
$LIMMAX
 10
11.6929133858000007
 20
8.2677165353999982
  9
$ORTHOMODE
 70
     1
  9
$REGENMODE
 70
     1
  9
$FILLMODE
 70
     1
  9
$QTEXTMODE
 70
     0
  9
$MIRRTEXT
 70
     0
  9
$DRAGMODE
 70
     2
  9
$LTSCALE
 40
0.6431102362
  9
$OSMODE
 70
    23
  9
$ATTMODE
 70
     1
  9
$TEXTSIZE
 40
0.2
  9
$TRACEWID
 40
0.05
  9
$TEXTSTYLE
  7
STANDARD
  9
$CLAYER
  8
0
  9
$CELTYPE
  6
BYLAYER
  9
$CECOLOR
 62
   256
  9
$DIMSCALE
 40
1.0
  9
$DIMASZ
 40
0.1875
  9
$DIMEXO
 40
0.0625
  9
$DIMDLI
 40
0.4443307087
  9
$DIMRND
 40
0.0
  9
$DIMDLE
 40
0.0
  9
$DIMEXE
 40
0.125
  9
$DIMTP
 40
0.01
  9
$DIMTM
 40
0.01
  9
$DIMTXT
 40
2.0
  9
$DIMCEN
 40
0.1052362205
  9
$DIMTSZ
 40
0.0
  9
$DIMTOL
 70
     1
  9
$DIMLIM
 70
     0
  9
$DIMTIH
 70
     1
  9
$DIMTOH
 70
     1
  9
$DIMSE1
 70
     0
  9
$DIMSE2
 70
     0
  9
$DIMTAD
 70
     0
  9
$DIMZIN
 70
     0
  9
$DIMBLK
  1

  9
$DIMASO
 70
     1
  9
$DIMSHO
 70
     1
  9
$DIMPOST
  1
\X
  9
$DIMAPOST
  1

  9
$DIMALT
 70
     1
  9
$DIMALTD
 70
     2
  9
$DIMALTF
 40
25.3999999999999986
  9
$DIMLFAC
 40
1.0
  9
$DIMTOFL
 70
     0
  9
$DIMTVP
 40
0.0
  9
$DIMTIX
 70
     0
  9
$DIMSOXD
 70
     0
  9
$DIMSAH
 70
     0
  9
$DIMBLK1
  1

  9
$DIMBLK2
  1

  9
$DIMSTYLE
  2
STANDARD
  9
$DIMCLRD
 70
     0
  9
$DIMCLRE
 70
     0
  9
$DIMCLRT
 70
     0
  9
$DIMTFAC
 40
1.0
  9
$DIMGAP
 40
0.09
  9
$LUNITS
 70
     2
  9
$LUPREC
 70
     4
  9
$SKETCHINC
 40
0.1
  9
$FILLETRAD
 40
0.0
  9
$AUNITS
 70
     0
  9
$AUPREC
 70
     0
  9
$MENU
  1
.
  9
$ELEVATION
 40
0.0
  9
$PELEVATION
 40
0.0
  9
$THICKNESS
 40
0.0
  9
$LIMCHECK
 70
     0
  9
$BLIPMODE
 70
     0
  9
$CHAMFERA
 40
0.0
  9
$CHAMFERB
 40
0.0
  9
$SKPOLY
 70
     0
  9
$TDCREATE
 40
2458106.4931018520146608
  9
$TDUPDATE
 40
2459710.508773148059845
  9
$TDINDWG
 40
0.2581351389
  9
$TDUSRTIMER
 40
0.2581351389
  9
$USRTIMER
 70
     1
  9
$ANGBASE
 50
0.0
  9
$ANGDIR
 70
     0
  9
$PDMODE
 70
     0
  9
$PDSIZE
 40
0.3125
  9
$PLINEWID
 40
0.0
  9
$COORDS
 70
     1
  9
$SPLFRAME
 70
     0
  9
$SPLINETYPE
 70
     6
  9
$SPLINESEGS
 70
     8
  9
$ATTDIA
 70
     1
  9
$ATTREQ
 70
     1
  9
$HANDLING
 70
     1
  9
$HANDSEED
  5
5229
  9
$SURFTAB1
 70
     6
  9
$SURFTAB2
 70
     6
  9
$SURFTYPE
 70
     6
  9
$SURFU
 70
     6
  9
$SURFV
 70
     6
  9
$UCSNAME
  2

  9
$UCSORG
 10
0.0
 20
0.0
 30
0.0
  9
$UCSXDIR
 10
1.0
 20
0.0
 30
0.0
  9
$UCSYDIR
 10
0.0
 20
1.0
 30
0.0
  9
$PUCSNAME
  2

  9
$PUCSORG
 10
0.0
 20
0.0
 30
0.0
  9
$PUCSXDIR
 10
1.0
 20
0.0
 30
0.0
  9
$PUCSYDIR
 10
0.0
 20
1.0
 30
0.0
  9
$USERI1
 70
     0
  9
$USERI2
 70
     0
  9
$USERI3
 70
     0
  9
$USERI4
 70
     0
  9
$USERI5
 70
     0
  9
$USERR1
 40
0.0
  9
$USERR2
 40
0.0
  9
$USERR3
 40
0.0
  9
$USERR4
 40
0.0
  9
$USERR5
 40
0.0
  9
$WORLDVIEW
 70
     1
  9
$SHADEDGE
 70
     3
  9
$SHADEDIF
 70
    70
  9
$TILEMODE
 70
     1
  9
$MAXACTVP
 70
    64
  9
$PLIMCHECK
 70
     0
  9
$PEXTMIN
 10
1.0000000000000000E+20
 20
1.0000000000000000E+20
 30
1.0000000000000000E+20
  9
$PEXTMAX
 10
-1.0000000000000000E+20
 20
-1.0000000000000000E+20
 30
-1.0000000000000000E+20
  9
$PLIMMIN
 10
0.0
 20
0.0
  9
$PLIMMAX
 10
12.0
 20
9.0
  9
$UNITMODE
 70
     0
  9
$VISRETAIN
 70
     1
  9
$PLINEGEN
 70
     0
  9
$PSLTSCALE
 70
     1
  0
ENDSEC
  0
SECTION
  2
TABLES
  0
TABLE
  2
VPORT
 70
     1
  0
VPORT
  2
*ACTIVE
 70
     0
 10
0.0
 20
0.0
 11
1.0
 21
1.0
 12
635.2741881434067182
 22
45.7232625665550572
 13
0.0
 23
0.0
 14
1.0
 24
1.0
 15
0.0
 25
0.0
 16
-0.0000000000000568
 26
0.0
 36
193.9250709296327955
 17
273.5742015565131169
 27
-17.6059607340214797
 37
0.0
 40
18.9800538715043103
 41
2.005224660397074
 42
50.0
 43
0.0
 44
0.0
 50
0.0
 51
0.0
 71
     0
 72
   100
 73
     1
 74
     1
 75
     0
 76
     0
 77
     0
 78
     0
  0
ENDTAB
  0
TABLE
  2
LTYPE
 70
     2
  0
LTYPE
  2
CONTINUOUS
 70
     0
  3
Solid line
 72
    65
 73
     0
 40
0.0
  0
LTYPE
  2
PHANTOM2
 70
     0
  3
___ _ _ ___ _ _ ___ _ _ ___ _ _
 72
    65
 73
     6
 40
1.25
 49
0.625
 49
-0.125
 49
0.125
 49
-0.125
 49
0.125
 49
-0.125
  0
ENDTAB
  0
TABLE
  2
LAYER
 70
     2
  0
LAYER
  2
0
 70
     0
 62
   255
  6
CONTINUOUS
  0
LAYER
  2
DEFPOINTS
 70
     0
 62
     7
  6
CONTINUOUS
  0
ENDTAB
  0
TABLE
  2
STYLE
 70
     1
  0
STYLE
  2
STANDARD
 70
     0
 40
0.0
 41
0.8
 50
0.0
 71
     0
 42
0.2
  3
txt
  4

  0
ENDTAB
  0
TABLE
  2
VIEW
 70
     0
  0
ENDTAB
  0
TABLE
  2
UCS
 70
     0
  0
ENDTAB
  0
TABLE
  2
APPID
 70
    10
  0
APPID
  2
ACAD
 70
     0
  0
APPID
  2
ACAD_MLEADERVER
 70
     0
  0
APPID
  2
ACAD_EXEMPT_FROM_CAD_STANDARDS
 70
     0
  0
APPID
  2
ACAD_NAV_VCDISPLAY
 70
     0
  0
APPID
  2
ACAD_DSTYLE_DIMJAG
 70
     0
  0
APPID
  2
ACAD_DSTYLE_DIMTALN
 70
     0
  0
APPID
  2
ACAECLAYERSTANDARD
 70
     0
  0
APPID
  2
ACCMTRANSPARENCY
 70
     0
  0
APPID
  2
ACDBATTR
 70
     0
  0
APPID
  2
DCO15
 70
     0
  0
ENDTAB
  0
TABLE
  2
DIMSTYLE
 70
     1
  0
DIMSTYLE
  2
STANDARD
 70
     0
  3

  4

  5

  6

  7

 40
1.0
 41
0.1875
 42
0.0625
 43
0.38
 44
0.125
 45
0.0
 46
0.0
 47
0.01
 48
0.01
140
0.15625
141
0.09
142
0.0
143
25.3999999999999986
144
1.0
145
0.0
146
1.0
147
0.09
 71
     1
 72
     0
 73
     1
 74
     1
 75
     0
 76
     0
 77
     0
 78
     4
170
     0
171
     2
172
     0
173
     0
174
     0
175
     0
176
     0
177
     0
178
     0
  0
ENDTAB
  0
ENDSEC
  0
SECTION
  2
BLOCKS
  0
BLOCK
  8
0
  2
$MODEL_SPACE
 70
     0
 10
0.0
 20
0.0
 30
0.0
  3
$MODEL_SPACE
  1

  0
ENDBLK
  5
21
  8
0
  0
BLOCK
 67
     1
  8
0
  2
$PAPER_SPACE
 70
     0
 10
0.0
 20
0.0
 30
0.0
  3
$PAPER_SPACE
  1

  0
ENDBLK
  5
1D
 67
     1
  8
0
  0
ENDSEC
  0
SECTION
  2
ENTITIES
  0
ATTDEF
  5
FAA
  8
DEFPOINTS
 10
923.5394897019951941
 20
18.6906216103182814
 30
0.0
 40
0.001
  1
71341122
  3

  2
MODELNUMBER
 70
     0
1001
ACDBATTR
1070
     0
1070
     1
  0
ATTDEF
  5
FAB
  8
DEFPOINTS
 10
923.5394897019951941
 20
18.6889549436516091
 30
0.0
 40
0.001
  1
PERFORMA2
  3

  2
TRADENAME
 70
     0
1001
ACDBATTR
1070
     0
1070
     1
  0
ATTDEF
  5
FAC
  8
DEFPOINTS
 10
923.5394897019951941
 20
18.6872882769849511
 30
0.0
 40
0.001
  1
BATH
  3

  2
PRODUCT
 70
     0
1001
ACDBATTR
1070
     0
1070
     1
  0
LINE
  5
5030
  8
0
 10
894.132914419552435
 20
18.6872311817447496
 30
0.0
 11
894.401680850000389
 21
18.6872311817447496
 31
0.0
  0
LINE
  5
5031
  8
0
 10
895.3073110948538442
 20
37.4458715194792404
 30
0.0
 11
894.42375442057687
 21
36.6064926789681309
 31
0.0
  0
ARC
  5
5032
  8
0
 10
894.4444165786549092
 20
36.5847423861949679
 30
0.0
 40
0.0300000002026941
 50
133.5303407264109126
 51
179.999999904919207
  0
LINE
  5
5033
  8
0
 10
894.4144165784523466
 20
36.5847423862447272
 30
0.0
 11
894.4144219190523017
 21
35.6567656603447318
 31
0.0
  0
ARC
  5
5034
  8
0
 10
895.5621494737091552
 20
37.1776200463675082
 30
0.0
 40
0.3700019623787745
 50
90.0
 51
133.531140838737997
  0
ARC
  5
5035
  8
0
 10
794.4144219189457772
 20
35.6567656603458119
 30
0.0
 40
100.0000000001065956
 50
358.999999999900524
 51
0.0
  0
LINE
  5
5036
  8
0
 10
894.3991914346521526
 20
33.9115250164447417
 30
0.0
 11
894.132914419552435
 21
18.6872311817447496
 31
0.0
  0
LINE
  5
5037
  8
0
 10
894.4873456244523595
 20
30.9586872657447607
 30
0.0
 11
894.6436900485522301
 21
18.941234110544741
 31
0.0
  0
ARC
  5
5038
  8
0
 10
894.3934954212593311
 20
18.9373224675457301
 30
0.0
 40
0.2502252035212654
 50
271.8746081441969977
 51
0.8957121860324516
  0
ARC
  5
5039
  8
0
 10
1606.5433442015480523
 20
22.4840698233288698
 30
0.0
 40
712.0984577000458557
 50
178.9376289350385889
 51
179.0782244073166964
  0
LINE
  5
503A
  8
0
 10
894.5370387266523267
 20
33.9398291946447586
 30
0.0
 11
894.513690285673988
 21
32.442902659989258
 31
0.0
  0
LINE
  5
503B
  8
0
 10
894.513690285673988
 20
32.4429026599892012
 30
0.0
 11
894.4873456244523595
 21
30.9586872657447003
 31
0.0
  0
LINE
  5
503C
  8
0
 10
894.5672930942522498
 20
35.6869524042447708
 30
0.0
 11
894.5750110067760943
 21
36.1325818640804783
 31
0.0
  0
LINE
  5
503D
  8
0
 10
896.8331920980051564
 20
35.9826016534205024
 30
0.0
 11
894.5744223113742919
 21
36.0985908058632035
 31
0.0
  0
ARC
  5
503E
  8
0
 10
896.8306426583700386
 20
35.9496403780605291
 30
0.0
 40
0.0330597234684879
 50
31.8757030145238005
 51
85.5771771742417116
  0
LINE
  5
503F
  8
0
 10
896.8587168334523767
 20
35.9670984996447416
 30
0.0
 11
896.9542491656351331
 21
35.8016321665578516
 31
0.0
  0
ARC
  5
5040
  8
0
 10
897.2795368192079195
 20
35.9902649308184266
 30
0.0
 40
0.3760244371306516
 50
210.109241853798693
 51
272.1872854131116242
  0
LINE
  5
5041
  8
0
 10
897.2938881905522521
 20
35.6145144611447506
 30
0.0
 11
897.7849556482524349
 21
35.6145144611447506
 31
0.0
  0
ARC
  5
5042
  8
0
 10
897.7993078525313422
 20
35.9902627727659734
 30
0.0
 40
0.3760223124414957
 50
267.812575212206184
 51
329.9582647736376089
  0
LINE
  5
5043
  8
0
 10
898.124815690571495
 20
35.8020144611447506
 30
0.0
 11
898.195156066452455
 21
35.9238475659447971
 31
0.0
  0
ARC
  5
5044
  8
0
 10
898.2221933924184896
 20
35.9082805499145223
 30
0.0
 40
0.0311985413679092
 50
89.1360824257997706
 51
150.0683755148920113
  0
ARC
  5
5045
  8
0
 10
899.2882859718780537
 20
92.6601240968558386
 30
0.0
 40
56.7306576975141326
 50
268.9236993383032086
 51
269.7507345908829848
  0
LINE
  5
5046
  8
0
 10
899.0414799049500516
 20
35.9300032653447374
 30
0.0
 11
914.8449798813524012
 21
35.854113687344757
 31
0.0
  0
LINE
  5
5047
  8
0
 10
898.7146321653109453
 20
34.8802747909751076
 30
0.0
 11
895.1259370747523008
 21
35.0683503311447708
 31
0.0
  0
ARC
  5
5048
  8
0
 10
895.1106584146522209
 20
34.4727511265972382
 30
0.0
 40
0.5957951408933062
 50
88.5305373339231352
 51
160.6016619215359924
  0
ARC
  5
5049
  8
0
 10
580.3238291586006881
 20
-15.9923756079584596
 30
0.0
 40
320.7768684502602241
 50
8.4755613676721335
 51
9.0028934855241118
  0
ARC
  5
504A
  8
0
 10
756.2418517361046497
 20
9.5544455191796551
 30
0.0
 40
143.0163193944109992
 50
8.0023174028315278
 51
8.7400969263849202
  0
ARC
  5
504B
  8
0
 10
813.509090500894672
 20
18.1142700956196592
 30
0.0
 40
85.1165765816863029
 50
6.4616432698716526
 51
7.6629697656029361
  0
ARC
  5
504C
  8
0
 10
939.4961952758508232
 20
32.7013688839770325
 30
0.0
 40
41.712985824759599
 50
186.8958212729394006
 51
190.6362798315398948
  0
ARC
  5
504D
  8
0
 10
900.8807665007785772
 20
25.4059779745215799
 30
0.0
 40
2.4148606825587509
 50
189.6242178059673051
 51
223.6294850652313073
  0
ARC
  5
504E
  8
0
 10
901.8622823839120883
 20
26.2263865223945913
 30
0.0
 40
3.6923161820714721
 50
222.3350128988035976
 51
252.0873537077349056
  0
LINE
  5
504F
  8
0
 10
904.5586163031163096
 20
21.2986644772208713
 30
0.0
 11
904.6954187600523483
 21
18.687231181744739
 31
0.0
  0
LINE
  5
5050
  8
0
 10
904.6954187600523483
 20
18.687231181744739
 30
0.0
 11
904.604266435481577
 21
21.2976422402003784
 31
0.0
  0
LINE
  5
5051
  8
0
 10
904.7043955806548183
 20
21.2954123514309615
 30
0.0
 11
904.7954801152521895
 21
18.6872311817447496
 31
0.0
  0
LINE
  5
5052
  8
0
 10
904.7954801152521895
 20
18.6872311817447496
 30
0.0
 11
904.7499713255406277
 21
21.2944029645642416
 31
0.0
  0
LINE
  5
5053
  8
0
 10
895.6994219190522699
 20
36.3079776293104217
 30
0.0
 11
895.6994219190522699
 21
36.2040573095447087
 31
0.0
  0
ARC
  5
5054
  8
0
 10
895.5434219190523208
 20
36.2040573095447087
 30
0.0
 40
0.1560000000000112
 50
273.4829256137937818
 51
0.0
  0
LINE
  5
5055
  8
0
 10
895.6994219190522699
 20
36.3079776293104217
 30
0.0
 11
923.4904140896095441
 21
36.3062309019079521
 31
0.0
  0
LINE
  5
5056
  8
0
 10
903.4575862825035983
 20
21.4007538576262597
 30
0.0
 11
903.5381247060372516
 21
19.2182311817447591
 31
0.0
  0
LINE
  5
5057
  8
0
 10
903.6435670370935895
 20
22.3622953735984282
 30
0.0
 11
903.7533595319523556
 21
19.218230901844759
 31
0.0
  0
LINE
  5
5058
  8
0
 10
903.7533595319523556
 20
19.218230901844759
 30
0.0
 11
903.646663590692242
 21
21.3575370717772905
 31
0.0
  0
LINE
  5
5059
  8
0
 10
903.8534214727524159
 20
19.2182309091447685
 30
0.0
 11
903.8114161312315673
 21
21.3317384869761497
 31
0.0
  0
LINE
  5
505A
  8
0
 10
903.7440655306800181
 20
22.3497668743454483
 30
0.0
 11
903.8534214727524159
 21
19.218230901844759
 31
0.0
  0
LINE
  5
505B
  8
0
 10
903.9996418894004364
 20
21.314226734570429
 30
0.0
 11
904.0686546937639605
 21
19.2182296276447602
 31
0.0
  0
LINE
  5
505C
  8
0
 10
904.0736908010394473
 20
19.2182296276447602
 30
0.0
 11
904.0875954845058686
 21
18.6872311818461014
 31
0.0
  0
LINE
  5
505D
  8
0
 10
904.0686546937639605
 20
19.2182296276447602
 30
0.0
 11
904.6676018932939769
 21
19.2182296276447602
 31
0.0
  0
LINE
  5
505E
  8
0
 10
909.3098393413133635
 20
21.2272827578864494
 30
0.0
 11
909.4429579764523623
 21
18.6872311817447496
 31
0.0
  0
LINE
  5
505F
  8
0
 10
909.4986914403840501
 20
21.2270743368848009
 30
0.0
 11
909.543019314552339
 21
18.6872311817447496
 31
0.0
  0
LINE
  5
5060
  8
0
 10
909.4542443346689424
 20
21.2271017345432398
 30
0.0
 11
909.5421539024150661
 21
18.7370863594601786
 31
0.0
  0
LINE
  5
5061
  8
0
 10
909.3542588485914848
 20
21.2272120898448904
 30
0.0
 11
909.4429579764523623
 21
18.6872311817447496
 31
0.0
  0
LINE
  5
5062
  8
0
 10
909.1328567386425448
 20
21.2276965288005997
 30
0.0
 11
909.2323976990275014
 21
18.6872311817447496
 31
0.0
  0
LINE
  5
5063
  8
0
 10
909.6759549745514732
 20
21.2270976684730392
 30
0.0
 11
909.753569702869413
 21
18.6872311817447496
 31
0.0
  0
ARC
  5
5064
  8
0
 10
914.8372229371140065
 20
35.8097856670375592
 30
0.0
 40
0.0450015951747679
 50
39.4942661581135965
 51
80.0743305370504146
  0
LINE
  5
5065
  8
0
 10
914.8719501386525508
 20
35.8384067264447665
 30
0.0
 11
914.9536817379522518
 21
35.6968434439447933
 31
0.0
  0
ARC
  5
5066
  8
0
 10
915.2784412627212305
 20
35.8843434430867916
 30
0.0
 40
0.3749999981420014
 50
210.0000000125264137
 51
270.0000001575095894
  0
LINE
  5
5067
  8
0
 10
915.2784412637522564
 20
35.5093434449447827
 30
0.0
 11
915.8004025743522334
 21
35.5093434449447827
 31
0.0
  0
ARC
  5
5068
  8
0
 10
915.8004025743522334
 20
35.8843434447715666
 30
0.0
 40
0.3749999998267981
 50
270.0
 51
330.0000000152792836
  0
LINE
  5
5069
  8
0
 10
916.1251621005524157
 20
35.6968434446447631
 30
0.0
 11
916.2068936993523494
 21
35.8384067264447665
 31
0.0
  0
ARC
  5
506A
  8
0
 10
916.2341004960530881
 20
35.8226988750561901
 30
0.0
 40
0.0314157027927787
 50
90.4314031034686252
 51
150.0000000165690892
  0
LINE
  5
506B
  8
0
 10
916.2338639567524297
 20
35.854113687344757
 30
0.0
 11
920.3977449912523525
 21
35.8541136871447321
 31
0.0
  0
ARC
  5
506C
  8
0
 10
920.3977449956124701
 20
126.6277549851283055
 30
0.0
 40
90.7736412979835734
 50
269.9999999972446858
 51
271.6727126684573932
  0
ARC
  5
506D
  8
0
 10
923.0395070497527286
 20
36.0504697356264714
 30
0.0
 40
0.1578748767785427
 50
272.8822034740271079
 51
346.3486167364837911
  0
LINE
  5
506E
  8
0
 10
923.1929219190524236
 20
36.3062495999711032
 30
0.0
 11
923.1929219190524236
 21
35.6510694766447713
 31
0.0
  0
ARC
  5
506F
  8
0
 10
923.0369219190522472
 20
35.6510694766447713
 30
0.0
 40
0.1559999999999917
 50
270.0
 51
0.0
  0
LINE
  5
5070
  8
0
 10
923.0369219190522472
 20
35.4950694766447583
 30
0.0
 11
922.8977236505522797
 21
35.4950694766447583
 31
0.0
  0
ARC
  5
5071
  8
0
 10
922.8977236505522797
 20
35.6830706199124421
 30
0.0
 40
0.1880011432676696
 50
186.0003137239160935
 51
270.0
  0
LINE
  5
5072
  8
0
 10
922.7107525048521666
 20
35.6634181255447729
 30
0.0
 11
922.6960851840525493
 21
35.8026653754447608
 31
0.0
  0
ARC
  5
5073
  8
0
 10
923.4904128011589819
 20
36.355240023243212
 30
0.0
 40
0.0490091213521824
 50
270.001506306815088
 51
359.9784738915022899
  0
LINE
  5
5074
  8
0
 10
923.5394219190521881
 20
36.3552216104870496
 30
0.0
 11
923.5394219190521881
 21
37.5476220087447103
 31
0.0
  0
LINE
  5
5075
  8
0
 10
915.4070228882095535
 20
22.3950640244449097
 30
0.0
 11
915.4976580969150746
 21
20.1580997867601894
 31
0.0
  0
LINE
  5
5076
  8
0
 10
915.4976580969150746
 20
20.1580997867601894
 30
0.0
 11
915.5364901241523512
 21
18.687231181744739
 31
0.0
  0
LINE
  5
5077
  8
0
 10
915.3070616601288521
 20
22.3918216888635513
 30
0.0
 11
915.3708755813149764
 21
20.1527969371602396
 31
0.0
  0
LINE
  5
5078
  8
0
 10
915.3708755813149764
 20
20.1527969371602396
 30
0.0
 11
915.4006711248149486
 21
19.6280947737601998
 31
0.0
  0
LINE
  5
5079
  8
0
 10
915.4006711248149486
 20
19.6280947737601998
 30
0.0
 11
915.4364293890522504
 21
18.6872311817447496
 31
0.0
  0
LINE
  5
507A
  8
0
 10
915.0958489398165057
 20
22.2998674768666412
 30
0.0
 11
915.2355686960672756
 21
18.6872311817447709
 31
0.0
  0
LINE
  5
507B
  8
0
 10
915.64481944018587
 20
22.3168725136687591
 30
0.0
 11
915.7576472902339901
 21
18.6872311817447496
 31
0.0
  0
ARC
  5
507C
  8
0
 10
916.5242776190592622
 20
27.1126999448417116
 30
0.0
 40
4.6920136659825022
 50
286.6477457023743796
 51
310.225405863450419
  0
ARC
  5
507D
  8
0
 10
917.7663430562815847
 20
25.5566927650297302
 30
0.0
 40
2.7024571576826468
 50
311.4241043336842267
 51
349.2400873267126258
  0
ARC
  5
507E
  8
0
 10
17063.1357511272690317
 20
-2505.2097277090701937
 30
0.0
 40
16339.8324867030805763
 50
171.0560949171895118
 51
171.069499989794906
  0
ARC
  5
507F
  8
0
 10
1069.4642513521639557
 20
7.3888275691079626
 30
0.0
 40
150.001349208548902
 50
170.8178481811405902
 51
171.5107054868670957
  0
ARC
  5
5080
  8
0
 10
1072.3511749059639442
 20
8.2026939944567125
 30
0.0
 40
152.741457034914788
 50
171.9725272627703987
 51
172.6590786188313018
  0
ARC
  5
5081
  8
0
 10
-541.9903736362932705
 20
267.9227309019616996
 30
0.0
 40
1482.4418963668840661
 50
350.5706436047731245
 51
350.6751090626955829
  0
ARC
  5
5082
  8
0
 10
922.3004973241040716
 20
35.0491692723865924
 30
0.0
 40
0.3258297208771693
 50
151.932498712238413
 51
170.7414652564154949
  0
ARC
  5
5083
  8
0
 10
944.3210221768920292
 20
23.3159042172866791
 30
0.0
 40
25.2772429656439499
 50
150.4737997659777022
 51
151.9496073310627082
  0
ARC
  5
5084
  8
0
 10
922.4336838811398138
 20
35.6799226739933886
 30
0.0
 40
0.1419868677946572
 50
100.1187840581328032
 51
139.0006943667341091
  0
LINE
  5
5086
  8
0
 10
914.6710171989665241
 20
20.6623073013617393
 30
0.0
 11
914.9504366108525346
 21
18.8981225663447603
 31
0.0
  0
ARC
  5
5087
  8
0
 10
915.1973586971903387
 20
18.9372311827933117
 30
0.0
 40
0.2500000012040654
 50
189.0000000000333955
 51
269.9979791345518834
  0
LINE
  5
5088
  8
0
 10
905.0080422067522932
 20
18.6872311817447496
 30
0.0
 11
904.6954187600523483
 21
18.6872311817447496
 31
0.0
  0
LINE
  5
5089
  8
0
 10
909.1826272672523146
 20
18.6872311817447496
 30
0.0
 11
909.7884843575092191
 21
18.6872311817447496
 31
0.0
  0
LINE
  5
508A
  8
0
 10
915.1862754564956504
 20
18.6872311817447496
 30
0.0
 11
915.7921772817584269
 21
18.6872311817447496
 31
0.0
  0
LINE
  5
508B
  8
0
 10
914.5117908862789591
 20
20.9080407148644696
 30
0.0
 11
914.9417476327523673
 21
18.8852532595447613
 31
0.0
  0
ARC
  5
508C
  8
0
 10
915.1862845337600447
 20
18.9372311824221384
 30
0.0
 40
0.2500000008421823
 50
191.9999999994954862
 51
269.9979196442487819
  0
ARC
  5
508D
  8
0
 10
913.7580594681693356
 20
20.7244717431455214
 30
0.0
 40
0.7757632486934718
 50
13.6877338707021003
 51
28.2086682541746185
  0
ARC
  5
508E
  8
0
 10
913.932798664092843
 20
20.5432899121174799
 30
0.0
 40
0.7477511244883639
 50
9.1585559173068578
 51
91.4061915027646847
  0
ARC
  5
508F
  8
0
 10
911.0595553586326787
 20
20.6320334732494715
 30
0.0
 40
0.7731371627305063
 50
160.6058974356986937
 51
170.3852234611543111
  0
ARC
  5
5090
  8
0
 10
911.0385919104533059
 20
20.6380101080130913
 30
0.0
 40
0.751379787274349
 50
127.9522304437648046
 51
160.5049594099093895
  0
LINE
  5
5091
  8
0
 10
910.2972784576897993
 20
20.7611651838546116
 30
0.0
 11
910.0360513748523772
 21
18.9024379083447513
 31
0.0
  0
ARC
  5
5092
  8
0
 10
905.0080422067522932
 20
19.0622311817447816
 30
0.0
 40
0.3750000000000284
 50
270.0000000916749059
 51
345.0000008533979781
  0
LINE
  5
5093
  8
0
 10
905.3702643942523309
 20
18.9651740494447587
 30
0.0
 11
905.7044976554044524
 21
20.212549561806771
 31
0.0
  0
ARC
  5
5094
  8
0
 10
909.7884843575092191
 20
18.9372311816430283
 30
0.0
 40
0.2499999998858251
 50
270.0
 51
352.0000004457102136
  0
ARC
  5
5095
  8
0
 10
907.1523188470305286
 20
19.8168723011810499
 30
0.0
 40
1.5009152865826469
 50
106.7098457247635963
 51
108.8328986459186041
  0
ARC
  5
5096
  8
0
 10
907.1523188470305286
 20
19.8168723011810499
 30
0.0
 40
1.5009152865826469
 50
110.8253065562738016
 51
164.7147945449470114
  0
ARC
  5
5097
  8
0
 10
909.1826272672523146
 20
18.937231181744739
 30
0.0
 40
0.2499999999999872
 50
191.9999997285964923
 51
270.0
  0
LINE
  5
5098
  8
0
 10
908.9380903669523377
 20
18.8852532598447596
 30
0.0
 11
908.5248527390305071
 21
20.8293834462122796
 31
0.0
  0
ARC
  5
5099
  8
0
 10
907.7976663154397556
 20
20.6370536214066185
 30
0.0
 40
0.7521907046519161
 50
14.8146467719087198
 51
52.5371693489963221
  0
LINE
  5
509A
  8
0
 10
903.5330878570042614
 20
19.2182311817447591
 30
0.0
 11
903.5562718168109768
 21
18.6872311805460711
 31
0.0
  0
LINE
  5
509B
  8
0
 10
903.5381247060372516
 20
19.2182311817447591
 30
0.0
 11
903.3943725810522665
 21
19.2182311817447591
 31
0.0
  0
ARC
  5
509C
  8
0
 10
903.3943538621150537
 20
19.4057333841312314
 30
0.0
 40
0.1875022033208622
 50
195.9915637559136883
 51
270.0057200187455919
  0
LINE
  5
509D
  8
0
 10
903.2141075683523468
 20
19.35407731154476
 30
0.0
 11
902.6712860572522459
 21
21.2471208895447496
 31
0.0
  0
ARC
  5
509E
  8
0
 10
900.4625312900166136
 20
22.4632924388592912
 30
0.0
 40
0.3763692573208144
 50
37.8764958269917287
 51
39.8963562816415731
  0
ARC
  5
509F
  8
0
 10
903.1822715080988928
 20
24.6629832824294084
 30
0.0
 40
3.1216529799792161
 50
219.0967744582382011
 51
249.867841314434088
  0
ARC
  5
50A0
  8
0
 10
901.7608144162179542
 20
20.7941050222716015
 30
0.0
 40
1.000092667726634
 50
16.3890726008939112
 51
69.6964718643878456
  0
LINE
  5
50A1
  8
0
 10
916.2571283350620206
 20
21.5180553983923488
 30
0.0
 11
916.0294291887523741
 21
18.9154422469447709
 31
0.0
  0
ARC
  5
50A2
  8
0
 10
915.7803805119439176
 20
18.9372311828330311
 30
0.0
 40
0.2500000022943951
 50
270.0056280991979065
 51
354.999999999681279
  0
LINE
  5
50A3
  8
0
 10
916.3623975234925183
 20
21.1984886149408709
 30
0.0
 11
916.0397086406524068
 21
18.9024379083447513
 31
0.0
  0
ARC
  5
50A4
  8
0
 10
915.7921416184223062
 20
18.9372311842954701
 30
0.0
 40
0.2500000050944676
 50
270.0081734344241795
 51
351.9999999996081215
  0
ARC
  5
50A5
  8
0
 10
915.8312952363294244
 20
24.5325963359243708
 30
0.0
 40
2.934111376309831
 50
297.059068012425314
 51
321.3959749074484193
  0
ARC
  5
50A6
  8
0
 10
915.8932464382440912
 20
24.1079089120880994
 30
0.0
 40
2.531494463285604
 50
289.7050592915077232
 51
300.1845439556383894
  0
ARC
  5
50A7
  8
0
 10
917.0993151887380463
 20
21.0645929973062813
 30
0.0
 40
0.7482933649019455
 50
114.9998148620980061
 51
160.5390525289419088
  0
ARC
  5
50A8
  8
0
 10
917.2060330637672223
 20
21.0311063905413285
 30
0.0
 40
0.8600800740975628
 50
160.8042621172862141
 51
168.7779195885167098
  0
LINE
  5
50A9
  8
0
 10
922.4087382821990104
 20
35.819701026107083
 30
0.0
 11
922.6639568584091649
 21
35.8303978537422125
 31
0.0
  0
ARC
  5
50AA
  8
0
 10
922.6652550034967817
 20
35.7994250501849223
 30
0.0
 40
0.0309999958204583
 50
5.9998946927534931
 51
92.3999999948964756
  0
ARC
  5
50AB
  8
0
 10
894.5374843006600258
 20
36.1295194281335981
 30
0.0
 40
0.0376514566233305
 50
4.6653892922191842
 51
69.3345520818440804
  0
ARC
  5
50AC
  8
0
 10
894.7005862200152251
 20
36.7239531749606698
 30
0.0
 40
0.5789252516369567
 50
240.3758519998683028
 51
255.0023116957721072
  0
LINE
  5
50AD
  8
0
 10
894.5345553334038868
 20
33.7806126862296026
 30
0.0
 11
894.7209091955523945
 21
34.1992872212447381
 31
0.0
  0
ARC
  5
50AE
  8
0
 10
895.291901479737021
 20
33.9451360644019218
 30
0.0
 40
0.6249999992983641
 50
133.0039633131775076
 51
156.0059450103788947
  0
LINE
  5
50AF
  8
0
 10
894.8656208875523816
 20
34.4022026414447595
 30
0.0
 11
895.5557267353647148
 21
35.0458260094793275
 31
0.0
  0
LINE
  5
50B0
  8
0
 10
896.3846244043314755
 20
35.0023853234075233
 30
0.0
 11
897.0236737848523489
 21
34.4320863215447588
 31
0.0
  0
LINE
  5
50B1
  8
0
 10
897.0236737848523489
 20
34.4320863215447588
 30
0.0
 11
897.344709134952268
 21
33.8476697514447622
 31
0.0
  0
ARC
  5
50B2
  8
0
 10
898.6441007375634626
 20
34.0139462395275416
 30
0.0
 40
0.8691949386376723
 50
47.5631558089413318
 51
85.3455766270791543
  0
ARC
  5
50B3
  8
0
 10
899.9730538551873451
 20
35.4674574133640022
 30
0.0
 40
1.1002748177460151
 50
227.5631558089413033
 51
266.5387873202993774
  0
LINE
  5
50B4
  8
0
 10
899.9066271596523165
 20
34.3691896096447493
 30
0.0
 11
902.1947703390522975
 21
34.2492731069447629
 31
0.0
  0
LINE
  5
50B5
  8
0
 10
902.1947703390522975
 20
34.2492731069447629
 30
0.0
 11
902.8951058633523417
 21
33.6190126843447601
 31
0.0
  0
LINE
  5
50B6
  8
0
 10
902.8951058633523417
 20
33.6190126843447601
 30
0.0
 11
903.2321304194523464
 21
33.0027959919447724
 31
0.0
  0
LINE
  5
50B7
  8
0
 10
903.2321304194523464
 20
33.0027959919447724
 30
0.0
 11
903.1429720894523143
 21
33.008257873444748
 31
0.0
  0
LINE
  5
50B8
  8
0
 10
903.1429720894523143
 20
33.008257873444748
 30
0.0
 11
902.8072928710522547
 21
33.624091974144747
 31
0.0
  0
LINE
  5
50B9
  8
0
 10
902.8072928710522547
 20
33.624091974144747
 30
0.0
 11
902.1084841426459207
 21
34.253795174880679
 31
0.0
  0
LINE
  5
50BA
  8
0
 10
902.8072928710522547
 20
33.624091974144747
 30
0.0
 11
902.8951058633523417
 21
33.6190126843447601
 31
0.0
  0
LINE
  5
50BB
  8
0
 10
903.2321304194523464
 20
33.0027959919447724
 30
0.0
 11
902.9132618751523296
 21
35.0767856965447606
 31
0.0
  0
ARC
  5
50BC
  8
0
 10
902.5804362846431559
 20
35.0153943417700901
 30
0.0
 40
0.3384402046726302
 50
10.4510240979415894
 51
89.3714575398530968
  0
LINE
  5
50BD
  8
0
 10
902.5841489450524477
 20
35.3538141820447578
 30
0.0
 11
900.0980253167524552
 21
35.4081663677447622
 31
0.0
  0
ARC
  5
50BE
  8
0
 10
900.1070367974142528
 20
36.2098342750607287
 30
0.0
 40
0.8017185543593773
 50
256.4684961637693164
 51
269.3559701480539275
  0
ARC
  5
50BF
  8
0
 10
899.9945637516118495
 20
35.7641688322619018
 30
0.0
 40
0.3421453406883307
 50
213.063658374747888
 51
257.3182480886698045
  0
LINE
  5
50C0
  8
0
 10
899.7078237405523851
 20
35.5775044269447633
 30
0.0
 11
899.6227523355696576
 21
35.7214047889860211
 31
0.0
  0
ARC
  5
50C1
  8
0
 10
899.3249720057593777
 20
35.5453548711367731
 30
0.0
 40
0.3459287475717423
 50
30.5918912214490213
 51
84.8860972846636628
  0
LINE
  5
50C2
  8
0
 10
899.3558067042990842
 20
35.8899066375849003
 30
0.0
 11
898.1929622062001499
 21
35.9200476885244413
 31
0.0
  0
LINE
  5
50C3
  8
0
 10
902.5841489450524477
 20
35.353814182044772
 30
0.0
 11
904.7902820726523032
 21
35.3365591797447465
 31
0.0
  0
ARC
  5
50C4
  8
0
 10
904.493607361209456
 20
22.5533196018406592
 30
0.0
 40
12.7866817427549808
 50
78.1499424160846985
 51
88.6705124392873358
  0
LINE
  5
50C5
  8
0
 10
907.1193675507521448
 20
35.0674960996177703
 30
0.0
 11
907.2272470703778708
 21
35.5848051303763313
 31
0.0
  0
ARC
  5
50C6
  8
0
 10
905.9914724575028231
 20
35.6437344579694368
 30
0.0
 40
1.2371788712539671
 50
357.269853309309724
 51
11.5198162879362602
  0
LINE
  5
50C7
  8
0
 10
898.3234143504645317
 20
34.9007776478616876
 30
0.0
 11
898.4939677833523319
 21
33.7675855161447629
 31
0.0
  0
LINE
  5
50C8
  8
0
 10
898.4939677833523319
 20
33.7675855161447629
 30
0.0
 11
898.4817040829524331
 21
33.7673849614447619
 31
0.0
  0
LINE
  5
50C9
  8
0
 10
898.4817040829524331
 20
33.7673849614447619
 30
0.0
 11
898.1612930617521897
 21
34.3628083756447609
 31
0.0
  0
LINE
  5
50CA
  8
0
 10
898.1612930617521897
 20
34.3628083756447609
 30
0.0
 11
897.516966349287145
 21
34.9430417966992906
 31
0.0
  0
LINE
  5
50CB
  8
0
 10
897.3476491895294203
 20
33.8476458421347388
 30
0.0
 11
897.1629612024689777
 21
34.9615944202938422
 31
0.0
  0
LINE
  5
50CC
  8
0
 10
897.344709134952268
 20
33.8476697514447622
 30
0.0
 11
897.3476491895294203
 21
33.8476458421347388
 31
0.0
  0
LINE
  5
50CD
  8
0
 10
921.5197609137524069
 20
35.7972461937447619
 30
0.0
 11
919.3378899274523519
 21
34.5552018661447633
 31
0.0
  0
LINE
  5
50CE
  8
0
 10
919.3378899274523519
 20
34.5552018661447633
 30
0.0
 11
918.4009999101522226
 21
32.5742015711447621
 31
0.0
  0
LINE
  5
50CF
  8
0
 10
918.4009999101522226
 20
32.5742015711447621
 30
0.0
 11
918.347177643452369
 21
32.5816671056447618
 31
0.0
  0
LINE
  5
50D0
  8
0
 10
918.347177643452369
 20
32.5816671056447618
 30
0.0
 11
919.2805322837523363
 21
34.5552018661447633
 31
0.0
  0
LINE
  5
50D1
  8
0
 10
919.2805322837523363
 20
34.5552018661447633
 30
0.0
 11
921.4596739466478539
 21
35.7956925084866668
 31
0.0
  0
LINE
  5
50D2
  8
0
 10
918.347177643452369
 20
32.5816671056447618
 30
0.0
 11
918.605122515252333
 21
35.074310215544763
 31
0.0
  0
ARC
  5
50D3
  8
0
 10
918.9710588685937864
 20
35.0364422169633727
 30
0.0
 40
0.3678904728495263
 50
140.8075049294814107
 51
174.0919203219613962
  0
LINE
  5
50D4
  8
0
 10
917.9865275583939592
 20
35.3617411592012871
 30
0.0
 11
918.8729029506522465
 21
35.3600767848447717
 31
0.0
  0
LINE
  5
50D5
  8
0
 10
918.8729029506522465
 20
35.3600767848447717
 30
0.0
 11
919.6080523800524134
 21
35.3778557357447383
 31
0.0
  0
ARC
  5
50D6
  8
0
 10
919.6014571607511243
 20
35.6505642736850774
 30
0.0
 40
0.2727882761102178
 50
271.385378651702581
 51
310.3879285928392164
  0
LINE
  5
50D7
  8
0
 10
919.7782128997522477
 20
35.4427883070447507
 30
0.0
 11
920.1321522940521618
 21
35.7373076500447624
 31
0.0
  0
ARC
  5
50D8
  8
0
 10
920.2037011732564906
 20
35.6513235964662911
 30
0.0
 40
0.1118592847517561
 50
91.9530615384442314
 51
129.7644515590976084
  0
LINE
  5
50D9
  8
0
 10
920.1998889245535338
 20
35.7631179001896768
 30
0.0
 11
921.5197609137524069
 21
35.7972461937447619
 31
0.0
  0
LINE
  5
50DA
  8
0
 10
919.2805322837523363
 20
34.5552018661447633
 30
0.0
 11
919.3378899274523519
 21
34.5552018661447633
 31
0.0
  0
ARC
  5
50DB
  8
0
 10
918.883188629062488
 20
35.1016534730765812
 30
0.0
 40
0.258627924334538
 50
92.2792644198229368
 51
139.7025969837436037
  0
LINE
  5
50DC
  8
0
 10
918.6997493294522883
 20
35.831011992344763
 30
0.0
 11
916.6351949457522323
 21
34.4726194207447492
 31
0.0
  0
LINE
  5
50DD
  8
0
 10
916.6351949457522323
 20
34.4726194207447492
 30
0.0
 11
916.0123848247524165
 21
32.0704419239447631
 31
0.0
  0
LINE
  5
50DE
  8
0
 10
916.0123848247524165
 20
32.0704419239447631
 30
0.0
 11
915.9371555551523443
 21
32.0962295752447702
 31
0.0
  0
LINE
  5
50DF
  8
0
 10
915.9371555551523443
 20
32.0962295752447702
 30
0.0
 11
916.1205417586521662
 21
35.0703349199447629
 31
0.0
  0
LINE
  5
50E0
  8
0
 10
915.9371555551523443
 20
32.0962295752447702
 30
0.0
 11
916.5532797412523678
 21
34.4726194207447492
 31
0.0
  0
LINE
  5
50E1
  8
0
 10
916.5532797412523678
 20
34.4726194207447492
 30
0.0
 11
918.6156945190202805
 21
35.829604218871367
 31
0.0
  0
LINE
  5
50E2
  8
0
 10
916.6351949457522323
 20
34.4726194207447492
 30
0.0
 11
916.5532797412523678
 21
34.4726194207447492
 31
0.0
  0
LINE
  5
50E3
  8
0
 10
918.6997493294522883
 20
35.831011992344763
 30
0.0
 11
917.6915751990521812
 21
35.8141268100447618
 31
0.0
  0
ARC
  5
50E4
  8
0
 10
917.7021578517087619
 20
35.6294927282851503
 30
0.0
 40
0.1849371154864833
 50
93.2804271219382741
 51
142.6853895167396047
  0
ARC
  5
50E5
  8
0
 10
917.8259669557338611
 20
35.5351255629632234
 30
0.0
 40
0.3406093870393762
 50
142.6853895167388941
 51
169.5292536070107019
  0
ARC
  5
50E6
  8
0
 10
917.1689037393988428
 20
35.6565580629634269
 30
0.0
 40
0.3275806475443642
 50
322.7422389986767257
 51
349.5292536070106735
  0
ARC
  5
50E7
  8
0
 10
917.2858597109200218
 20
35.5675976702046626
 30
0.0
 40
0.1806362677462547
 50
274.2105463215858094
 51
322.7422389986767257
  0
LINE
  5
50E8
  8
0
 10
917.2991614424522595
 20
35.3874499885447591
 30
0.0
 11
916.3192198001522684
 21
35.3550249254447593
 31
0.0
  0
LINE
  5
50E9
  8
0
 10
916.3192198001522684
 20
35.3550249254447593
 30
0.0
 11
914.0596542181523319
 21
35.337388015844752
 31
0.0
  0
ARC
  5
50EA
  8
0
 10
914.1368943180355018
 20
25.4417160866670891
 30
0.0
 40
9.8959733711719746
 50
90.4472098400547679
 51
102.0998627262111
  0
ARC
  5
50EB
  8
0
 10
911.5019494124720723
 20
37.7327796248667866
 30
0.0
 40
2.6743558828856262
 50
276.1138418819377875
 51
282.0998627262110858
  0
LINE
  5
50EC
  8
0
 10
911.7867797783524111
 20
35.0736348279447583
 30
0.0
 11
911.7431479515523733
 21
35.5678061535447512
 31
0.0
  0
ARC
  5
50ED
  8
0
 10
913.3008399465777529
 20
35.5980584866308902
 30
0.0
 40
1.557985736463384
 50
169.9889261148348965
 51
181.1126160577337885
  0
ARC
  5
50EE
  8
0
 10
916.5378568989320911
 20
35.0520493000100331
 30
0.0
 40
0.4177155613609607
 50
151.5239335107887939
 51
177.491058883059992
  0
ARC
  5
50EF
  8
0
 10
916.3487156547996619
 20
35.1546423403574266
 30
0.0
 40
0.2025418125910067
 50
98.3736742861926814
 51
151.5239335107887939
  0
CIRCLE
  5
50F0
  8
0
 10
909.4144076972022503
 20
33.3656138337447601
 30
0.0
 40
1.221782374730936
  0
LINE
  5
50F1
  8
0
 10
903.7533595319523556
 20
19.218230901844759
 30
0.0
 11
903.8534214727524159
 21
19.218230901844759
 31
0.0
  0
ARC
  5
50F2
  8
0
 10
903.1572637333495095
 20
29.8404137731134007
 30
0.0
 40
7.5304187498306572
 50
251.169302302047214
 51
255.1411125935281916
  0
ARC
  5
50F3
  8
0
 10
902.3112845234511497
 20
26.2112381401903285
 30
0.0
 40
3.805068426374139
 50
253.0099008660806987
 51
257.8266126622497723
  0
ARC
  5
50F4
  8
0
 10
901.0734478698109342
 20
22.2096926772750685
 30
0.0
 40
0.3838097860650755
 50
37.0237906899103493
 51
70.8396899222488088
  0
ARC
  5
50F5
  8
0
 10
903.3915829770603523
 20
23.9496460526170587
 30
0.0
 40
2.5146717099055129
 50
216.8710538954250069
 51
248.4464564180086086
  0
LINE
  5
50F6
  8
0
 10
901.4471005243066202
 20
22.5177905522528192
 30
0.0
 11
901.4569742167918776
 21
22.5159816277495395
 31
0.0
  0
ARC
  5
50F7
  8
0
 10
902.333732566767253
 20
25.3005534587599499
 30
0.0
 40
2.9193399059219058
 50
252.5227193544751003
 51
263.4313725011002134
  0
ARC
  5
50F8
  8
0
 10
901.331984328966314
 20
22.1584462562748996
 30
0.0
 40
0.377332825873335
 50
36.6676999250264402
 51
72.2371032679030947
  0
ARC
  5
50F9
  8
0
 10
903.6514321545920438
 20
23.8852761963013407
 30
0.0
 40
2.5143414050130071
 50
216.6676999250263975
 51
236.5634514755888915
  0
ARC
  5
50FA
  8
0
 10
901.7117469768271576
 20
20.9489610630534102
 30
0.0
 40
1.0047957648181249
 50
17.2617095764483608
 51
56.5228362405784992
  0
ARC
  5
50FB
  8
0
 10
900.5442007211435111
 20
22.3978779631956186
 30
0.0
 40
0.3781370122434511
 50
37.6904297823761212
 51
52.0950929958983906
  0
ARC
  5
50FC
  8
0
 10
902.8571929690843945
 20
24.1849444767509887
 30
0.0
 40
2.5447964223228881
 50
217.6904297823760999
 51
231.6233991552846874
  0
ARC
  5
50FD
  8
0
 10
900.6800809093983844
 20
22.3352672266371002
 30
0.0
 40
0.3766376496760801
 50
37.4135922213371828
 51
63.9308213865463486
  0
ARC
  5
50FE
  8
0
 10
902.9774180754693589
 20
24.0930456626518499
 30
0.0
 40
2.516032933953638
 50
217.4220537929973887
 51
249.7806729321324894
  0
ARC
  5
50FF
  8
0
 10
900.8543689388723124
 20
22.2650581603114297
 30
0.0
 40
0.3881756802071771
 50
37.4250219987853114
 51
69.2127271562473112
  0
ARC
  5
5100
  8
0
 10
903.170463981542639
 20
24.0249523501300786
 30
0.0
 40
2.5206967774684101
 50
217.1994284407132909
 51
253.9940380797773969
  0
ARC
  5
5101
  8
0
 10
904.1309171208623638
 20
23.9114125881125013
 30
0.0
 40
2.5993810079586148
 50
217.4086350205012934
 51
259.9847859615906032
  0
ARC
  5
5102
  8
0
 10
904.1523685366835252
 20
23.9108927826981308
 30
0.0
 40
2.5981185309901842
 50
217.4677216608639867
 51
259.4954538638094164
  0
ARC
  5
5103
  8
0
 10
902.6836413712204603
 20
24.9206757813363211
 30
0.0
 40
2.5776016132436022
 50
256.6239088268488899
 51
266.1453733934679917
  0
ARC
  5
5104
  8
0
 10
904.6232540590103781
 20
59.6168752750645723
 30
0.0
 40
37.32781686692325
 50
266.755112714602717
 51
268.4858381501804274
  0
ARC
  5
5105
  8
0
 10
903.3520801381538377
 20
22.3640925849272385
 30
0.0
 40
0.291492439391088
 50
347.7194206615956205
 51
359.6467377450322829
  0
ARC
  5
5106
  8
0
 10
904.0016499010315556
 20
22.3754965816620093
 30
0.0
 40
0.2588662312623786
 50
185.7042658449130954
 51
197.2601471521539906
  0
LINE
  5
5107
  8
0
 10
903.7440655306800181
 20
22.3497668743454483
 30
0.0
 11
903.6435670370935895
 21
22.3622953735984282
 31
0.0
  0
ARC
  5
5108
  8
0
 10
889.2059780395846929
 20
-556.4500298937939533
 30
0.0
 40
578.9315473108264314
 50
88.4211599634506626
 51
88.5600140571721255
  0
ARC
  5
5109
  8
0
 10
904.2114743435331548
 20
24.6114480349539484
 30
0.0
 40
3.3040189606487931
 50
262.4870740106733251
 51
268.5893581677622137
  0
ARC
  5
510A
  8
0
 10
917.8868913107487515
 20
615.4808515230811281
 30
0.0
 40
594.3316534707540768
 50
268.6736792728585215
 51
268.8670066640577261
  0
ARC
  5
510B
  8
0
 10
904.6614948332158974
 20
21.2744090316962087
 30
0.0
 40
0.9999497551653475
 50
43.6835023658849408
 51
66.092057712052366
  0
ARC
  5
510C
  8
0
 10
904.6558292093507134
 20
21.2573158124555093
 30
0.0
 40
1.017873936844887
 50
66.190443047786772
 51
87.2593958596712724
  0
LINE
  5
510D
  8
0
 10
905.0486247397793704
 20
22.3202008917625285
 30
0.0
 11
904.993872639352162
 21
22.3104641769447802
 31
0.0
  0
ARC
  5
510E
  8
0
 10
904.8186755903756193
 20
21.4268210253208515
 30
0.0
 40
0.9008436187163843
 50
58.4770849189156223
 51
78.7855880785706546
  0
ARC
  5
510F
  8
0
 10
904.7844504399147354
 20
21.3732332317112999
 30
0.0
 40
0.9644184773249969
 50
39.4371979164609883
 51
58.408361780552049
  0
ARC
  5
5110
  8
0
 10
906.107779767384045
 20
22.6557160922155312
 30
0.0
 40
0.9999851846648233
 50
223.6836662776013895
 51
269.999974375997283
  0
LINE
  5
5111
  8
0
 10
906.107779320167424
 20
21.6557309075508115
 30
0.0
 11
906.1653881829523698
 21
21.6557175300447611
 31
0.0
  0
LINE
  5
5112
  8
0
 10
906.1653881829523698
 20
21.6557175300447611
 30
0.0
 11
906.1521987045171045
 21
22.2443137067556691
 31
0.0
  0
ARC
  5
5113
  8
0
 10
906.2383856972649028
 20
22.5601395866304308
 30
0.0
 40
0.9124738854870225
 50
219.0031025543397902
 51
262.3775317764195734
  0
ARC
  5
5114
  8
0
 10
904.8468081334983708
 20
21.415938731894741
 30
0.0
 40
0.9265095770360199
 50
38.485769465644772
 51
77.418704867222317
  0
ARC
  5
5115
  8
0
 10
906.2860155661352337
 20
22.5592641639397513
 30
0.0
 40
0.9115632096550029
 50
218.4420629178987099
 51
262.3957308922023799
  0
ARC
  5
5116
  8
0
 10
905.6265006449581279
 20
25.030514036554969
 30
0.0
 40
2.7712340039449939
 50
257.963980895499617
 51
268.5117206021005245
  0
ARC
  5
5117
  8
0
 10
908.4495872199626092
 20
119.8359801346770013
 30
0.0
 40
97.6187038951530752
 50
268.3005390266811787
 51
268.7453955509042771
  0
LINE
  5
5118
  8
0
 10
906.3121900492523082
 20
22.2406678737447585
 30
0.0
 11
906.3520433445522713
 21
21.4795653865447491
 31
0.0
  0
LINE
  5
5119
  8
0
 10
906.3520433445522713
 20
21.4795653865447491
 30
0.0
 11
906.3235536395026202
 21
22.2954180380412303
 31
0.0
  0
LINE
  5
511A
  8
0
 10
906.4240835646739924
 20
22.2819589626572991
 30
0.0
 11
906.4527824735523609
 21
21.4595832785447591
 31
0.0
  0
LINE
  5
511B
  8
0
 10
906.4527824735523609
 20
21.4595832785447591
 30
0.0
 11
906.4390581527521817
 21
22.2376601428447707
 31
0.0
  0
ARC
  5
511C
  8
0
 10
906.1371648372013397
 20
22.3055190675223294
 30
0.0
 40
0.1866623058359056
 50
339.6735013497756199
 51
356.8979854447435969
  0
ARC
  5
511D
  8
0
 10
906.5803353149467512
 20
22.3100972683658796
 30
0.0
 40
0.1587651526988322
 50
190.2085876904723989
 51
207.1456030643531108
  0
LINE
  5
511E
  8
0
 10
906.4240835646739924
 20
22.2819589626572991
 30
0.0
 11
906.3235536395026202
 21
22.2954180380412303
 31
0.0
  0
LINE
  5
511F
  8
0
 10
906.4390581527521817
 20
22.2376601428447707
 30
0.0
 11
906.6419332466523429
 21
22.2298697028447698
 31
0.0
  0
LINE
  5
5120
  8
0
 10
906.6419332466523429
 20
22.2298697028447698
 30
0.0
 11
906.8683959974764548
 21
22.2227817581410285
 31
0.0
  0
ARC
  5
5121
  8
0
 10
906.5067494531309649
 20
21.6077164179588692
 30
0.0
 40
0.7135079507127814
 50
31.3310130924869483
 51
73.1659871733100857
  0
ARC
  5
5122
  8
0
 10
907.7253829950104773
 20
22.3495609918185991
 30
0.0
 40
0.7131668830032661
 50
211.3310130924868133
 51
237.1357046376224957
  0
ARC
  5
5123
  8
0
 10
907.6494830737027542
 20
22.2131113767497901
 30
0.0
 40
0.5574627445241898
 50
236.0778601936598022
 51
269.0156381119164735
  0
LINE
  5
5124
  8
0
 10
906.1179094733149668
 20
21.6557285552012004
 30
0.0
 11
906.1371766041521596
 21
21.2197309018447591
 31
0.0
  0
LINE
  5
5125
  8
0
 10
906.1371766041521596
 20
21.2197309018447591
 30
0.0
 11
906.6682691266522625
 21
21.2197309018447591
 31
0.0
  0
LINE
  5
5126
  8
0
 10
906.6682691266522625
 20
21.2197309018447591
 30
0.0
 11
906.6420488739713619
 21
22.2298660838829605
 31
0.0
  0
LINE
  5
5127
  8
0
 10
906.6569676002521874
 20
21.655730901844759
 30
0.0
 11
912.3352305906995525
 21
21.655730901844759
 31
0.0
  0
LINE
  5
5128
  8
0
 10
912.4352894686618356
 20
21.6557309018447803
 30
0.0
 11
912.6810634503368647
 21
21.655730901844759
 31
0.0
  0
LINE
  5
5129
  8
0
 10
906.713381387852337
 20
22.2906489470447795
 30
0.0
 11
906.8053503797523263
 21
22.3046377346447606
 31
0.0
  0
ARC
  5
512A
  8
0
 10
906.5755509331303301
 20
21.6131889112681606
 30
0.0
 40
0.7286352043489798
 50
30.8422966261240106
 51
71.6160392760741189
  0
ARC
  5
512B
  8
0
 10
907.3381785450952748
 20
24.1741363225199102
 30
0.0
 40
1.943947227640161
 50
254.0918508976897954
 51
265.8825540393470988
  0
ARC
  5
512C
  8
0
 10
907.5934393221380105
 20
27.7200674965538489
 30
0.0
 40
5.4990542520885493
 50
265.8825540393470988
 51
269.4031543727413123
  0
ARC
  5
512D
  8
0
 10
905.3659112936494466
 20
22.4639115184216607
 30
0.0
 40
2.3302926280565028
 50
6.6391324161067562
 51
18.8428743295887493
  0
ARC
  5
512E
  8
0
 10
910.4266344806453617
 20
23.0529601399397208
 30
0.0
 40
2.7645967185249019
 50
186.6391324161066905
 51
200.0370012478059039
  0
ARC
  5
512F
  8
0
 10
908.8596732243203178
 20
22.4814866260279516
 30
0.0
 40
1.0966789879620651
 50
200.0370012478059039
 51
221.2858212493962924
  0
ARC
  5
5130
  8
0
 10
908.2623022107236466
 20
21.9569452188224083
 30
0.0
 40
0.3016973430426274
 50
221.2858191152907921
 51
266.7573869139766884
  0
LINE
  5
5131
  8
0
 10
907.5713185162522905
 20
23.2165354051447714
 30
0.0
 11
907.6846495249524196
 21
23.2739643648447512
 31
0.0
  0
ARC
  5
5132
  8
0
 10
905.3108598738687078
 20
22.5015548754619807
 30
0.0
 40
2.496296001455077
 50
6.1254417854039112
 51
18.024415181674371
  0
ARC
  5
5133
  8
0
 10
910.0289850061643619
 20
24.0543689825483185
 30
0.0
 40
2.4708177220917831
 50
198.4120579108104891
 51
205.1430258038527086
  0
ARC
  5
5134
  8
0
 10
910.4753740297735476
 20
23.0374096831068194
 30
0.0
 40
2.6959729143741349
 50
185.736794879206002
 51
199.8486671452018868
  0
ARC
  5
5135
  8
0
 10
909.0933769374379381
 20
22.5385336850169615
 30
0.0
 40
1.2266896793596771
 50
199.8486671452018868
 51
216.9581236667148971
  0
ARC
  5
5136
  8
0
 10
908.4316837609449067
 20
22.0406699325172113
 30
0.0
 40
0.3986159049467636
 50
216.9581236667148971
 51
254.947681995256886
  0
ARC
  5
5137
  8
0
 10
910.2497080894306691
 20
24.118393284760181
 30
0.0
 40
2.6980677170099661
 50
204.3822782128166011
 51
214.4082403156785972
  0
ARC
  5
5138
  8
0
 10
908.9904217229184269
 20
23.2558758652974902
 30
0.0
 40
1.1717196401414709
 50
214.4082403156785972
 51
237.4460202962222013
  0
ARC
  5
5139
  8
0
 10
908.5970614517711965
 20
22.7067978788581399
 30
0.0
 40
0.4985541753463588
 50
241.5986227716857968
 51
253.5289676237350989
  0
ARC
  5
513A
  8
0
 10
908.3371849909998446
 20
21.8445487323281213
 30
0.0
 40
0.4020218655068691
 50
50.2525431907716325
 51
72.8536979943078364
  0
LINE
  5
513B
  8
0
 10
908.5942397315523067
 20
22.153651370144761
 30
0.0
 11
908.6020463589522933
 21
21.655730901844759
 31
0.0
  0
ARC
  5
513C
  8
0
 10
907.4996202505323026
 20
21.3306282340595992
 30
0.0
 40
0.8914324434966557
 50
69.7738449621603252
 51
87.6509759136288267
  0
ARC
  5
513D
  8
0
 10
909.5678175019686478
 20
169.4231820631738117
 30
0.0
 40
148.1961238482107888
 50
268.8785843303027718
 51
271.0754391602433202
  0
ARC
  5
513E
  8
0
 10
909.5678175019686478
 20
169.4231820631738117
 30
0.0
 40
148.1961238482107888
 50
271.1141048035623839
 51
271.6807412846301872
  0
LINE
  5
513F
  8
0
 10
911.0828114387522874
 20
23.2985372934447597
 30
0.0
 11
911.1973698971522708
 21
23.2412799090447493
 31
0.0
  0
ARC
  5
5140
  8
0
 10
913.4759107315815072
 20
22.5508132231992988
 30
0.0
 40
2.3808596301385392
 50
163.1416066140997998
 51
175.0985284932029913
  0
ARC
  5
5141
  8
0
 10
908.3242828383451979
 20
22.9934715042697988
 30
0.0
 40
2.789751257595912
 50
341.6921036807395922
 51
355.0806297194866943
  0
ARC
  5
5142
  8
0
 10
909.9583750047455624
 20
22.4433866290987609
 30
0.0
 40
1.0656162278748109
 50
322.1932131956374974
 51
342.1724898403012958
  0
ARC
  5
5143
  8
0
 10
910.5201327050895088
 20
22.00753610308006
 30
0.0
 40
0.3546046984842404
 50
277.1917538463276856
 51
322.1932131956374974
  0
ARC
  5
5144
  8
0
 10
909.3965645143161964
 20
23.8053227407490198
 30
0.0
 40
1.760755570705248
 50
333.6703416946295988
 51
343.2723500954364795
  0
ARC
  5
5145
  8
0
 10
907.7297533061126842
 20
24.5987606116146296
 30
0.0
 40
3.606674306520727
 50
324.4467138775942772
 51
334.1177798149462888
  0
ARC
  5
5146
  8
0
 10
910.063529889176948
 20
22.9094844181067785
 30
0.0
 40
0.7259330085429068
 50
290.556785758555975
 51
325.8166774822145157
  0
ARC
  5
5147
  8
0
 10
910.4863521703317701
 20
21.7820026600056416
 30
0.0
 40
0.4782238733839862
 50
110.5567857585560034
 51
129.6718615491128901
  0
LINE
  5
5148
  8
0
 10
910.1810588883522541
 20
22.1500978719447694
 30
0.0
 11
910.2079577175328495
 21
21.655730901844759
 31
0.0
  0
ARC
  5
5149
  8
0
 10
913.5376728078742872
 20
22.5912817219099793
 30
0.0
 40
2.554712270505985
 50
163.9280931145679858
 51
175.5818852097650051
  0
ARC
  5
514A
  8
0
 10
908.2032266706339669
 20
22.994357418760579
 30
0.0
 40
2.7949475868803169
 50
342.0544370363243161
 51
355.7675550000519138
  0
ARC
  5
514B
  8
0
 10
909.7296439565618584
 20
22.4999972487996303
 30
0.0
 40
1.1904720624726191
 50
324.4685662896548024
 51
342.0544370363243161
  0
ARC
  5
514C
  8
0
 10
910.3676788498725045
 20
22.0443630399949093
 30
0.0
 40
0.4064497048098997
 50
287.0277726766473165
 51
324.4685662896548024
  0
LINE
  5
514D
  8
0
 10
909.3159106784087271
 20
23.5602916349612883
 30
0.0
 11
909.4409250881524258
 21
23.5600618274447591
 31
0.0
  0
ARC
  5
514E
  8
0
 10
-2763.9073976617160042
 20
-25.9702224505760597
 30
0.0
 40
3673.6822330340351073
 50
0.7676623003181512
 51
0.7725116248234551
  0
ARC
  5
514F
  8
0
 10
3447.7553673889960919
 20
57.0272171097413505
 30
0.0
 40
2538.5350007839579121
 50
180.762407109495399
 51
180.798374833891188
  0
ARC
  5
5150
  8
0
 10
4048.7401808523400177
 20
65.2756912442533235
 30
0.0
 40
3139.7014066183210161
 50
180.7612783367571865
 51
180.7960374928753993
  0
ARC
  5
5151
  8
0
 10
907.5552400910532924
 20
23.5115774462343694
 30
0.0
 40
1.761344084091198
 50
355.557278400792427
 51
359.9392735583243166
  0
ARC
  5
5152
  8
0
 10
922.8492552251336747
 20
22.6883321621798792
 30
0.0
 40
13.5553737524400404
 50
177.0957632974038063
 51
181.8665924383064976
  0
ARC
  5
5153
  8
0
 10
910.8391638319019421
 20
22.3108126453485909
 30
0.0
 40
1.5394210162650139
 50
182.3831462287924978
 51
184.1444453464997935
  0
ARC
  5
5154
  8
0
 10
-85450.749143915658351
 20
-6016.8201571910803978
 30
0.0
 40
86570.9448840657860273
 50
3.9997293408981709
 51
4.0000901434582028
  0
LINE
  5
5155
  8
0
 10
912.0851576356525356
 20
22.2991713099447608
 30
0.0
 11
911.9933237817309646
 21
22.3145558669127091
 31
0.0
  0
ARC
  5
5156
  8
0
 10
911.4315610043934157
 20
24.1310238462129298
 30
0.0
 40
1.9013503984865949
 50
274.916040572842121
 51
287.1848009353490738
  0
ARC
  5
5157
  8
0
 10
911.1428104222916318
 20
28.4568005870395311
 30
0.0
 40
6.236511328953017
 50
271.0921004484906121
 51
274.1533670067036041
  0
ARC
  5
5158
  8
0
 10
911.2932666121522516
 20
21.3420613691452914
 30
0.0
 40
0.8799280177994671
 50
92.0574516166944647
 51
105.9423639883022048
  0
ARC
  5
5159
  8
0
 10
911.3002418035292749
 20
21.3185210358680592
 30
0.0
 40
0.9044788638305888
 50
105.9576359853482046
 51
110.1247458531077967
  0
ARC
  5
515A
  8
0
 10
912.2367947945657534
 20
21.6343417334073003
 30
0.0
 40
0.7224744988657901
 50
109.693959184535899
 51
150.3210477708225028
  0
ARC
  5
515B
  8
0
 10
912.3043610491301934
 20
21.6277476443084318
 30
0.0
 40
0.7063001311459917
 50
108.0805946964153037
 51
149.7720463983912964
  0
ARC
  5
515C
  8
0
 10
911.0340070760177014
 20
22.387873395819831
 30
0.0
 40
0.7741933654920964
 50
304.7418195349183065
 51
328.4973964201777221
  0
ARC
  5
515D
  8
0
 10
911.16748934508405
 20
22.1968446673963804
 30
0.0
 40
0.5411514751341689
 50
270.6764046606721763
 51
304.6547020135620869
  0
ARC
  5
515E
  8
0
 10
910.9390919367964443
 20
22.3923506819787583
 30
0.0
 40
0.7804719841339868
 50
305.1986128886658207
 51
329.1445894615138741
  0
ARC
  5
515F
  8
0
 10
911.0772287837816066
 20
22.1965191533722006
 30
0.0
 40
0.5408227068735409
 50
270.6467564754921113
 51
305.1986128886658207
  0
LINE
  5
5160
  8
0
 10
910.9398876715839606
 20
22.0284518993565293
 30
0.0
 11
910.9532761424975433
 21
21.655730901844759
 31
0.0
  0
LINE
  5
5161
  8
0
 10
912.4118649930885567
 20
22.3265804838948512
 30
0.0
 11
912.3118417485655982
 21
22.3254965921966715
 31
0.0
  0
LINE
  5
5162
  8
0
 10
912.3118417485655982
 20
22.3254965921966715
 30
0.0
 11
912.3501930882364377
 21
21.2272630266651312
 31
0.0
  0
LINE
  5
5163
  8
0
 10
912.4118649930885567
 20
22.3265804838948512
 30
0.0
 11
912.4501657916930526
 21
21.2296904102742587
 31
0.0
  0
LINE
  5
5164
  8
0
 10
912.4501657916930526
 20
21.2296904102742587
 30
0.0
 11
912.3501930882364377
 21
21.2272630266651312
 31
0.0
  0
ARC
  5
5165
  8
0
 10
909.2953958872341218
 20
-90.9403522584641308
 30
0.0
 40
113.0961771091421042
 50
89.9942091189403186
 51
90.3552157719145868
  0
ARC
  5
5166
  8
0
 10
908.6764113614500502
 20
-130.0572788986488035
 30
0.0
 40
152.2148136929044995
 50
89.4336204545429325
 51
89.7050852434314692
  0
LINE
  5
5167
  8
0
 10
911.9233668746954891
 20
22.2224772587583814
 30
0.0
 11
912.3002606496522731
 21
22.2331531517447587
 31
0.0
  0
ARC
  5
5168
  8
0
 10
912.3496509044008462
 20
22.2073115492939195
 30
0.0
 40
0.0557421356009554
 50
139.7800066045514029
 51
152.3808698769443879
  0
ARC
  5
5169
  8
0
 10
911.9424631386923465
 20
22.3056283842515484
 30
0.0
 40
0.3699125614505689
 50
350.3005574517824812
 51
0.9211490990637567
  0
ARC
  5
516A
  8
0
 10
912.7277847168365952
 20
22.3260560951465514
 30
0.0
 40
0.3159201084989929
 50
184.0944941726760078
 51
194.8099635346295031
  0
ARC
  5
516B
  8
0
 10
912.3816305152718087
 20
22.2053835021555912
 30
0.0
 40
0.057029850445146
 50
33.445190608573597
 51
44.424376952083108
  0
ARC
  5
516C
  8
0
 10
904.3593611116533566
 20
315.6833905323492786
 30
0.0
 40
293.5575162325696965
 50
271.5752515674320762
 51
271.7330060120464168
  0
ARC
  5
516D
  8
0
 10
913.112063742788223
 20
25.0062241481272416
 30
0.0
 40
2.7489250501301128
 50
272.60790250475128
 51
283.5468110975508012
  0
LINE
  5
516E
  8
0
 10
913.7559711758525509
 20
22.3337773013447602
 30
0.0
 11
913.8087248538531639
 21
22.3218899242204714
 31
0.0
  0
ARC
  5
516F
  8
0
 10
914.0145767553602809
 20
21.4252538730878292
 30
0.0
 40
0.919962615297448
 50
102.9300405837496015
 51
141.6371628069964004
  0
ARC
  5
5170
  8
0
 10
913.9811603010724639
 20
21.4352279437579014
 30
0.0
 40
0.9263374601824045
 50
104.0693534921660017
 51
142.1719088065869983
  0
ARC
  5
5171
  8
0
 10
912.5325901289854755
 20
22.5599921084766493
 30
0.0
 40
0.9076336327456767
 50
298.238354668164618
 51
322.1719088065869983
  0
ARC
  5
5172
  8
0
 10
912.5701753927735353
 20
22.574137391825861
 30
0.0
 40
0.9256397729130617
 50
296.6597375107073162
 51
321.3658724989074926
  0
ARC
  5
5173
  8
0
 10
912.5984724722571855
 20
22.5213483795770486
 30
0.0
 40
0.8657677594184457
 50
271.0675696957853233
 51
296.5536675281373959
  0
ARC
  5
5174
  8
0
 10
912.54879660197264
 20
22.5230105195386194
 30
0.0
 40
0.8673913719652286
 50
270.9197436756571733
 51
298.4510400150563783
  0
ARC
  5
5175
  8
0
 10
776.4184365676886728
 20
5269.3148014781909296
 30
0.0
 40
5248.8479158499349069
 50
271.4979364186837074
 51
271.5030367863145102
  0
ARC
  5
5176
  8
0
 10
914.1215359596523058
 20
21.2731626242447511
 30
0.0
 40
1.000004494300007
 50
91.4999005863980841
 51
136.268048239401196
  0
ARC
  5
5177
  8
0
 10
912.6763294471314794
 20
22.6557747187367688
 30
0.0
 40
1.000055021731439
 50
270.2712244955740175
 51
316.2680482394010824
  0
ARC
  5
5178
  8
0
 10
915.9395030191767546
 20
24.0524192720617584
 30
0.0
 40
2.458872876424703
 50
290.064184652579911
 51
322.7331861548673828
  0
ARC
  5
5179
  8
0
 10
918.1916882532201498
 20
22.3387745050555395
 30
0.0
 40
0.3711300769183896
 50
119.5156360151454038
 51
142.7331861548674112
  0
ARC
  5
517A
  8
0
 10
918.0205224656523342
 20
22.2729202673447908
 30
0.0
 40
0.3765016282999461
 50
108.3224179483977991
 51
142.8294535288005989
  0
ARC
  5
517B
  8
0
 10
915.7193560350048074
 20
24.0177368999664687
 30
0.0
 40
2.5113612533154961
 50
295.059719632436213
 51
322.8294535288003999
  0
ARC
  5
517C
  8
0
 10
917.7984631329524063
 20
22.2131971211446917
 30
0.0
 40
0.3770389558000828
 50
107.3248296164042017
 51
143.0727166617963064
  0
ARC
  5
517D
  8
0
 10
915.4871683382068568
 20
23.9502880029081702
 30
0.0
 40
2.5142528592409938
 50
287.9725979624399201
 51
323.0727166617961075
  0
LINE
  5
517E
  8
0
 10
916.9725626012382236
 20
22.4665992211589405
 30
0.0
 11
916.9972925293523076
 21
22.4684925115447491
 31
0.0
  0
ARC
  5
517F
  8
0
 10
917.1139773069070316
 20
22.0978069034609312
 30
0.0
 40
0.3886169802690665
 50
107.4730102519441033
 51
142.6429600408766873
  0
ARC
  5
5180
  8
0
 10
914.7434394661949
 20
23.9074051482117511
 30
0.0
 40
2.5936800307030148
 50
312.7285603760448112
 51
322.6429600408765737
  0
ARC
  5
5181
  8
0
 10
917.0352063263073887
 20
21.4270044565902005
 30
0.0
 40
0.783387282551449
 50
132.7623375479558092
 51
173.3255845650162996
  0
ARC
  5
5182
  8
0
 10
916.1679951106513045
 20
25.0108243227489204
 30
0.0
 40
2.6684096789042822
 50
283.1885637508025866
 51
287.5486641061918931
  0
ARC
  5
5183
  8
0
 10
916.1731334789161565
 20
24.9888970921702516
 30
0.0
 40
2.6458884385016521
 50
272.3570540952355827
 51
283.1885637508025866
  0
ARC
  5
5184
  8
0
 10
915.0746931997939555
 20
43.3672905897015184
 30
0.0
 40
21.0566800846656683
 50
272.2973090947343735
 51
273.2867805829790768
  0
ARC
  5
5185
  8
0
 10
913.7163241384542971
 20
75.3888705295827322
 30
0.0
 40
53.1070247772250212
 50
271.8366830688632945
 51
272.3768184505447039
  0
LINE
  5
5186
  8
0
 10
915.3070616601288521
 20
22.3918216888635513
 30
0.0
 11
915.4070228882095535
 21
22.3950640244449097
 31
0.0
  0
LINE
  5
5187
  8
0
 10
915.3018460590525365
 20
22.3054355358447509
 30
0.0
 11
914.0953606282052988
 21
22.2728244873984096
 31
0.0
  0
ARC
  5
5188
  8
0
 10
914.9720693420606494
 20
22.36869647030192
 30
0.0
 40
0.3357895604366534
 50
349.1408912530102953
 51
359.3160810972213994
  0
ARC
  5
5189
  8
0
 10
915.6692522422557659
 20
22.3861785824668686
 30
0.0
 40
0.2623798490788119
 50
186.5810559979626078
 51
197.0768297550764885
  0
ARC
  5
518A
  8
0
 10
917.0917339785721651
 20
22.0908295137103288
 30
0.0
 40
0.3942140157473394
 50
107.5958721986449973
 51
142.3417511753908116
  0
ARC
  5
518B
  8
0
 10
914.770068501949936
 20
23.8635075976995985
 30
0.0
 40
2.5268394762148789
 50
313.2237103618876972
 51
322.6829665672530041
  0
ARC
  5
518C
  8
0
 10
917.0354864885338202
 20
21.4530905233728113
 30
0.0
 40
0.7810645620318658
 50
133.2241298302018038
 51
175.2289240970914079
  0
ARC
  5
518D
  8
0
 10
916.5739991096502308
 20
25.1319782942994507
 30
0.0
 40
2.7442556131970521
 50
276.2977557385635237
 51
287.6204364014723183
  0
LINE
  5
518E
  8
0
 10
917.4047123364523486
 20
22.5164755882447487
 30
0.0
 11
917.4147683011481149
 21
22.5181696782208611
 31
0.0
  0
ARC
  5
518F
  8
0
 10
917.5298668331522549
 20
22.1584727758447606
 30
0.0
 40
0.3776632543000027
 50
107.7440247628979932
 51
143.2992199973990921
  0
ARC
  5
5190
  8
0
 10
917.5208839452583334
 20
22.1554241953535183
 30
0.0
 40
0.3792808339492768
 50
107.836057182126595
 51
143.2449872680028875
  0
ARC
  5
5191
  8
0
 10
915.1977169597524835
 20
23.8868954018445692
 30
0.0
 40
2.5181811064997559
 50
295.2906695579158054
 51
323.3112897580002141
  0
ARC
  5
5192
  8
0
 10
915.2080402859522792
 20
23.8887764010448684
 30
0.0
 40
2.5180386340001428
 50
295.0137623822428736
 51
323.3061929668969015
  0
ARC
  5
5193
  8
0
 10
916.6022356854723512
 20
26.1887146036824596
 30
0.0
 40
3.7745721519909479
 50
281.3551965205871284
 51
286.6886933644976807
  0
ARC
  5
5194
  8
0
 10
915.6840478822532532
 20
30.0471922415252806
 30
0.0
 40
7.7414353782530041
 50
284.7009946910707754
 51
286.6500366931854842
  0
ARC
  5
5195
  8
0
 10
918.3215305924532004
 20
22.3985882239438787
 30
0.0
 40
0.3755748252012225
 50
130.0599422778155088
 51
142.3436899655748107
  0
ARC
  5
5196
  8
0
 10
916.041628026267972
 20
24.1579218012732184
 30
0.0
 40
2.5042186305202212
 50
312.7399163841598124
 51
322.343689965574697
  0
ARC
  5
5197
  8
0
 10
915.9731606673734632
 20
24.2453035131483183
 30
0.0
 40
2.6148778225324021
 50
301.4848344361429895
 51
312.5423146269607741
  0
LINE
  5
5198
  8
0
 10
910.9905867824521692
 20
21.6132309018447586
 30
0.0
 11
907.8382463744524102
 21
21.6132309018447586
 31
0.0
  0
ARC
  5
5199
  8
0
 10
907.8382463744524102
 20
21.7382309018447799
 30
0.0
 40
0.1250000000000142
 50
221.2998727917139092
 51
270.0
  0
ARC
  5
519A
  8
0
 10
910.9905867824521692
 20
21.7382309018447195
 30
0.0
 40
0.1249999999999574
 50
269.9999999999935199
 51
318.7001272083227832
  0
LINE
  5
519B
  8
0
 10
903.5562718168109768
 20
18.6872311805460711
 30
0.0
 11
904.0875954845058686
 21
18.6872311818460801
 31
0.0
  0
LINE
  5
519C
  8
0
 10
906.3520433445522713
 20
21.4795653865447491
 30
0.0
 11
906.4527824735523609
 21
21.4595832785447591
 31
0.0
  0
ARC
  5
519D
  8
0
 10
902.7170395813714094
 20
25.070902971420729
 30
0.0
 40
2.73148085866681
 50
252.5313313379699878
 51
256.6713494367879207
  0
LINE
  5
519E
  8
0
 10
901.8970921064523054
 20
22.4653946103447097
 30
0.0
 11
901.8749608677524066
 21
22.4671188392447085
 31
0.0
  0
ARC
  5
519F
  8
0
 10
901.757879528846388
 20
22.0980664155357189
 30
0.0
 40
0.3871791980020311
 50
37.2270465577931304
 51
72.3984463929962772
  0
ARC
  5
51A0
  8
0
 10
901.780384206145186
 20
22.0926752540318709
 30
0.0
 40
0.390564274562295
 50
37.497075335611882
 51
72.469844065691376
  0
ARC
  5
51A1
  8
0
 10
907.769554598590048
 20
22.3069324522492387
 30
0.0
 40
0.6523894383198579
 50
209.3928162802070005
 51
266.541897821404973
  0
LINE
  5
51A2
  8
0
 10
894.5126199815077825
 20
32.3826034628801978
 30
0.0
 11
894.6896796095523996
 21
21.6101545226447094
 31
0.0
  0
ARC
  5
51A3
  8
0
 10
894.0449170785959723
 20
21.599556986788059
 30
0.0
 40
0.6448496174236757
 50
331.7715545447265981
 51
0.9416480937560266
  0
LINE
  5
51A4
  8
0
 10
895.5621494737091552
 20
37.5476220087447103
 30
0.0
 11
923.5394219190521881
 21
37.5476220087447103
 31
0.0
  0
ENDSEC
  0
EOF
