  0
SECTION
  2
HEADER
  9
$ACADVER
  1
AC1009
  9
$INSBASE
 10
447.9849700504947805
 20
55.4990953814624675
 30
0.0
  9
$EXTMIN
 10
418.598419335971073
 20
55.4945366538903215
 30
-0.0000000349181948
  9
$EXTMAX
 10
448.0202514620294778
 20
72.1144094477855333
 30
0.0000000814935746
  9
$LIMMIN
 10
0.0
 20
0.0
  9
$LIMMAX
 10
11.6929133858000007
 20
8.2677165353999982
  9
$ORTHOMODE
 70
     1
  9
$REGENMODE
 70
     1
  9
$FILLMODE
 70
     1
  9
$QTEXTMODE
 70
     0
  9
$MIRRTEXT
 70
     0
  9
$DRAGMODE
 70
     2
  9
$LTSCALE
 40
0.6431102362
  9
$OSMODE
 70
    23
  9
$ATTMODE
 70
     1
  9
$TEXTSIZE
 40
0.2
  9
$TRACEWID
 40
0.05
  9
$TEXTSTYLE
  7
STANDARD
  9
$CLAYER
  8
0
  9
$CELTYPE
  6
BYLAYER
  9
$CECOLOR
 62
   256
  9
$DIMSCALE
 40
1.0
  9
$DIMASZ
 40
0.1875
  9
$DIMEXO
 40
0.0625
  9
$DIMDLI
 40
0.4443307087
  9
$DIMRND
 40
0.0
  9
$DIMDLE
 40
0.0
  9
$DIMEXE
 40
0.125
  9
$DIMTP
 40
0.01
  9
$DIMTM
 40
0.01
  9
$DIMTXT
 40
2.0
  9
$DIMCEN
 40
0.1052362205
  9
$DIMTSZ
 40
0.0
  9
$DIMTOL
 70
     1
  9
$DIMLIM
 70
     0
  9
$DIMTIH
 70
     1
  9
$DIMTOH
 70
     1
  9
$DIMSE1
 70
     0
  9
$DIMSE2
 70
     0
  9
$DIMTAD
 70
     0
  9
$DIMZIN
 70
     0
  9
$DIMBLK
  1

  9
$DIMASO
 70
     1
  9
$DIMSHO
 70
     1
  9
$DIMPOST
  1
\X
  9
$DIMAPOST
  1

  9
$DIMALT
 70
     1
  9
$DIMALTD
 70
     2
  9
$DIMALTF
 40
25.3999999999999986
  9
$DIMLFAC
 40
1.0
  9
$DIMTOFL
 70
     0
  9
$DIMTVP
 40
0.0
  9
$DIMTIX
 70
     0
  9
$DIMSOXD
 70
     0
  9
$DIMSAH
 70
     0
  9
$DIMBLK1
  1

  9
$DIMBLK2
  1

  9
$DIMSTYLE
  2
STANDARD
  9
$DIMCLRD
 70
     0
  9
$DIMCLRE
 70
     0
  9
$DIMCLRT
 70
     0
  9
$DIMTFAC
 40
1.0
  9
$DIMGAP
 40
0.09
  9
$LUNITS
 70
     2
  9
$LUPREC
 70
     4
  9
$SKETCHINC
 40
0.1
  9
$FILLETRAD
 40
0.0
  9
$AUNITS
 70
     0
  9
$AUPREC
 70
     0
  9
$MENU
  1
.
  9
$ELEVATION
 40
0.0
  9
$PELEVATION
 40
0.0
  9
$THICKNESS
 40
0.0
  9
$LIMCHECK
 70
     0
  9
$BLIPMODE
 70
     0
  9
$CHAMFERA
 40
0.0
  9
$CHAMFERB
 40
0.0
  9
$SKPOLY
 70
     0
  9
$TDCREATE
 40
2458106.4931018520146608
  9
$TDUPDATE
 40
2459704.483541666995734
  9
$TDINDWG
 40
0.2699985648
  9
$TDUSRTIMER
 40
0.2699985648
  9
$USRTIMER
 70
     1
  9
$ANGBASE
 50
0.0
  9
$ANGDIR
 70
     0
  9
$PDMODE
 70
     0
  9
$PDSIZE
 40
0.3125
  9
$PLINEWID
 40
0.0
  9
$COORDS
 70
     1
  9
$SPLFRAME
 70
     0
  9
$SPLINETYPE
 70
     6
  9
$SPLINESEGS
 70
     8
  9
$ATTDIA
 70
     1
  9
$ATTREQ
 70
     1
  9
$HANDLING
 70
     1
  9
$HANDSEED
  5
38B5
  9
$SURFTAB1
 70
     6
  9
$SURFTAB2
 70
     6
  9
$SURFTYPE
 70
     6
  9
$SURFU
 70
     6
  9
$SURFV
 70
     6
  9
$UCSNAME
  2

  9
$UCSORG
 10
0.0
 20
0.0
 30
0.0
  9
$UCSXDIR
 10
1.0
 20
0.0
 30
0.0
  9
$UCSYDIR
 10
0.0
 20
1.0
 30
0.0
  9
$PUCSNAME
  2

  9
$PUCSORG
 10
0.0
 20
0.0
 30
0.0
  9
$PUCSXDIR
 10
1.0
 20
0.0
 30
0.0
  9
$PUCSYDIR
 10
0.0
 20
1.0
 30
0.0
  9
$USERI1
 70
     0
  9
$USERI2
 70
     0
  9
$USERI3
 70
     0
  9
$USERI4
 70
     0
  9
$USERI5
 70
     0
  9
$USERR1
 40
0.0
  9
$USERR2
 40
0.0
  9
$USERR3
 40
0.0
  9
$USERR4
 40
0.0
  9
$USERR5
 40
0.0
  9
$WORLDVIEW
 70
     1
  9
$SHADEDGE
 70
     3
  9
$SHADEDIF
 70
    70
  9
$TILEMODE
 70
     1
  9
$MAXACTVP
 70
    64
  9
$PLIMCHECK
 70
     0
  9
$PEXTMIN
 10
1.0000000000000000E+20
 20
1.0000000000000000E+20
 30
1.0000000000000000E+20
  9
$PEXTMAX
 10
-1.0000000000000000E+20
 20
-1.0000000000000000E+20
 30
-1.0000000000000000E+20
  9
$PLIMMIN
 10
0.0
 20
0.0
  9
$PLIMMAX
 10
12.0
 20
9.0
  9
$UNITMODE
 70
     0
  9
$VISRETAIN
 70
     1
  9
$PLINEGEN
 70
     0
  9
$PSLTSCALE
 70
     1
  0
ENDSEC
  0
SECTION
  2
TABLES
  0
TABLE
  2
VPORT
 70
     1
  0
VPORT
  2
*ACTIVE
 70
     0
 10
0.0
 20
0.0
 11
1.0
 21
1.0
 12
159.7351338424871869
 22
81.4104337848594071
 13
0.0
 23
0.0
 14
1.0
 24
1.0
 15
0.0
 25
0.0
 16
-0.0000000000000568
 26
0.0
 36
193.9250709296327955
 17
273.5742015565131169
 27
-17.6059607340214797
 37
0.0
 40
16.7239638552348389
 41
2.005224660397074
 42
50.0
 43
0.0
 44
0.0
 50
0.0
 51
0.0
 71
     0
 72
   100
 73
     1
 74
     1
 75
     0
 76
     0
 77
     0
 78
     0
  0
ENDTAB
  0
TABLE
  2
LTYPE
 70
     2
  0
LTYPE
  2
CONTINUOUS
 70
     0
  3
Solid line
 72
    65
 73
     0
 40
0.0
  0
LTYPE
  2
PHANTOM2
 70
     0
  3
___ _ _ ___ _ _ ___ _ _ ___ _ _
 72
    65
 73
     6
 40
1.25
 49
0.625
 49
-0.125
 49
0.125
 49
-0.125
 49
0.125
 49
-0.125
  0
ENDTAB
  0
TABLE
  2
LAYER
 70
     2
  0
LAYER
  2
0
 70
     0
 62
   255
  6
CONTINUOUS
  0
LAYER
  2
DEFPOINTS
 70
     0
 62
     7
  6
CONTINUOUS
  0
ENDTAB
  0
TABLE
  2
STYLE
 70
     1
  0
STYLE
  2
STANDARD
 70
     0
 40
0.0
 41
0.8
 50
0.0
 71
     0
 42
0.2
  3
txt
  4

  0
ENDTAB
  0
TABLE
  2
VIEW
 70
     0
  0
ENDTAB
  0
TABLE
  2
UCS
 70
     0
  0
ENDTAB
  0
TABLE
  2
APPID
 70
     9
  0
APPID
  2
ACAD
 70
     0
  0
APPID
  2
ACAD_MLEADERVER
 70
     0
  0
APPID
  2
ACAD_EXEMPT_FROM_CAD_STANDARDS
 70
     0
  0
APPID
  2
ACAD_NAV_VCDISPLAY
 70
     0
  0
APPID
  2
ACAD_DSTYLE_DIMJAG
 70
     0
  0
APPID
  2
ACAD_DSTYLE_DIMTALN
 70
     0
  0
APPID
  2
ACAECLAYERSTANDARD
 70
     0
  0
APPID
  2
ACCMTRANSPARENCY
 70
     0
  0
APPID
  2
ACDBATTR
 70
     0
  0
ENDTAB
  0
TABLE
  2
DIMSTYLE
 70
     1
  0
DIMSTYLE
  2
STANDARD
 70
     0
  3

  4

  5

  6

  7

 40
1.0
 41
0.1875
 42
0.0625
 43
0.38
 44
0.125
 45
0.0
 46
0.0
 47
0.01
 48
0.01
140
0.15625
141
0.09
142
0.0
143
25.3999999999999986
144
1.0
145
0.0
146
1.0
147
0.09
 71
     1
 72
     0
 73
     1
 74
     1
 75
     0
 76
     0
 77
     0
 78
     4
170
     0
171
     2
172
     0
173
     0
174
     0
175
     0
176
     0
177
     0
178
     0
  0
ENDTAB
  0
ENDSEC
  0
SECTION
  2
BLOCKS
  0
BLOCK
  8
0
  2
$MODEL_SPACE
 70
     0
 10
0.0
 20
0.0
 30
0.0
  3
$MODEL_SPACE
  1

  0
ENDBLK
  5
21
  8
0
  0
BLOCK
 67
     1
  8
0
  2
$PAPER_SPACE
 70
     0
 10
0.0
 20
0.0
 30
0.0
  3
$PAPER_SPACE
  1

  0
ENDBLK
  5
1D
 67
     1
  8
0
  0
ENDSEC
  0
SECTION
  2
ENTITIES
  0
ATTDEF
  5
FAA
  8
DEFPOINTS
 10
447.9850538652112846
 20
55.5025235564421493
 30
0.0
 40
0.001
  1
71341120
  3

  2
MODELNUMBER
 70
     0
1001
ACDBATTR
1070
     0
1070
     1
  0
ATTDEF
  5
FAB
  8
DEFPOINTS
 10
447.9850538652112846
 20
55.5008568897754913
 30
0.0
 40
0.001
  1
PERFORMA2
  3

  2
TRADENAME
 70
     0
1001
ACDBATTR
1070
     0
1070
     1
  0
ATTDEF
  5
FAC
  8
DEFPOINTS
 10
447.9850538652112846
 20
55.499190223108819
 30
0.0
 40
0.001
  1
BATH
  3

  2
PRODUCT
 70
     0
1001
ACDBATTR
1070
     0
1070
     1
  0
LINE
  5
3629
  8
0
 10
418.6177406471946938
 20
55.4990953814624675
 30
0.0
 11
418.8865070776416815
 21
55.4990953814624675
 31
0.0
  0
LINE
  5
362A
  8
0
 10
419.8237629268945739
 20
72.0780418169624966
 30
0.0
 11
418.8695905160947177
 21
71.169288012862495
 31
0.0
  0
ARC
  5
362B
  8
0
 10
418.8909700506108038
 20
71.1468399503386593
 30
0.0
 40
0.0310000001162093
 50
133.6033909339479919
 51
179.9999999559261141
  0
LINE
  5
362C
  8
0
 10
418.8599700504947805
 20
71.1468399503624767
 30
0.0
 11
418.8599700504947805
 21
70.2490953814624532
 31
0.0
  0
ARC
  5
362D
  8
0
 10
419.9099707745808132
 20
71.9875254815347034
 30
0.0
 40
0.1249999999277856
 50
89.9999999936295438
 51
133.60342105812569
  0
LINE
  5
362E
  8
0
 10
419.9099707745808132
 20
72.1125254814624839
 30
0.0
 11
447.9849700504947805
 21
72.1125254814624839
 31
0.0
  0
ARC
  5
362F
  8
0
 10
318.8599700503880854
 20
70.2490953814635475
 30
0.0
 40
100.0000000001065956
 50
358.999999999900524
 51
0.0
  0
LINE
  5
3630
  8
0
 10
418.8447395660946881
 20
68.5038547375624631
 30
0.0
 11
418.6177406471946938
 21
55.4990953814624675
 31
0.0
  0
LINE
  5
3631
  8
0
 10
418.9646451539434224
 20
65.9862670984828128
 30
0.0
 11
419.1285162761947163
 21
55.7530983102624873
 31
0.0
  0
ARC
  5
3632
  8
0
 10
418.8783216489015899
 20
55.7491866672634799
 30
0.0
 40
0.2502252035212654
 50
271.8746081441969977
 51
0.8957121860324516
  0
ARC
  5
3633
  8
0
 10
326.4974462563845918
 20
70.2490953812399823
 30
0.0
 40
92.5225237941102137
 50
358.9174433578023127
 51
0.000009462337652
  0
LINE
  5
3634
  8
0
 10
419.0034557360947929
 20
68.5010623805624732
 30
0.0
 11
418.9725306679764003
 21
66.8645059787446314
 31
0.0
  0
LINE
  5
3635
  8
0
 10
418.9725306679764003
 20
66.8645059787445746
 30
0.0
 11
418.9646451539434224
 21
65.9862670984827844
 31
0.0
  0
LINE
  5
3636
  8
0
 10
419.0199700504946918
 20
70.2490999233624649
 30
0.0
 11
419.0199719637947737
 21
70.4098120490624808
 31
0.0
  0
ARC
  5
3637
  8
0
 10
419.2701755295577186
 20
70.3964753454129379
 30
0.0
 40
0.2505587595450232
 50
87.0537454058698046
 51
176.9488270143316981
  0
LINE
  5
3638
  8
0
 10
421.2897091121947142
 20
70.541538577562477
 30
0.0
 11
419.2830540454946799
 21
70.6467029134624909
 31
0.0
  0
ARC
  5
3639
  8
0
 10
421.2880869894974012
 20
70.5105810461190003
 30
0.0
 40
0.0310000005664449
 50
30.0042803115596399
 51
87.000540385262596
  0
LINE
  5
363A
  8
0
 10
421.314932619494698
 20
70.5260830519625017
 30
0.0
 11
421.4146767957947191
 21
70.3533210708625063
 31
0.0
  0
ARC
  5
363B
  8
0
 10
421.7394363217043178
 20
70.5408210705799235
 30
0.0
 40
0.3749999994174265
 50
210.0000000015384956
 51
270.000000044368619
  0
LINE
  5
363C
  8
0
 10
421.739436321994674
 20
70.1658210711624832
 30
0.0
 11
422.2305037796948
 21
70.1658210711624832
 31
0.0
  0
ARC
  5
363D
  8
0
 10
422.2305037796948
 20
70.5408210697972606
 30
0.0
 40
0.3749999986347632
 50
270.0
 51
330.0000000498607733
  0
LINE
  5
363E
  8
0
 10
422.5552633050946838
 20
70.3533210707624903
 30
0.0
 11
422.6190872640946736
 21
70.463867410462484
 31
0.0
  0
ARC
  5
363F
  8
0
 10
422.6460280998215921
 20
70.4483131116994059
 30
0.0
 40
0.0311085975201939
 50
88.1462884297444162
 51
149.9999999936719064
  0
ARC
  5
3640
  8
0
 10
424.5627678522951101
 20
126.1335734403815962
 30
0.0
 40
55.6871300364191626
 50
268.0285372247996065
 51
270.000744360998624
  0
LINE
  5
3641
  8
0
 10
424.5634913144440929
 20
70.4464434086619065
 30
0.0
 11
439.2905280127947094
 21
70.4464434084624997
 31
0.0
  0
ARC
  5
3642
  8
0
 10
419.5623536239630766
 20
69.1818904320116417
 30
0.0
 40
0.549343127743417
 50
87.3769990908012488
 51
176.1820043224232109
  0
LINE
  5
3643
  8
0
 10
420.0578727979947189
 20
69.6047240372624856
 30
0.0
 11
419.2381698019946725
 21
68.8404271867624686
 31
0.0
  0
LINE
  5
3644
  8
0
 10
419.2381698019946725
 20
68.8404271867624686
 30
0.0
 11
419.2114830500589164
 21
69.6045814685466695
 31
0.0
  0
LINE
  5
3645
  8
0
 10
419.2381698019946725
 20
68.8404271867624686
 30
0.0
 11
418.9997707394143163
 21
68.3060521421063811
 31
0.0
  0
LINE
  5
3646
  8
0
 10
420.1449700504946918
 20
70.8671518877206665
 30
0.0
 11
420.1449700504946918
 21
70.7659215092624834
 31
0.0
  0
ARC
  5
3647
  8
0
 10
419.9889700504947996
 20
70.7659215092624834
 30
0.0
 40
0.1559999999999981
 50
266.99999999808648
 51
0.0000000000032569
  0
ARC
  5
3648
  8
0
 10
420.1545694296746092
 20
70.8553191796406736
 30
0.0
 40
0.0152368323856063
 50
113.1847016408272992
 51
129.0509688281437946
  0
LINE
  5
3649
  8
0
 10
420.1403443656947161
 20
70.8698479720625016
 30
0.0
 11
447.9489578257079074
 21
70.8698479720625016
 31
0.0
  0
ARC
  5
364A
  8
0
 10
439.2827710685564284
 20
70.4021153881552664
 30
0.0
 40
0.0450015951747679
 50
39.4942661581143923
 51
80.0743305370504146
  0
LINE
  5
364B
  8
0
 10
439.3174982700946885
 20
70.4307364475624809
 30
0.0
 11
439.3992298693946736
 21
70.2891731650624934
 31
0.0
  0
ARC
  5
364C
  8
0
 10
439.7239893941637092
 20
70.4766731642044988
 30
0.0
 40
0.3749999981420014
 50
210.0000000125278063
 51
270.0000001575095894
  0
LINE
  5
364D
  8
0
 10
439.7239893951946783
 20
70.1016731660625112
 30
0.0
 11
440.2459507057947121
 21
70.1016731660625112
 31
0.0
  0
ARC
  5
364E
  8
0
 10
440.2459507057947121
 20
70.4766731658893093
 30
0.0
 40
0.3749999998267981
 50
270.0
 51
330.0000000152789994
  0
LINE
  5
364F
  8
0
 10
440.5707102319947239
 20
70.2891731657624916
 30
0.0
 11
440.6524418307947144
 21
70.4307364475624809
 31
0.0
  0
ARC
  5
3650
  8
0
 10
440.67964862749551
 20
70.4150285961739542
 30
0.0
 40
0.0314157027927787
 50
90.4314031034653567
 51
150.000000016568805
  0
LINE
  5
3651
  8
0
 10
440.679412088194681
 20
70.4464434084624997
 30
0.0
 11
444.8432931226947176
 21
70.4464434082624678
 31
0.0
  0
ARC
  5
3652
  8
0
 10
444.8432931270547783
 20
161.220084706246098
 30
0.0
 40
90.7736412979835734
 50
269.9999999972479259
 51
271.6727126684575069
  0
ARC
  5
3653
  8
0
 10
447.4850551811952073
 20
70.6427994567441999
 30
0.0
 40
0.1578748767785427
 50
272.8822034740304048
 51
346.3486167364837911
  0
LINE
  5
3654
  8
0
 10
447.638470050494675
 20
70.8698479720625016
 30
0.0
 11
447.638470050494675
 21
70.2648851134624977
 31
0.0
  0
ARC
  5
3655
  8
0
 10
447.4824700504947259
 20
70.2648851134624977
 30
0.0
 40
0.1559999999999917
 50
269.9999999999968168
 51
0.0
  0
LINE
  5
3656
  8
0
 10
447.4824700504947259
 20
70.1088851134624917
 30
0.0
 11
447.3432717819947015
 21
70.1088851134624917
 31
0.0
  0
ARC
  5
3657
  8
0
 10
447.3432717819947015
 20
70.2968862567301755
 30
0.0
 40
0.1880011432676696
 50
186.0003137239164914
 51
270.0
  0
LINE
  5
3658
  8
0
 10
447.1563006362948158
 20
70.2772337623624992
 30
0.0
 11
447.1417925644947218
 21
70.4152688451625011
 31
0.0
  0
ARC
  5
3659
  8
0
 10
447.1103115874763034
 20
70.4116860610486981
 30
0.0
 40
0.0316841956823672
 50
6.4927769306895566
 51
84.1604983612333655
  0
ARC
  5
365A
  8
0
 10
447.9359700504946886
 20
70.9170953814625733
 30
0.0
 40
0.0490000000000826
 50
285.37031820392599
 51
359.9999290232880753
  0
LINE
  5
365B
  8
0
 10
447.9849700504947805
 20
70.9170953207624848
 30
0.0
 11
447.9849700504947805
 21
72.1125254814624839
 31
0.0
  0
LINE
  5
365D
  8
0
 10
429.1906357088437858
 20
55.4990953814577708
 30
0.0
 11
429.3070402336409757
 21
55.4990953814577708
 31
0.0
  0
LINE
  5
365E
  8
0
 10
430.5924795836407952
 20
55.4990953814577708
 30
0.0
 11
431.1238032516407088
 21
55.4990953814577708
 31
0.0
  0
LINE
  5
365F
  8
0
 10
433.4141557133409037
 20
55.4990953814577708
 30
0.0
 11
434.2900176695583809
 21
55.4990953814577708
 31
0.0
  0
LINE
  5
3660
  8
0
 10
436.5961368494407111
 20
55.4990953814577708
 30
0.0
 11
437.1274605174407952
 21
55.4990953814577708
 31
0.0
  0
LINE
  5
3661
  8
0
 10
439.4368944487852104
 20
55.4990953814577708
 30
0.0
 11
440.2698744144007037
 21
55.4990953814577708
 31
0.0
  0
ARC
  5
3662
  8
0
 10
104.7693772900890963
 20
18.5999541131545705
 30
0.0
 40
320.7768684502602241
 50
8.4755613676720838
 51
8.9829794208808469
  0
ARC
  5
3663
  8
0
 10
280.6873998675931148
 20
44.1467752402926905
 30
0.0
 40
143.0163193944109992
 50
8.0023174028320323
 51
8.7400969263849717
  0
ARC
  5
3664
  8
0
 10
337.9546386323830802
 20
52.706599816732691
 30
0.0
 40
85.1165765816863029
 50
6.4616432698716526
 51
7.6629697656028872
  0
ARC
  5
3665
  8
0
 10
463.9417434073392883
 20
67.2936986050900714
 30
0.0
 40
41.712985824759599
 50
186.8958212729397985
 51
190.6362798315402074
  0
ARC
  5
3666
  8
0
 10
425.7188238117832952
 20
60.1010430950151928
 30
0.0
 40
2.819246976737769
 50
190.3491127067647994
 51
214.9745042890403965
  0
ARC
  5
3667
  8
0
 10
426.0904750729860098
 20
60.4976030577562796
 30
0.0
 40
3.3529616449530568
 50
216.8871758320887864
 51
243.2240731262160978
  0
ARC
  5
3668
  8
0
 10
423.978287893717777
 20
56.6993445939734926
 30
0.0
 40
1.004857022979958
 50
43.9357638771698475
 51
53.2187550332351123
  0
ARC
  5
3669
  8
0
 10
423.8542277819341848
 20
56.7931709057475516
 30
0.0
 40
1.0405233398961999
 50
32.2554312158525178
 51
35.4354157197206234
  0
ARC
  5
366A
  8
0
 10
426.4257370539021963
 20
58.4123022740399733
 30
0.0
 40
1.998267776982446
 50
212.1654480046167919
 51
221.6113756936622963
  0
ARC
  5
366B
  8
0
 10
426.5269906843482772
 20
58.2979052673170912
 30
0.0
 40
2.0038355897303188
 50
217.238950560193814
 51
237.9372248712043074
  0
ARC
  5
366C
  8
0
 10
426.8014394307551242
 20
58.1506216637376312
 30
0.0
 40
2.0046267784054308
 50
243.1999124315885012
 51
254.0780450568734068
  0
ARC
  5
366D
  8
0
 10
427.0094385371280055
 20
58.0792371237975402
 30
0.0
 40
2.0051026225718629
 50
245.7366930864635037
 51
257.425535296318003
  0
ARC
  5
366E
  8
0
 10
427.2529330917549828
 20
58.0226297876859789
 30
0.0
 40
2.0184025557818219
 50
247.8259345426370999
 51
269.0812725415934779
  0
ARC
  5
366F
  8
0
 10
429.1906357088437858
 20
55.5480953812819891
 30
0.0
 40
0.0489999998052929
 50
183.9999558381717861
 51
270.0
  0
ARC
  5
3670
  8
0
 10
429.1960034242403026
 20
55.548095381459099
 30
0.0
 40
0.0490000000012714
 50
270.0000000006415917
 51
0.0003272860204096
  0
ARC
  5
3671
  8
0
 10
429.3070402336409757
 20
56.249123876057233
 30
0.0
 40
0.7500284945994028
 50
270.0
 51
304.4712830522103104
  0
ARC
  5
3672
  8
0
 10
430.56999992156301
 20
54.4095315872369696
 30
0.0
 40
1.4813762115001119
 50
105.8473776494178935
 51
124.4712830522098983
  0
ARC
  5
3673
  8
0
 10
435.5315571442525879
 20
328.2301169915492096
 30
0.0
 40
272.448362338632819
 50
268.8714414904929981
 51
268.9582478096288014
  0
ARC
  5
3674
  8
0
 10
435.5315571442525879
 20
328.2301169915492096
 30
0.0
 40
272.448362338632819
 50
269.071256772630818
 51
269.4616601979258235
  0
ARC
  5
3675
  8
0
 10
432.9695686937513983
 20
55.543320170535587
 30
0.0
 40
0.2504696867589318
 50
24.3082040786796085
 51
89.5069764209481349
  0
ARC
  5
3676
  8
0
 10
433.4265131484986
 20
55.7497172759948896
 30
0.0
 40
0.2509263641490051
 50
204.3082040786796085
 51
267.1771982130366041
  0
LINE
  5
3677
  8
0
 10
433.5827961103166786
 20
56.1750956613578083
 30
0.0
 11
433.6025500205407752
 21
55.5466098801577886
 31
0.0
  0
ARC
  5
3678
  8
0
 10
433.2634097452786932
 20
55.5359503763928473
 30
0.0
 40
0.3393077531170338
 50
353.7643334319988071
 51
1.8002685669148271
  0
LINE
  5
3679
  8
0
 10
434.0899089837819247
 20
56.1750956613578083
 30
0.0
 11
434.1141261128407791
 21
55.5445977854577606
 31
0.0
  0
ARC
  5
367A
  8
0
 10
434.5462314569812179
 20
55.5611947499933692
 30
0.0
 40
0.4324239674977531
 50
182.1996228716789119
 51
188.256656748711805
  0
ARC
  5
367B
  8
0
 10
439.4371552512714061
 20
55.7487733109392209
 30
0.0
 40
0.249678065692749
 50
191.9401501299903998
 51
269.9401513928664258
  0
ARC
  5
367C
  8
0
 10
434.287755687843628
 20
55.7492963971965807
 30
0.0
 40
0.2502112404309586
 50
270.5179774130018018
 51
335.7339706662241952
  0
ARC
  5
367D
  8
0
 10
434.7437775606729247
 20
55.5435158323580183
 30
0.0
 40
0.2500902926836411
 50
90.4422174672697281
 51
155.6913210400136052
  0
ARC
  5
367E
  8
0
 10
431.5046743939059866
 20
371.751647853656209
 30
0.0
 40
315.974632096893572
 50
270.5870078595023074
 51
270.9207527996164231
  0
ARC
  5
367F
  8
0
 10
431.5046743939059866
 20
371.751647853656209
 30
0.0
 40
315.974632096893572
 50
271.018078624229986
 51
271.5038624921622272
  0
ARC
  5
3680
  8
0
 10
438.9299716515927798
 20
55.658079385095462
 30
0.0
 40
0.2657900081863621
 50
8.4459077137267435
 51
52.2171943638322418
  0
LINE
  5
3681
  8
0
 10
436.5396650493407833
 20
56.7925125288577988
 30
0.0
 11
436.5961368494407111
 21
55.4990953814577708
 31
0.0
  0
LINE
  5
3682
  8
0
 10
437.0932133189767796
 20
56.8069178108967705
 30
0.0
 11
437.1274605174407952
 21
55.4990953814577708
 31
0.0
  0
LINE
  5
3683
  8
0
 10
431.0898790122407718
 20
56.7945861043577978
 30
0.0
 11
431.1238032516407088
 21
55.4990953814577708
 31
0.0
  0
LINE
  5
3684
  8
0
 10
430.5353493521407131
 20
56.8076057015577902
 30
0.0
 11
430.5924795836407952
 21
55.4990953814577708
 31
0.0
  0
ARC
  5
3685
  8
0
 10
440.2698744144076954
 20
55.7490903693192195
 30
0.0
 40
0.2499949878614447
 50
269.9999999983813268
 51
348.183550037068585
  0
ARC
  5
3686
  8
0
 10
440.7736126683407178
 20
55.7566178860578106
 30
0.0
 40
0.249977552399925
 50
103.7604037257915053
 51
127.7322638344957966
  0
ARC
  5
3687
  8
0
 10
440.2120349250322988
 20
58.0392337351579997
 30
0.0
 40
2.100704354416151
 50
283.8289083680833187
 51
287.3410678423687727
  0
ARC
  5
3688
  8
0
 10
440.7635941002895947
 20
58.0917239416237905
 30
0.0
 40
2.0174607686768731
 50
282.329930537122209
 51
292.8658459041188848
  0
ARC
  5
3689
  8
0
 10
440.5206019977235883
 20
58.0248873033544328
 30
0.0
 40
2.0197937938652171
 50
278.3321818161559236
 51
290.3389109587993175
  0
ARC
  5
368A
  8
0
 10
440.9652700303292931
 20
58.1531664870611777
 30
0.0
 40
2.0066960097772402
 50
286.8674007296589821
 51
297.9629832264953961
  0
ARC
  5
368B
  8
0
 10
444.199886842528997
 20
56.6027936446738025
 30
0.0
 40
1.379008602673331
 50
143.2101004787026
 51
147.2721805469545018
  0
ARC
  5
368C
  8
0
 10
441.1204229230166902
 20
58.2220404113713172
 30
0.0
 40
2.0019519657318399
 50
293.1108550678471829
 51
305.222197461749488
  0
ARC
  5
368D
  8
0
 10
440.2676290837022748
 20
55.7491058509990509
 30
0.0
 40
0.2500205519356295
 50
270.5145565073034959
 51
351.9982712869219768
  0
ARC
  5
368E
  8
0
 10
441.437000111460577
 20
60.9158818544901521
 30
0.0
 40
3.833330994757727
 50
296.3195307648783228
 51
312.4434341370625816
  0
ARC
  5
368F
  8
0
 10
442.2083062961210089
 20
60.0352084840585505
 30
0.0
 40
2.6630369534441889
 50
312.984597840591789
 51
349.8668574393254858
  0
ARC
  5
3690
  8
0
 10
1233.0644897308920918
 20
-56.8744849617441588
 30
0.0
 40
796.7528514509916704
 50
170.8611649762586921
 51
171.1345022277720034
  0
ARC
  5
3691
  8
0
 10
593.9097994836529324
 20
41.9811572902209988
 30
0.0
 40
150.001349208548902
 50
170.8178481811405902
 51
171.5107054868670957
  0
ARC
  5
3692
  8
0
 10
596.7967230374526935
 20
42.7950237155697479
 30
0.0
 40
152.741457034914788
 50
171.9725272627698871
 51
172.6590786188309039
  0
ARC
  5
3693
  8
0
 10
368.8904908620547758
 20
74.1900836923117595
 30
0.0
 40
77.3344884930784104
 50
349.1001506004511157
 51
351.1642039046275272
  0
ARC
  5
3694
  8
0
 10
446.7184485553236755
 20
69.6243729110854019
 30
0.0
 40
0.2969157617001796
 50
153.0151833711344125
 51
170.8441291140684086
  0
ARC
  5
3695
  8
0
 10
474.9745969281985936
 20
55.1768887913492989
 30
0.0
 40
32.0323800254547493
 50
151.6952454009511086
 51
152.9200440368987017
  0
ARC
  5
3696
  8
0
 10
446.8849570769334036
 20
70.302589417285958
 30
0.0
 40
0.1291842165702363
 50
99.066138195207273
 51
150.9068062507066941
  0
LINE
  5
3697
  8
0
 10
420.0578727979947189
 20
69.6047240372624714
 30
0.0
 11
421.8906794851408222
 21
69.508677028857818
 31
0.0
  0
LINE
  5
3698
  8
0
 10
419.5874937698947065
 20
69.7306580012624693
 30
0.0
 11
423.221366828340706
 21
69.5402150640578043
 31
0.0
  0
LINE
  5
3699
  8
0
 10
421.8797863265987189
 20
69.509247879208516
 30
0.0
 11
422.5574460441408178
 21
68.8919601270578141
 31
0.0
  0
LINE
  5
369A
  8
0
 10
422.5574460441408178
 20
68.8919601270578141
 30
0.0
 11
422.8739462265407951
 21
68.2949091087577926
 31
0.0
  0
LINE
  5
369B
  8
0
 10
422.8739462265407951
 20
68.2949091087577926
 30
0.0
 11
422.8850090928407894
 21
68.2942787367578035
 31
0.0
  0
LINE
  5
369C
  8
0
 10
422.8850090928407894
 20
68.2942787367578035
 30
0.0
 11
422.7065680403663919
 21
69.5671945253008062
 31
0.0
  0
LINE
  5
369D
  8
0
 10
421.8906794785407897
 20
69.5086770258577928
 30
0.0
 11
421.8871353849607999
 21
69.6101391710229223
 31
0.0
  0
LINE
  5
369E
  8
0
 10
421.5935536535836263
 20
69.5242477546935334
 30
0.0
 11
421.7812795952407896
 21
68.383069964957798
 31
0.0
  0
LINE
  5
369F
  8
0
 10
421.7812795952407896
 20
68.383069964957798
 30
0.0
 11
421.7782855913408184
 21
68.3832517204577925
 31
0.0
  0
LINE
  5
36A0
  8
0
 10
421.7782855913408184
 20
68.3832517204577925
 30
0.0
 11
421.4583539350408046
 21
68.9659391426577741
 31
0.0
  0
LINE
  5
36A1
  8
0
 10
421.4583539350408046
 20
68.9659391426577741
 30
0.0
 11
420.7869459993669921
 21
69.56651744384979
 31
0.0
  0
ARC
  5
36A2
  8
0
 10
426.2727865039178141
 20
60.8344605013068218
 30
0.0
 40
3.735847578318825
 50
243.0552457619243967
 51
246.3425971293316081
  0
ARC
  5
36A3
  8
0
 10
424.2470033079611085
 20
56.5567850754240666
 30
0.0
 40
1.0048836269275421
 50
32.0267775118714795
 51
62.6925452230899722
  0
ARC
  5
36A4
  8
0
 10
426.7998651524648039
 20
58.1526961475617981
 30
0.0
 40
2.005769988513828
 50
212.003640022857212
 51
243.266770474436413
  0
ARC
  5
36A5
  8
0
 10
423.9705395942164046
 20
56.6942593455533128
 30
0.0
 40
1.0139665701191629
 50
32.1461495981109024
 51
43.8389008666569922
  0
ARC
  5
36A6
  8
0
 10
426.5701932610118092
 20
58.3277627325837784
 30
0.0
 40
2.0562993000669612
 50
212.1420056885521888
 51
217.1728153026344899
  0
ARC
  5
36A7
  8
0
 10
425.9765610607202007
 20
59.9281207761977512
 30
0.0
 40
2.7842204060163009
 50
242.8950362957222922
 51
250.1226274178943072
  0
ARC
  5
36A8
  8
0
 10
424.4532468787057837
 20
56.485372398540477
 30
0.0
 40
1.00606965843939
 50
32.0144326478606374
 51
62.6756116448358185
  0
ARC
  5
36A9
  8
0
 10
427.010720461169285
 20
58.0839026662081821
 30
0.0
 40
2.0098829630942681
 50
212.0034951000218086
 51
245.7580313564338041
  0
ARC
  5
36AA
  8
0
 10
424.0869607772377776
 20
56.6294170100229834
 30
0.0
 40
1.0033968818464429
 50
33.0860118282170532
 51
56.965141725395398
  0
ARC
  5
36AB
  8
0
 10
426.6405830971531259
 20
58.2288388793705565
 30
0.0
 40
2.01000481840989
 50
211.5483369363138877
 51
248.3421280134847962
  0
ARC
  5
36AC
  8
0
 10
426.1918308664411938
 20
59.8886584676589493
 30
0.0
 40
2.815597663401233
 50
243.0338990025036026
 51
251.5516311156594895
  0
ARC
  5
36AD
  8
0
 10
424.6824652560828213
 20
56.4103366167737121
 30
0.0
 40
1.017009488852721
 50
32.4037045038363516
 51
62.5023925422196882
  0
ARC
  5
36AE
  8
0
 10
427.249435128907578
 20
58.0156661767952926
 30
0.0
 40
2.010633848896497
 50
211.8274293540652025
 51
247.8433470044051887
  0
ARC
  5
36AF
  8
0
 10
426.4462821412400899
 20
59.8721119381564222
 30
0.0
 40
2.868263096998481
 50
243.1772505117002083
 51
252.8434155834852959
  0
ARC
  5
36B0
  8
0
 10
424.9506907401884064
 20
56.3575689454040472
 30
0.0
 40
1.0103406867405991
 50
31.9212636451946992
 51
62.5556800812988527
  0
ARC
  5
36B1
  8
0
 10
427.5158883751144003
 20
57.9528593602893523
 30
0.0
 40
2.010452769239683
 50
211.8553327779009976
 51
238.8249067160805907
  0
ARC
  5
36B2
  8
0
 10
427.127400494345693
 20
57.1797637369940688
 30
0.0
 40
1.1498988102182881
 50
235.4441492925240027
 51
268.8520596423797997
  0
LINE
  5
36B3
  8
0
 10
427.2205697588407816
 20
56.0044867075577883
 30
0.0
 11
427.6153925478815268
 21
55.9986456391631577
 31
0.0
  0
ARC
  5
36B4
  8
0
 10
426.7053005433048156
 20
59.8094634425538416
 30
0.0
 40
2.8619498741271112
 50
243.2321003181176025
 51
257.7681240163701091
  0
ARC
  5
36B5
  8
0
 10
425.3657917251899789
 20
56.2898100092588081
 30
0.0
 40
1.0294516029172129
 50
31.8796160625558116
 51
62.7905690373249215
  0
ARC
  5
36B6
  8
0
 10
427.9484506567122821
 20
57.9246611753436795
 30
0.0
 40
2.0272073940950479
 50
212.5651266712193888
 51
234.640638765270694
  0
ARC
  5
36B7
  8
0
 10
427.8973060743985002
 20
57.8436851968091688
 30
0.0
 40
1.9315777195544841
 50
234.487856263673109
 51
245.2909926228431061
  0
ARC
  5
36B8
  8
0
 10
427.3876625926467909
 20
56.8111386872438189
 30
0.0
 40
0.7811626145663875
 50
247.5922899072403141
 51
269.34338136442409
  0
ARC
  5
36B9
  8
0
 10
427.4190379789001213
 20
60.6009942198140834
 30
0.0
 40
3.7463129771054291
 50
245.0122324369552871
 51
251.9150573460611895
  0
ARC
  5
36BA
  8
0
 10
427.1285399028005827
 20
59.7641114945851726
 30
0.0
 40
2.8606429029353362
 50
252.2426536715198893
 51
267.7924767129936754
  0
ARC
  5
36BB
  8
0
 10
429.3739340533632003
 20
103.373263394655595
 30
0.0
 40
46.5273392497383469
 50
267.0979921202966807
 51
268.4119812986554052
  0
ARC
  5
36BC
  8
0
 10
428.0820375137354858
 20
56.8088937615184122
 30
0.0
 40
0.0549570619000894
 50
9.0087353816051206
 51
87.3899003805152716
  0
ARC
  5
36BD
  8
0
 10
427.3665475628375248
 20
55.0300713209311922
 30
0.0
 40
1.0000300178094921
 50
64.5003181312125804
 51
89.303116346420822
  0
ARC
  5
36BE
  8
0
 10
428.0124066411369199
 20
56.3841623864193693
 30
0.0
 40
0.5002021517751912
 50
244.5003181312094966
 51
268.6633270355580976
  0
LINE
  5
36BF
  8
0
 10
427.1043634233408284
 20
56.0300957122578112
 30
0.0
 11
427.3739942607853095
 21
56.0300956621163166
 31
0.0
  0
LINE
  5
36C0
  8
0
 10
428.0007383114407844
 20
55.8840963480578026
 30
0.0
 11
428.2179093841162967
 21
55.8788620262174831
 31
0.0
  0
ARC
  5
36C1
  8
0
 10
428.2484404352562137
 20
55.9172570449377488
 30
0.0
 40
0.0490542816299739
 50
183.5756686731793081
 51
267.3968634462303271
  0
LINE
  5
36C2
  8
0
 10
428.1994816474407912
 20
55.9141976917577992
 30
0.0
 11
428.1363166516408114
 21
56.8174992156578114
 31
0.0
  0
LINE
  5
36C3
  8
0
 10
428.1994816474407912
 20
55.9141976917577992
 30
0.0
 11
428.1626252956406802
 21
56.9846652456578084
 31
0.0
  0
ARC
  5
36C4
  8
0
 10
428.6103266210009224
 20
56.9866617799218673
 30
0.0
 40
0.4477057771329688
 50
160.7590351341069947
 51
180.2555101407760958
  0
ARC
  5
36C5
  8
0
 10
427.7037302118864091
 20
57.0248211007408372
 30
0.0
 40
0.4134562149273657
 50
337.0787004021253779
 51
355.070269612918878
  0
ARC
  5
36C6
  8
0
 10
429.3822548715879179
 20
56.8800433604054518
 30
0.0
 40
1.2713006302354339
 50
172.9493012699180952
 51
175.0702696129187927
  0
ARC
  5
36C7
  8
0
 10
428.2491220636200069
 20
57.0201924653703429
 30
0.0
 40
0.1295336959989295
 50
118.3414152824160936
 51
172.9493012699172994
  0
LINE
  5
36C8
  8
0
 10
428.1876292415407192
 20
57.1341995319577975
 30
0.0
 11
428.3378197805408263
 21
57.131565018057799
 31
0.0
  0
ARC
  5
36C9
  8
0
 10
429.5024097638859075
 20
57.0875755541324921
 30
0.0
 40
1.165420483020712
 50
177.8368241076022116
 51
186.5733138276557099
  0
LINE
  5
36CA
  8
0
 10
428.3446505323407223
 20
56.9541646699577981
 30
0.0
 11
428.3561739209408188
 21
56.8562246734578025
 31
0.0
  0
ARC
  5
36CB
  8
0
 10
428.6561450289767095
 20
56.9025308087692423
 30
0.0
 40
0.3921577528969242
 50
144.2655597674950911
 51
175.127357088379398
  0
LINE
  5
36CC
  8
0
 10
428.2654045472407915
 20
56.9358411538578011
 30
0.0
 11
428.3027725521407092
 21
55.8657468059578122
 31
0.0
  0
LINE
  5
36CD
  8
0
 10
428.3027725521407092
 20
55.8657468059578122
 30
0.0
 11
428.3027742909408175
 21
56.8044058273577903
 31
0.0
  0
ARC
  5
36CE
  8
0
 10
428.3565096942621722
 20
56.8024549153781706
 30
0.0
 40
0.0537708064628592
 50
90.3577874405656161
 51
177.920738621418991
  0
LINE
  5
36CF
  8
0
 10
428.2462125038406953
 20
55.868253383157807
 30
0.0
 11
428.3027725521407092
 21
55.8657468059578122
 31
0.0
  0
LINE
  5
36D0
  8
0
 10
428.3027725720381227
 20
55.8764880111735067
 30
0.0
 11
430.1654719155840212
 21
55.8346044177888317
 31
0.0
  0
ARC
  5
36D1
  8
0
 10
421.2130346256425923
 20
-238.7735531559310118
 30
0.0
 40
295.7160631052121857
 50
88.3848748238415141
 51
88.6158629978179135
  0
ARC
  5
36D2
  8
0
 10
429.030258976171524
 20
55.8350117990228085
 30
0.0
 40
1.0038058165199051
 50
43.65015404811097
 51
88.3774679468597668
  0
ARC
  5
36D3
  8
0
 10
430.4806683578202069
 20
57.2175956875783527
 30
0.0
 40
1.000000026220536
 50
223.6068242445213912
 51
270.0000000015502906
  0
ARC
  5
36D4
  8
0
 10
429.1942596538394241
 20
55.9713690650033371
 30
0.0
 40
0.9236036426221753
 50
39.0668798469598002
 51
78.5703923573027225
  0
ARC
  5
36D5
  8
0
 10
430.6148661022153874
 20
57.1209198576749628
 30
0.0
 40
0.9038529530345797
 50
218.8905910920987878
 51
266.5873463410708268
  0
LINE
  5
36D6
  8
0
 10
429.3772845259406949
 20
56.8766566352578025
 30
0.0
 11
429.4304063935408067
 21
56.8864820491577987
 31
0.0
  0
ARC
  5
36D7
  8
0
 10
429.2299368492829217
 20
55.9796921292531167
 30
0.0
 40
0.9286850903377807
 50
38.6279337822484976
 51
77.5337872602852514
  0
ARC
  5
36D8
  8
0
 10
430.666809221503911
 20
57.1254799791034102
 30
0.0
 40
0.909094983847315
 50
218.5097819481875092
 51
263.309366419172477
  0
ARC
  5
36D9
  8
0
 10
430.0517342280954836
 20
59.8443631049814186
 30
0.0
 40
3.0224342206891408
 50
258.1370148259321127
 51
268.0661965361589978
  0
ARC
  5
36DA
  8
0
 10
431.0953876589982769
 20
90.7545514688365955
 30
0.0
 40
33.9502365540726814
 50
268.0661965361589978
 51
269.3608871845801218
  0
LINE
  5
36DB
  8
0
 10
430.7165495546407215
 20
56.8084844813578016
 30
0.0
 11
430.8081110466698078
 21
55.4990953814577708
 31
0.0
  0
LINE
  5
36DC
  8
0
 10
430.8081110466698078
 20
55.4990953814577708
 30
0.0
 11
430.7538497408220906
 21
57.0529330969576876
 31
0.0
  0
ARC
  5
36DD
  8
0
 10
430.718724343809015
 20
56.8083457977236108
 30
0.0
 40
0.002179206524518
 50
118.3110984584493934
 51
176.3512589743089052
  0
ARC
  5
36DE
  8
0
 10
430.7095848692827076
 20
56.8211092435662195
 30
0.0
 40
0.0135395214108383
 50
306.7760840918691088
 51
313.2196513653057082
  0
ARC
  5
36DF
  8
0
 10
430.7279794433401889
 20
56.8017989845013815
 30
0.0
 40
0.0131303172703698
 50
110.4678907187434049
 51
134.010097502625797
  0
ARC
  5
36E0
  8
0
 10
430.6918369431069209
 20
56.9434082016911987
 30
0.0
 40
0.1331014147424526
 50
283.7122145206290043
 51
288.4275778333201856
  0
ARC
  5
36E1
  8
0
 10
430.7318964536980843
 20
56.8225420527338017
 30
0.0
 40
0.0057732636838198
 50
290.4233940041081041
 51
324.0662971747310053
  0
ARC
  5
36E2
  8
0
 10
430.7237731833461112
 20
56.8278515480670876
 30
0.0
 40
0.0154735990755606
 50
325.7996640984263763
 51
355.252502780789996
  0
ARC
  5
36E3
  8
0
 10
426.6851592272706739
 20
57.3226249576535807
 30
0.0
 40
4.0842704498474331
 50
353.0239317989655774
 51
354.5501750418995925
  0
ARC
  5
36E4
  8
0
 10
429.3970338732502796
 20
57.0268741685751408
 30
0.0
 40
1.3570660876475911
 50
356.1064500538986977
 51
1.1002842092507921
  0
LINE
  5
36E5
  8
0
 10
430.7538497408220906
 20
57.0529330969576876
 30
0.0
 11
430.8539113670553888
 21
57.0529330969576876
 31
0.0
  0
ARC
  5
36E6
  8
0
 10
432.2540777461263133
 20
57.1213237019453075
 30
0.0
 40
1.4018356408406301
 50
182.7963685545763894
 51
187.7590842755643905
  0
ARC
  5
36E7
  8
0
 10
432.6334540908521262
 20
57.189504430211997
 30
0.0
 40
1.7870182371828141
 50
188.2829128635931113
 51
191.9399218477219904
  0
ARC
  5
36E8
  8
0
 10
430.8982049208883041
 20
56.8226925678194092
 30
0.0
 40
0.0134234076861021
 50
192.4637504357523028
 51
237.6753160996927932
  0
ARC
  5
36E9
  8
0
 10
430.9238422945772982
 20
56.9151675708489719
 30
0.0
 40
0.1088808985508183
 50
252.4591799737831934
 51
257.8674256560245794
  0
ARC
  5
36EA
  8
0
 10
430.8948355079247108
 20
56.7866236408338878
 30
0.0
 40
0.0229276694902818
 50
62.9143988934314535
 51
74.5112728719020936
  0
ARC
  5
36EB
  8
0
 10
430.9034119240367886
 20
56.8022102956854198
 30
0.0
 40
0.0051735637522091
 50
23.0656611175706416
 51
68.893223313630557
  0
LINE
  5
36EC
  8
0
 10
430.9081718948407911
 20
56.8042372243577915
 30
0.0
 11
430.9081725069407867
 21
55.4990953814577708
 31
0.0
  0
LINE
  5
36ED
  8
0
 10
430.9081725069407867
 20
55.4990953814577708
 30
0.0
 11
430.8539113670553888
 21
57.0529330969576876
 31
0.0
  0
LINE
  5
36EE
  8
0
 10
429.1417550679407782
 20
55.5446773517577981
 30
0.0
 11
429.1198373249106908
 21
55.8581159598830723
 31
0.0
  0
LINE
  5
36EF
  8
0
 10
429.1417550679407782
 20
55.5446773517577981
 30
0.0
 11
429.1270756440641208
 21
55.8579532031734303
 31
0.0
  0
LINE
  5
36F0
  8
0
 10
429.2450034242406787
 20
55.548095661357813
 30
0.0
 11
429.2450034242407924
 21
55.8553015464738181
 31
0.0
  0
LINE
  5
36F1
  8
0
 10
429.2450034242406787
 20
55.548095661357813
 30
0.0
 11
429.2365928124087873
 21
55.8554906626869681
 31
0.0
  0
ARC
  5
36F2
  8
0
 10
430.8226826707610826
 20
52.5277217500734181
 30
0.0
 40
4.2752222518557756
 50
86.4167461033967328
 51
88.8542120175132197
  0
LINE
  5
36F3
  8
0
 10
431.0899643184451975
 20
56.7913284514718626
 30
0.0
 11
431.2535992862120224
 21
56.78669021495012
 31
0.0
  0
ARC
  5
36F4
  8
0
 10
430.8929102380679979
 20
56.1663470395500326
 30
0.0
 40
0.7175808280023172
 50
31.5446422504812212
 51
73.6330791358293766
  0
ARC
  5
36F5
  8
0
 10
432.1723282723056059
 20
56.971522276283963
 30
0.0
 40
0.7941976999324742
 50
212.7605514215510141
 51
236.0219978580518898
  0
ARC
  5
36F6
  8
0
 10
432.0474527977145272
 20
56.7886322534799106
 30
0.0
 40
0.5727475877127787
 50
236.1561152474762935
 51
265.5701541284281006
  0
LINE
  5
36F7
  8
0
 10
431.0951155884408195
 20
56.8548492116578004
 30
0.0
 11
431.1870044808408124
 21
56.868083537757812
 31
0.0
  0
ARC
  5
36F8
  8
0
 10
430.9631915081865827
 20
56.1716527932886223
 30
0.0
 40
0.7315107849992103
 50
31.0912233929385202
 51
72.1840764000301505
  0
ARC
  5
36F9
  8
0
 10
431.7438729589625837
 20
58.9188533836163373
 30
0.0
 40
2.125031638025273
 50
254.8081532656414083
 51
265.7679458771801819
  0
ARC
  5
36FA
  8
0
 10
432.167759353073393
 20
56.8840061845191727
 30
0.0
 40
0.6679852988199252
 50
210.0601368160166089
 51
266.064962437958286
  0
LINE
  5
36FB
  8
0
 10
430.4806683578473212
 20
56.2175956613578123
 30
0.0
 11
430.5611094930172271
 21
56.2175956613578123
 31
0.0
  0
LINE
  5
36FC
  8
0
 10
431.1049883152822986
 20
56.2175956613578123
 30
0.0
 11
436.5647664564781962
 21
56.2175956613578123
 31
0.0
  0
LINE
  5
36FD
  8
0
 10
437.1086455612752957
 20
56.2175956613578123
 30
0.0
 11
437.160789810389474
 21
56.2175956613578123
 31
0.0
  0
ARC
  5
36FE
  8
0
 10
431.341216942926394
 20
48.6924609700939186
 30
0.0
 40
8.1108814520101991
 50
84.5159131555449932
 51
88.2631266002577917
  0
ARC
  5
36FF
  8
0
 10
431.9327777120860787
 20
55.8637329716768321
 30
0.0
 40
0.9209685669812127
 50
69.8561384239795586
 51
78.5013449195407702
  0
ARC
  5
3700
  8
0
 10
432.2977657395846904
 20
56.866240396931147
 30
0.0
 40
0.1459332128652693
 50
250.8691275958832989
 51
267.5584979723043944
  0
ARC
  5
3701
  8
0
 10
426.157388193203019
 20
-1029.7618085104290913
 30
0.0
 40
1086.4995644328851085
 50
89.6694708493173067
 51
89.6765176827668284
  0
LINE
  5
3702
  8
0
 10
432.3636271315406816
 20
57.2075349704578002
 30
0.0
 11
432.2488028387406871
 21
57.1803329319577998
 31
0.0
  0
ARC
  5
3703
  8
0
 10
431.1448069477651188
 20
56.4984772502147123
 30
0.0
 40
1.2975877997332199
 50
11.4226625570851397
 51
31.7005230427459992
  0
ARC
  5
3704
  8
0
 10
433.8875282968293163
 20
57.0852538435544616
 30
0.0
 40
1.5073555535983461
 50
192.6380291780035066
 51
205.6201191684417893
  0
ARC
  5
3705
  8
0
 10
433.0287331220799842
 20
56.6741792765223309
 30
0.0
 40
0.5552472770370411
 50
205.6910176840983127
 51
225.6055252371361064
  0
ARC
  5
3706
  8
0
 10
432.7956821783715782
 20
56.4361495744715924
 30
0.0
 40
0.2221243546469205
 50
225.6055252371361064
 51
259.7131130890199984
  0
ARC
  5
3707
  8
0
 10
431.1962448476486998
 20
56.5124403347626512
 30
0.0
 40
1.3586529907659879
 50
11.0100363959643506
 51
30.7708449639471091
  0
ARC
  5
3708
  8
0
 10
433.8226634658163903
 20
57.023441861808287
 30
0.0
 40
1.317014649001935
 50
191.0100363959643062
 51
206.247453044659494
  0
ARC
  5
3709
  8
0
 10
433.2319038279007941
 20
56.7321440951152525
 30
0.0
 40
0.6583407246124982
 50
206.2474530446604035
 51
222.0768364591893942
  0
ARC
  5
370A
  8
0
 10
432.9193778272583017
 20
56.4499846033198622
 30
0.0
 40
0.2372867139584997
 50
222.0768364591893942
 51
258.3386170581875945
  0
ARC
  5
370B
  8
0
 10
433.2821448910768822
 20
57.79992097274949
 30
0.0
 40
1.092975777542406
 50
212.8194630832095982
 51
226.4619442633585038
  0
ARC
  5
370C
  8
0
 10
433.1347207196138243
 20
57.5921202310926006
 30
0.0
 40
0.8415683413229348
 50
223.9918133016379898
 51
252.7094602091378022
  0
ARC
  5
370D
  8
0
 10
432.7911375667583798
 20
56.4339599443891231
 30
0.0
 40
0.3667299813934136
 50
52.8804146393905086
 51
75.236367974654982
  0
ARC
  5
370E
  8
0
 10
433.0489618960921234
 20
56.8005552787252128
 30
0.0
 40
0.0826717085491723
 50
243.7923832679065868
 51
271.11159228322731
  0
LINE
  5
370F
  8
0
 10
433.0505657047701789
 20
56.7178991283662484
 30
0.0
 11
433.7088323636435234
 21
56.7172423108030728
 31
0.0
  0
ARC
  5
3710
  8
0
 10
433.7089152561190986
 20
56.8003176670029077
 30
0.0
 40
0.0830753975548165
 50
269.9428303693006796
 51
289.9468579702087823
  0
LINE
  5
3711
  8
0
 10
432.2499394835407998
 20
56.7283667161578009
 30
0.0
 11
432.2672349483418088
 21
56.2175956613578123
 31
0.0
  0
LINE
  5
3712
  8
0
 10
433.0124519922406989
 20
56.7263822491578011
 30
0.0
 11
433.0203194716103212
 21
56.2175956613578123
 31
0.0
  0
LINE
  5
3713
  8
0
 10
433.7723408672408141
 20
56.2175956613578123
 30
0.0
 11
433.7315904669408155
 21
56.8037188308577896
 31
0.0
  0
ARC
  5
3714
  8
0
 10
436.8690662556510915
 20
56.917094907580001
 30
0.0
 40
3.1395236039114338
 50
179.5878453990378034
 51
182.0695443820710864
  0
ARC
  5
3715
  8
0
 10
435.455362711206817
 20
56.9458984473002801
 30
0.0
 40
1.7257500394076171
 50
175.6919663873592867
 51
180.2064980940027112
  0
ARC
  5
3716
  8
0
 10
431.6868863453581184
 20
57.1861068490110611
 30
0.0
 40
2.050585583482162
 50
356.90897280927868
 51
1.1949689766754159
  0
LINE
  5
3717
  8
0
 10
433.7350149192408253
 20
57.2864591286578033
 30
0.0
 11
433.8601748054408063
 21
57.2835840703577972
 31
0.0
  0
LINE
  5
3718
  8
0
 10
432.2801869850434855
 20
56.1750956613578083
 30
0.0
 11
435.436087260427314
 21
56.1750956613578083
 31
0.0
  0
ARC
  5
3719
  8
0
 10
432.2820199127921796
 20
56.2911892574885613
 30
0.0
 40
0.1161080646927772
 50
221.8563963718663956
 51
269.0954686318565905
  0
ARC
  5
371A
  8
0
 10
431.9724663942346865
 20
55.1928401217675528
 30
0.0
 40
1.025216744864732
 50
74.6097508648963128
 51
88.2813272157127358
  0
ARC
  5
371B
  8
0
 10
432.3441297928487188
 20
56.5431199699545104
 30
0.0
 40
0.3750098059276008
 50
240.6133714694333037
 51
254.0359759430616862
  0
ARC
  5
371C
  8
0
 10
432.1129614393040015
 20
55.3475251566335729
 30
0.0
 40
0.8701166094453912
 50
73.0442161514029777
 51
89.4101745355916648
  0
LINE
  5
371D
  8
0
 10
432.3667166965407773
 20
56.1798178836577975
 30
0.0
 11
432.3702585773407918
 21
56.1798178836577975
 31
0.0
  0
ARC
  5
371E
  8
0
 10
432.3997976434894781
 20
56.218061859839068
 30
0.0
 40
0.0483234740379494
 50
207.1369030294636104
 51
232.3180474427838931
  0
ARC
  5
371F
  8
0
 10
432.4627895377124105
 20
56.250988139193197
 30
0.0
 40
0.1194008060488165
 50
196.2403375422663032
 51
207.4104153981282934
  0
ARC
  5
3720
  8
0
 10
432.4734000237912142
 20
56.4580979226427004
 30
0.0
 40
0.2967792750063871
 50
234.1325058258759952
 51
249.6633276203627076
  0
ARC
  5
3721
  8
0
 10
432.5026228560423078
 20
55.6625834865992815
 30
0.0
 40
0.5553784346978694
 50
68.6413394375402532
 51
86.7201452637291652
  0
LINE
  5
3722
  8
0
 10
432.7048944166406841
 20
56.1798178836577975
 30
0.0
 11
432.711458241740786
 21
56.1798178836577975
 31
0.0
  0
ARC
  5
3723
  8
0
 10
432.6276260446796869
 20
56.239963189190199
 30
0.0
 40
0.1031760390869807
 50
324.3424986785178135
 51
347.4794393438378961
  0
ARC
  5
3724
  8
0
 10
433.1035569031229784
 20
56.0318863570477816
 30
0.0
 40
0.1864665835309239
 50
52.4990922774039603
 51
84.8352231119446856
  0
LINE
  5
3725
  8
0
 10
433.2170728453407946
 20
56.1798178836577975
 30
0.0
 11
433.225684783540828
 21
56.1798178836577975
 31
0.0
  0
ARC
  5
3726
  8
0
 10
433.1893117095768844
 20
56.2884117100453807
 30
0.0
 40
0.1145234458051157
 50
288.5180705829004069
 51
321.8039544026958083
  0
ARC
  5
3727
  8
0
 10
433.1150450239609881
 20
56.037063928773307
 30
0.0
 40
0.1806096565387594
 50
52.2229504873485908
 51
88.3191525012094729
  0
ARC
  5
3728
  8
0
 10
433.8655886280798768
 20
56.3688948096455675
 30
0.0
 40
0.1925246998423131
 50
231.8011000343732917
 51
259.1403945417984005
  0
LINE
  5
3729
  8
0
 10
433.829316378240776
 20
56.1798178836577975
 30
0.0
 11
433.9576160447408029
 21
56.1798178836577975
 31
0.0
  0
ARC
  5
372A
  8
0
 10
434.0073557464882015
 20
56.3725352123732577
 30
0.0
 40
0.199032677510869
 50
236.6061934727256926
 51
255.5279783964026876
  0
LINE
  5
372B
  8
0
 10
433.8978100530407005
 20
56.2063613643577966
 30
0.0
 11
433.8974171365408097
 21
56.7817840596578023
 31
0.0
  0
LINE
  5
372C
  8
0
 10
433.8978100530407005
 20
56.2063613643577966
 30
0.0
 11
433.8601748054408063
 21
57.2835840703577972
 31
0.0
  0
ARC
  5
372D
  8
0
 10
431.2667057803657258
 20
56.7316055552382679
 30
0.0
 40
2.6311898680662371
 50
1.0927340736380919
 51
7.5090733558605871
  0
ARC
  5
372E
  8
0
 10
435.6487272692759234
 20
57.3092156076666228
 30
0.0
 40
1.788736115696101
 50
183.180885505726593
 51
187.5090733558606075
  0
LINE
  5
372F
  8
0
 10
433.7723408672408141
 20
56.2175956613578123
 30
0.0
 11
433.7350149192408253
 21
57.2864591286578033
 31
0.0
  0
ARC
  5
3730
  8
0
 10
433.9267056183214208
 20
56.7972903876967905
 30
0.0
 40
0.081302355711046
 50
258.4712743818824947
 51
269.5036857879646277
  0
ARC
  5
3731
  8
0
 10
432.6616692761822947
 20
-100.7801390790466058
 30
0.0
 40
157.5012049204881066
 50
89.300442676544435
 51
89.5400564052968235
  0
ARC
  5
3732
  8
0
 10
434.5855890757865154
 20
56.7908996940402275
 30
0.0
 40
0.0815788238106482
 50
269.3368132938711028
 51
296.6355141352325973
  0
LINE
  5
3733
  8
0
 10
434.6221619420408047
 20
56.7179782983577994
 30
0.0
 11
434.6494104706050052
 21
56.2175956613578123
 31
0.0
  0
ARC
  5
3734
  8
0
 10
434.8619821391638993
 20
56.4350008140606718
 30
0.0
 40
0.3709312383276903
 50
110.0832582650839981
 51
130.280896500419999
  0
ARC
  5
3735
  8
0
 10
434.3924753586294969
 20
57.719150935262391
 30
0.0
 40
0.9963573744933878
 50
290.0832582650838845
 51
313.838008729987223
  0
ARC
  5
3736
  8
0
 10
434.3763190629500173
 20
57.7003269979118016
 30
0.0
 40
0.9942764893223127
 50
315.2610129544219717
 51
330.0451215769626856
  0
ARC
  5
3737
  8
0
 10
436.3998542323965921
 20
56.5915151808722996
 30
0.0
 40
1.3135423918236391
 50
152.213154685762305
 51
172.2812464199087117
  0
LINE
  5
3738
  8
0
 10
435.2377790003870928
 20
57.203867016231591
 30
0.0
 11
435.3543164433407924
 21
57.1771886960577973
 31
0.0
  0
ARC
  5
3739
  8
0
 10
436.4518864414587256
 20
56.5753123471604198
 30
0.0
 40
1.251764770286576
 50
151.2608819956323032
 51
171.8803709875996049
  0
ARC
  5
373A
  8
0
 10
434.0236295472906249
 20
56.9217532708916707
 30
0.0
 40
1.2010810988439029
 50
335.9900461221581054
 51
351.8803709875995196
  0
ARC
  5
373B
  8
0
 10
434.5477888849329133
 20
56.6896805971867295
 30
0.0
 40
0.6278467872097534
 50
322.8069500343191862
 51
335.8727381067624833
  0
ARC
  5
373C
  8
0
 10
434.8513133887507252
 20
56.4537381250371766
 30
0.0
 40
0.2434714280339989
 50
284.0938752108475001
 51
323.8592153489989869
  0
ARC
  5
373D
  8
0
 10
433.7095250589168245
 20
56.9782180680907189
 30
0.0
 40
1.4045188839658109
 50
337.4837746429953995
 51
351.3894755187105261
  0
ARC
  5
373E
  8
0
 10
434.5114696615726189
 20
56.645775642675197
 30
0.0
 40
0.5363984361332729
 50
316.6541439547946766
 51
337.4837746429964227
  0
ARC
  5
373F
  8
0
 10
434.7579749230847028
 20
56.4131080694262224
 30
0.0
 40
0.1974308217588061
 50
277.9938055594652155
 51
316.6541439547951882
  0
ARC
  5
3740
  8
0
 10
435.8803821012651269
 20
58.8521307629440784
 30
0.0
 40
2.0602320819125479
 50
274.2543811643723757
 51
285.6974033906785735
  0
ARC
  5
3741
  8
0
 10
435.1615444916587876
 20
73.1621768245766759
 30
0.0
 40
16.3878000546826712
 50
271.8873795178583919
 51
273.0490304805209121
  0
ARC
  5
3742
  8
0
 10
435.7347172107869824
 20
55.894856195936967
 30
0.0
 40
0.8890401648486729
 50
92.1556113534556545
 51
113.1883851599780968
  0
ARC
  5
3743
  8
0
 10
435.339340735652911
 20
56.8252128935313792
 30
0.0
 40
0.121873963999132
 50
272.0021110984021107
 51
291.8262719227946036
  0
ARC
  5
3744
  8
0
 10
417.1444400854899186
 20
-3298.4918064688590675
 30
0.0
 40
3355.2445771242091723
 50
89.6892208420018875
 51
89.691590441315725
  0
LINE
  5
3745
  8
0
 10
436.437791935840778
 20
56.8687370784577979
 30
0.0
 11
436.5305678254147779
 21
56.8551193202429701
 31
0.0
  0
ARC
  5
3746
  8
0
 10
436.7290468937238757
 20
56.1961289521748597
 30
0.0
 40
0.6882312443963896
 50
106.7615973913564034
 51
149.9159507359846941
  0
ARC
  5
3747
  8
0
 10
436.6584150853411757
 20
56.2023515787191101
 30
0.0
 40
0.7019574426116876
 50
108.3183118664458959
 51
150.3987125328044101
  0
ARC
  5
3748
  8
0
 10
435.4436383992365904
 20
56.8924768889274404
 30
0.0
 40
0.6951665106914224
 50
303.7794378112963045
 51
330.3987125328052912
  0
ARC
  5
3749
  8
0
 10
435.478199328779624
 20
56.9442167700746182
 30
0.0
 40
0.7693776737685831
 50
304.7473081457396233
 51
328.4039189932278191
  0
ARC
  5
374A
  8
0
 10
435.6147945198003981
 20
56.747295862161593
 30
0.0
 40
0.5297193958324554
 50
270.4877647225131909
 51
304.7473081457396233
  0
ARC
  5
374B
  8
0
 10
435.5113630806799279
 20
56.7771736014797099
 30
0.0
 40
0.5617279007768176
 50
275.0145100295388261
 51
304.5767551112377873
  0
ARC
  5
374C
  8
0
 10
435.6033519828462204
 20
55.3283321635134868
 30
0.0
 40
0.8896246138722714
 50
91.6325718705812164
 51
106.8376767065899031
  0
LINE
  5
374D
  8
0
 10
435.3456622042407957
 20
56.1798178836577975
 30
0.0
 11
435.2942575188408227
 21
56.1798178836577975
 31
0.0
  0
ARC
  5
374E
  8
0
 10
435.2617443627477769
 20
56.2872661979517304
 30
0.0
 40
0.1122597236934943
 50
286.8354712580522232
 51
321.6386363091824023
  0
ARC
  5
374F
  8
0
 10
435.7423857260409932
 20
55.2175956613558867
 30
0.0
 40
1.0000000000019369
 50
90.0
 51
105.7991101340857938
  0
ARC
  5
3750
  8
0
 10
435.436087260427314
 20
56.3000956615722501
 30
0.0
 40
0.1250000002228483
 50
270.0
 51
285.7991101340858791
  0
ARC
  5
3751
  8
0
 10
435.2187352874303201
 20
55.7412844190472896
 30
0.0
 40
0.4760426655892024
 50
95.294201696387816
 51
102.378542702524399
  0
ARC
  5
3752
  8
0
 10
435.1357933953210022
 20
56.1006219665772932
 30
0.0
 40
0.1073525109447706
 50
100.2506630617514958
 51
116.2589390560837046
  0
ARC
  5
3753
  8
0
 10
435.1075458456845126
 20
56.1578798091585725
 30
0.0
 40
0.0435059401869785
 50
116.2589390560833067
 51
149.7181103060802911
  0
LINE
  5
3754
  8
0
 10
435.0699760743407865
 20
56.1798178836577975
 30
0.0
 11
434.9824728278408088
 21
56.1798178836577975
 31
0.0
  0
ARC
  5
3755
  8
0
 10
434.9037792115180991
 20
56.2875609433416173
 30
0.0
 40
0.133421333226671
 50
306.1437283401880904
 51
328.3725760110021952
  0
ARC
  5
3756
  8
0
 10
435.2227349482873251
 20
55.7170364501693882
 30
0.0
 40
0.5005592840907968
 50
90.0309229364213053
 51
95.4939687350167645
  0
ARC
  5
3757
  8
0
 10
434.0826760326025919
 20
57.3551893830974109
 30
0.0
 40
1.20440819794507
 50
282.6066820903262737
 51
287.3644288581256774
  0
ARC
  5
3758
  8
0
 10
434.5034438115616808
 20
56.0577208867753285
 30
0.0
 40
0.1601521243755833
 50
93.3724684612171956
 51
112.5103096499090043
  0
LINE
  5
3759
  8
0
 10
434.3455466197407873
 20
56.1798178836578117
 30
0.0
 11
434.4585766677407719
 21
56.1798178836577975
 31
0.0
  0
ARC
  5
375A
  8
0
 10
434.3478614764221106
 20
56.4873077485359687
 30
0.0
 40
0.3268147343549725
 50
289.8019840517155217
 51
299.2156161532561782
  0
ARC
  5
375B
  8
0
 10
434.5716647881747008
 20
56.0871150362530386
 30
0.0
 40
0.1317069437757055
 50
97.8247868520458326
 51
119.2156161532564056
  0
LINE
  5
375C
  8
0
 10
435.384652687740811
 20
56.712075410357798
 30
0.0
 11
435.4024810928590909
 21
56.2175956613578123
 31
0.0
  0
LINE
  5
375D
  8
0
 10
435.9152798407785099
 20
56.3110491312880868
 30
0.0
 11
435.91690788096912
 21
56.2175956613578123
 31
0.0
  0
LINE
  5
375E
  8
0
 10
436.3718550430990035
 20
56.7844113908135171
 30
0.0
 11
436.5398108412264833
 21
56.7891733449715872
 31
0.0
  0
LINE
  5
375F
  8
0
 10
436.5396650493407833
 20
56.7925125288577988
 30
0.0
 11
436.6301808827633977
 21
56.7972726160004768
 31
0.0
  0
LINE
  5
3760
  8
0
 10
436.6301808827633977
 20
56.7972726160004768
 30
0.0
 11
436.7208560545407749
 21
56.8000524694578033
 31
0.0
  0
LINE
  5
3761
  8
0
 10
436.7206431391408046
 20
56.8022448326577987
 30
0.0
 11
436.8117683989407851
 21
55.4990929052577968
 31
0.0
  0
LINE
  5
3762
  8
0
 10
436.8117683989407851
 20
55.4990929052577968
 30
0.0
 11
436.7596439722033779
 21
56.9917385637221727
 31
0.0
  0
LINE
  5
3763
  8
0
 10
436.859704925421795
 20
56.9917385637221514
 30
0.0
 11
436.9118291606408206
 21
55.4990929187578033
 31
0.0
  0
LINE
  5
3764
  8
0
 10
436.9118291606408206
 20
55.4990929187578033
 30
0.0
 11
436.9118291606408206
 21
56.8064455069578074
 31
0.0
  0
ARC
  5
3765
  8
0
 10
436.7228077869431218
 20
56.8022336942123189
 30
0.0
 40
0.0021646764592672
 50
128.7950860756185989
 51
179.7051805458544891
  0
ARC
  5
3766
  8
0
 10
436.7349441291253243
 20
56.784996747166339
 30
0.0
 40
0.0232415740467827
 50
114.6796605734716934
 51
125.4883161979904997
  0
ARC
  5
3767
  8
0
 10
436.7299682828237906
 20
56.7971188235163069
 30
0.0
 40
0.0101634983784419
 50
103.808436083440597
 51
117.7262648331729054
  0
ARC
  5
3768
  8
0
 10
436.7031586292441148
 20
56.9105355401890307
 30
0.0
 40
0.1063792470267752
 50
283.2509411820971081
 51
289.0239759401301853
  0
ARC
  5
3769
  8
0
 10
436.7350530375356925
 20
56.8165140338240136
 30
0.0
 40
0.007113817652908
 50
293.0156095663966198
 51
335.4813818976269886
  0
ARC
  5
376A
  8
0
 10
436.722810131769279
 20
56.8219178468916368
 30
0.0
 40
0.0204959171228021
 50
335.9402299985391096
 51
350.719917583173924
  0
ARC
  5
376B
  8
0
 10
433.8881137349846995
 20
57.179815376904422
 30
0.0
 40
2.8776828857464229
 50
352.7892949470560779
 51
356.2526468252315794
  0
LINE
  5
376C
  8
0
 10
436.7596439722033779
 20
56.9917385637221727
 30
0.0
 11
436.859704925421795
 21
56.9917385637221514
 31
0.0
  0
ARC
  5
376D
  8
0
 10
440.2876995377043272
 20
57.479791065301022
 30
0.0
 40
3.4625629678223708
 50
188.1028934268549904
 51
190.8969409666622994
  0
ARC
  5
376E
  8
0
 10
436.9032632799322187
 20
56.8282387633212522
 30
0.0
 40
0.0159807208510225
 50
190.8969409666567003
 51
231.6665851099571114
  0
ARC
  5
376F
  8
0
 10
436.9385662366958059
 20
56.9469363562824427
 30
0.0
 40
0.1388038365602311
 50
250.9892269389820001
 51
255.842159841031588
  0
ARC
  5
3770
  8
0
 10
436.9017152950597733
 20
56.8030793963396903
 30
0.0
 40
0.0097123786619997
 50
50.7903240106591909
 51
72.6249607441512666
  0
ARC
  5
3771
  8
0
 10
436.9432464557910976
 20
56.8490867326908429
 30
0.0
 40
0.0522819307843542
 50
227.3955345747725119
 51
231.4611109248843093
  0
ARC
  5
3772
  8
0
 10
436.9092778575578109
 20
56.8060127482558173
 30
0.0
 40
0.002587745643496
 50
9.6270288093772987
 51
57.390400538604581
  0
ARC
  5
3773
  8
0
 10
437.5933666948383802
 20
59.7683813213913524
 30
0.0
 40
2.9475429208332349
 50
273.7831553056217899
 51
283.9595794225314194
  0
ARC
  5
3774
  8
0
 10
436.7232487515782964
 20
81.3087817023083232
 30
0.0
 40
24.5046568622045307
 50
270.4409352986440922
 51
272.489983938294813
  0
LINE
  5
3775
  8
0
 10
438.3044240461998129
 20
56.9078906793460035
 30
0.0
 11
438.3571818359683903
 21
56.8957215766392466
 31
0.0
  0
ARC
  5
3776
  8
0
 10
438.5718203800093988
 20
56.0001825693332691
 30
0.0
 40
0.9209016332891636
 50
103.4781390806188028
 51
142.1636230540684949
  0
ARC
  5
3777
  8
0
 10
438.5373464874750198
 20
56.0109736065381298
 30
0.0
 40
0.9266677393455744
 50
104.5577003946660994
 51
142.709994081021307
  0
ARC
  5
3778
  8
0
 10
437.0768477738952811
 20
57.1231729293675272
 30
0.0
 40
0.9091001724750402
 50
298.5451525342351147
 51
322.7099940810211933
  0
ARC
  5
3779
  8
0
 10
437.1146187409411255
 20
57.1377301389147405
 30
0.0
 40
0.9277389319180532
 50
296.9529341147361947
 51
321.8834855880141959
  0
ARC
  5
377A
  8
0
 10
437.0943245292120878
 20
57.0829175765959391
 30
0.0
 40
0.8653956547085583
 50
270.9481270248655278
 51
298.8022886955878903
  0
ARC
  5
377B
  8
0
 10
438.5936488346408169
 20
55.8357231858577308
 30
0.0
 40
1.0000056446000549
 50
91.4999351842991615
 51
136.2956640828971899
  0
ARC
  5
377C
  8
0
 10
363.4902797014652833
 20
2915.3506833353389993
 30
0.0
 40
2859.5010559514180386
 50
271.4963618421070919
 51
271.5044934725626149
  0
ARC
  5
377D
  8
0
 10
437.1478216962055967
 20
57.2175722034583814
 30
0.0
 40
0.9999750607944367
 50
286.9046498576286126
 51
316.2966066029878789
  0
ARC
  5
377E
  8
0
 10
437.1441767051445026
 20
57.0829425586162671
 30
0.0
 40
0.8655063534490809
 50
271.0998408860648965
 51
296.852680701803024
  0
ARC
  5
377F
  8
0
 10
437.1478131495408093
 20
57.21759565155687
 30
0.0
 40
0.9999999808990763
 50
271.4193974262904021
 51
286.9047277299741836
  0
ARC
  5
3780
  8
0
 10
430.6923056856787753
 20
372.1342041196093078
 30
0.0
 40
315.3971509863795859
 50
271.4307698705414964
 51
271.6334603623072894
  0
ARC
  5
3781
  8
0
 10
439.6842862234365157
 20
56.8140672872265569
 30
0.0
 40
0.0511718907343873
 50
11.67712240653157
 51
91.6334603623073036
  0
LINE
  5
3782
  8
0
 10
439.7343990455407834
 20
56.8244242878578021
 30
0.0
 11
439.7967319362408034
 21
55.9330271313578109
 31
0.0
  0
LINE
  5
3783
  8
0
 10
439.7967319362408034
 20
55.9330271313578109
 30
0.0
 11
439.7601188140192789
 21
56.9041277096930997
 31
0.0
  0
LINE
  5
3784
  8
0
 10
439.6828275482362187
 20
56.8652183836761083
 30
0.0
 11
439.6865059635408102
 21
56.9574849989578098
 31
0.0
  0
ARC
  5
3785
  8
0
 10
451.4493576829233916
 20
48.5137171262252096
 30
0.0
 40
14.4797063665246792
 50
143.4398790795889056
 51
144.3279518351297952
  0
ARC
  5
3786
  8
0
 10
440.7831025280260064
 20
56.7730142405260096
 30
0.0
 40
1.031351744517796
 50
159.2278814719946922
 51
172.6963503097526882
  0
LINE
  5
3787
  8
0
 10
439.8187903289407927
 20
57.1387852120577975
 30
0.0
 11
439.8246059570407738
 21
57.1388972388578011
 31
0.0
  0
ARC
  5
3788
  8
0
 10
439.6995674498365929
 20
56.9565504570598975
 30
0.0
 40
0.2210994733505926
 50
21.7524809176648617
 51
55.5608581009053708
  0
ARC
  5
3789
  8
0
 10
440.50897844996598
 20
57.1209509528334607
 30
0.0
 40
0.60965781063117
 50
187.7735820367333872
 51
203.9337576721925132
  0
ARC
  5
378A
  8
0
 10
439.9510156481716194
 20
56.8221829322403735
 30
0.0
 40
0.0514470587710506
 50
89.1910367906943549
 51
172.6423690749014099
  0
LINE
  5
378B
  8
0
 10
439.8999921976406995
 20
56.8287713578578106
 30
0.0
 11
439.8999324536408153
 21
55.9365894686578002
 31
0.0
  0
LINE
  5
378C
  8
0
 10
439.8999324536408153
 20
55.9365894686578002
 30
0.0
 11
439.8628855027408235
 21
56.9827816162578031
 31
0.0
  0
ARC
  5
378D
  8
0
 10
439.4684472859169091
 20
56.9688162610227735
 30
0.0
 40
0.3946853658776893
 50
2.0277492976459301
 51
25.5264681773208686
  0
ARC
  5
378E
  8
0
 10
438.6456706283128142
 20
97.7370321212255959
 30
0.0
 40
40.8842741795605278
 50
271.8306577082150852
 51
272.8963117536428058
  0
ARC
  5
378F
  8
0
 10
440.6267001404651751
 20
59.8092410163542283
 30
0.0
 40
2.9054956741653819
 50
271.6724304267925163
 51
287.4657147637400953
  0
ARC
  5
3790
  8
0
 10
440.3660133418379132
 20
60.5658426958661309
 30
0.0
 40
3.7055196510381521
 50
287.7994792027839139
 51
294.9573614865781224
  0
ARC
  5
3791
  8
0
 10
442.4013342557012152
 20
56.2879115708471787
 30
0.0
 40
1.0325214828711939
 50
117.1898222477632032
 51
147.2459568554392035
  0
ARC
  5
3792
  8
0
 10
439.7713894743887977
 20
57.98094346464935
 30
0.0
 40
2.0952520052449488
 50
270.706355026452286
 51
327.2199192582863247
  0
ARC
  5
3793
  8
0
 10
441.2503232681773966
 20
55.5437747930382031
 30
0.0
 40
0.7517207666717401
 50
146.9004434372789092
 51
168.1689765794025107
  0
ARC
  5
3794
  8
0
 10
441.0112807883796222
 20
55.6464972918867815
 30
0.0
 40
0.5006779188709566
 50
143.3867864205672049
 51
171.5264308089631982
  0
LINE
  5
3795
  8
0
 10
440.5262382586407739
 20
55.7914784216577928
 30
0.0
 11
440.5152154028407949
 21
55.7143022453577572
 31
0.0
  0
ARC
  5
3796
  8
0
 10
440.7727125610894063
 20
55.7573835155806918
 30
0.0
 40
0.2488213101564356
 50
127.6762321173108035
 51
172.1242292253749895
  0
ARC
  5
3797
  8
0
 10
440.2360522446252844
 20
57.9568116038273971
 30
0.0
 40
2.0148706094404831
 50
287.3877320587458257
 51
328.1148551072475925
  0
ARC
  5
3798
  8
0
 10
442.8051202851402763
 20
56.3574897902166825
 30
0.0
 40
1.0113386914715481
 50
117.4490733038212937
 51
148.0599291225535978
  0
ARC
  5
3799
  8
0
 10
441.0469104732424057
 20
59.8189833379530285
 30
0.0
 40
2.8711449480935349
 50
282.5204307730098776
 51
296.743860043605423
  0
ARC
  5
379A
  8
0
 10
440.5245207403203835
 20
58.0168092798883706
 30
0.0
 40
2.0108575496416208
 50
290.3142152623112224
 51
328.0525059081566042
  0
ARC
  5
379B
  8
0
 10
443.0843112847065868
 20
56.4205344930953601
 30
0.0
 40
1.0058659753237631
 50
117.3331356439327067
 51
148.0525059081562063
  0
ARC
  5
379C
  8
0
 10
441.3339143427143085
 20
59.8598163227410893
 30
0.0
 40
2.8532473721855438
 50
286.5373647761630878
 51
296.8466907915155275
  0
ARC
  5
379D
  8
0
 10
443.7856813536910749
 20
56.6918921032406118
 30
0.0
 40
1.00952375121045
 50
126.1865043647874955
 51
147.7318077659045059
  0
ARC
  5
379E
  8
0
 10
441.2272271297359794
 20
58.3072924702952875
 30
0.0
 40
2.0162334039416421
 50
300.6636016701232279
 51
327.7318077659044775
  0
ARC
  5
379F
  8
0
 10
441.1284992382957171
 20
58.2170981389141318
 30
0.0
 40
1.9932600338448161
 50
305.1144831465192055
 51
327.9123501959768987
  0
ARC
  5
37A0
  8
0
 10
443.6616417895467066
 20
56.628821594198719
 30
0.0
 40
0.9966285205082506
 50
118.2960921377378014
 51
147.9123501959768987
  0
ARC
  5
37A1
  8
0
 10
441.2831382236539071
 20
61.225799793891909
 30
0.0
 40
4.1793402129288344
 50
294.3213483227294205
 51
296.3264051209562808
  0
ARC
  5
37A2
  8
0
 10
441.3825545880987988
 20
58.3861423138382207
 30
0.0
 40
1.955367638433011
 50
314.9917278566391019
 51
327.9446211913599996
  0
ARC
  5
37A3
  8
0
 10
441.8035879758397755
 20
59.906170607359897
 30
0.0
 40
2.760633737802328
 50
290.1349228370117999
 51
296.9946128582997744
  0
ARC
  5
37A4
  8
0
 10
443.517243813877883
 20
56.5530485221598624
 30
0.0
 40
1.005015113822074
 50
117.2766428767565969
 51
147.8843981873625921
  0
ARC
  5
37A5
  8
0
 10
440.9625214763207168
 20
58.1565923919070116
 30
0.0
 40
2.0112672277728461
 50
298.0719949057194071
 51
327.8843981873625921
  0
ARC
  5
37A6
  8
0
 10
441.589808960540779
 20
59.8839435040576333
 30
0.0
 40
2.8097197251998329
 50
288.1901694342316205
 51
296.9097770036016186
  0
ARC
  5
37A7
  8
0
 10
443.3222521262667897
 20
56.4842623940199715
 30
0.0
 40
1.0059451537930191
 50
117.2631241208429032
 51
147.9445863112991049
  0
ARC
  5
37A8
  8
0
 10
440.7667252685258177
 20
58.0836679547686003
 30
0.0
 40
2.0088211658521402
 50
292.8728406873648851
 51
327.9664287111743874
  0
ARC
  5
37A9
  8
0
 10
439.8481244911142767
 20
55.9408254568777892
 30
0.0
 40
0.0519808481783759
 50
188.6282624919350894
 51
355.3257076778400005
  0
LINE
  5
37AA
  8
0
 10
439.5949020933882139
 20
55.8806040010455689
 30
0.0
 11
439.6063787008333748
 21
55.5466165535177012
 31
0.0
  0
ARC
  5
37AB
  8
0
 10
439.2995741291672971
 20
55.5360740146962684
 30
0.0
 40
0.306985651651744
 50
353.0815101589344067
 51
1.968045647956969
  0
ARC
  5
37AC
  8
0
 10
439.8592900807810793
 20
55.5480956236685373
 30
0.0
 40
0.0489999998052929
 50
183.9999558381717861
 51
270.0
  0
ARC
  5
37AD
  8
0
 10
439.8646577961775961
 20
55.5480956238456471
 30
0.0
 40
0.0490000000012714
 50
270.0000000006415917
 51
0.0003272860204096
  0
LINE
  5
37AE
  8
0
 10
439.8104094398780717
 20
55.5446775941443605
 30
0.0
 11
439.7865718495463057
 21
55.8855713223174391
 31
0.0
  0
LINE
  5
37AF
  8
0
 10
439.8104094398780717
 20
55.5446775941443605
 30
0.0
 11
439.7944262480079942
 21
55.8857773596049512
 31
0.0
  0
LINE
  5
37B0
  8
0
 10
439.9136577961780858
 20
55.5480959037443611
 30
0.0
 11
439.9136577961780858
 21
55.8905270730904178
 31
0.0
  0
LINE
  5
37B1
  8
0
 10
439.9136577961780858
 20
55.5480959037443611
 30
0.0
 11
439.904305402674197
 21
55.8899115850523316
 31
0.0
  0
LINE
  5
37B2
  8
0
 10
431.7484880027977283
 20
56.3001040039065686
 30
0.0
 11
431.7528150949535757
 21
56.2175956613578194
 31
0.0
  0
CIRCLE
  5
37B3
  8
0
 10
433.8749244738332891
 20
67.8808139106249371
 30
0.0
 40
1.2348105250536789
  0
ARC
  5
37B4
  8
0
 10
423.1718260241942176
 20
68.6851849679481177
 30
0.0
 40
0.8564641011325603
 50
49.2891305331008667
 51
86.6839658143064753
  0
ARC
  5
37B5
  8
0
 10
424.4381972101311931
 20
70.1569124591628537
 30
0.0
 40
1.085101707427325
 50
229.2891305330983016
 51
268.435864276025427
  0
LINE
  5
37B6
  8
0
 10
424.4085783524408271
 20
69.0722150641578025
 30
0.0
 11
426.5786414139201952
 21
69.0274575918298297
 31
0.0
  0
LINE
  5
37B7
  8
0
 10
426.4931594159995143
 20
69.0292206549520131
 30
0.0
 11
427.1933803015321018
 21
68.4114898481918203
 31
0.0
  0
LINE
  5
37B8
  8
0
 10
427.1933803015321018
 20
68.4114898481918203
 30
0.0
 11
427.5260383740408088
 21
67.8017725410578009
 31
0.0
  0
LINE
  5
37B9
  8
0
 10
427.5260383740408088
 20
67.8017725410578009
 30
0.0
 11
427.6145914324408182
 21
67.8002348787577631
 31
0.0
  0
LINE
  5
37BA
  8
0
 10
427.6145914324408182
 20
67.8002348787577631
 30
0.0
 11
427.3451481439407758
 21
69.6613909063578092
 31
0.0
  0
ARC
  5
37BB
  8
0
 10
427.0440941399845087
 20
69.6128565618007542
 30
0.0
 40
0.3049411351386909
 50
9.1581265276874522
 51
88.9098387060764992
  0
LINE
  5
37BC
  8
0
 10
426.5786414139201952
 20
69.0274575918298297
 30
0.0
 11
427.2805308522268888
 21
68.4103709425825457
 31
0.0
  0
LINE
  5
37BD
  8
0
 10
427.2805308522268888
 20
68.4103709425825457
 30
0.0
 11
427.1933803015321018
 21
68.4114898481918203
 31
0.0
  0
LINE
  5
37BE
  8
0
 10
427.2805314547408102
 20
68.4103699659578126
 30
0.0
 11
427.6145914324408182
 21
67.8002348787577631
 31
0.0
  0
LINE
  5
37BF
  8
0
 10
427.2805314547408102
 20
68.4103699659578126
 30
0.0
 11
427.2410016620081024
 21
69.8457009812533158
 31
0.0
  0
ARC
  5
37C0
  8
0
 10
423.7025838676433978
 20
70.0036940123983413
 30
0.0
 40
0.4613955265040929
 50
33.7586348183006066
 51
76.0493039047864414
  0
LINE
  5
37C1
  8
0
 10
424.0861815912074917
 20
70.2600894459660736
 30
0.0
 11
424.1655263059271874
 21
70.1293264291557819
 31
0.0
  0
ARC
  5
37C2
  8
0
 10
424.4561246932686913
 20
70.3311323636972929
 30
0.0
 40
0.3537980468312791
 50
214.778030743391696
 51
265.0956524187233185
  0
ARC
  5
37C3
  8
0
 10
424.5407551135780864
 20
70.8069698292580654
 30
0.0
 40
0.8362680876198529
 50
262.1043562367353843
 51
268.9486193477779921
  0
LINE
  5
37C4
  8
0
 10
424.5254104101408075
 20
69.9708425336578159
 30
0.0
 11
426.5538347045406908
 21
69.9281702230578048
 31
0.0
  0
LINE
  5
37C5
  8
0
 10
426.5538347045406908
 20
69.9281702230578048
 30
0.0
 11
427.0498958756001002
 21
69.9177425007410704
 31
0.0
  0
LINE
  5
37C6
  8
0
 10
427.0498958756001002
 20
69.9177425007410704
 30
0.0
 11
429.3246254607407764
 21
69.9015394617578067
 31
0.0
  0
ARC
  5
37C7
  8
0
 10
429.2517632782356145
 20
59.6778091356498734
 30
0.0
 40
10.2239899588476906
 50
76.5649691218457491
 51
89.5916730260011747
  0
LINE
  5
37C8
  8
0
 10
431.6272318856244965
 20
69.6220094340111189
 30
0.0
 11
431.6951814237406779
 21
70.139988780357811
 31
0.0
  0
ARC
  5
37C9
  8
0
 10
430.9883641656355735
 20
70.2327104430254963
 30
0.0
 40
0.7128730203081109
 50
352.5265029586832952
 51
17.4467397091221983
  0
LINE
  5
37CA
  8
0
 10
445.9657687616407884
 20
70.4030453501578108
 30
0.0
 11
443.6460133159408201
 21
69.0825093923577924
 31
0.0
  0
LINE
  5
37CB
  8
0
 10
443.6460133159408201
 20
69.0825093923577924
 30
0.0
 11
442.8459406589407195
 21
67.1656112667577929
 31
0.0
  0
LINE
  5
37CC
  8
0
 10
442.8459406589407195
 20
67.1656112667577929
 30
0.0
 11
442.7922948906407896
 21
67.1745045872578146
 31
0.0
  0
LINE
  5
37CD
  8
0
 10
442.7922948906407896
 20
67.1745045872578146
 30
0.0
 11
443.0573160961408234
 21
69.6659353577578031
 31
0.0
  0
LINE
  5
37CE
  8
0
 10
442.7922948906407896
 20
67.1745045872578146
 30
0.0
 11
443.5886556723406784
 21
69.0825093923577924
 31
0.0
  0
LINE
  5
37CF
  8
0
 10
443.5886556723406784
 20
69.0825093923577924
 30
0.0
 11
445.9051587153696801
 21
70.4011938986159578
 31
0.0
  0
LINE
  5
37D0
  8
0
 10
443.5886556723406784
 20
69.0825093923577924
 30
0.0
 11
443.6460133159408201
 21
69.0825093923577924
 31
0.0
  0
LINE
  5
37D1
  8
0
 10
443.5886556723406784
 20
69.0825093923577924
 30
0.0
 11
443.5506587726666226
 21
69.927933326721174
 31
0.0
  0
ARC
  5
37D2
  8
0
 10
443.3291314421056768
 20
69.6512571533724554
 30
0.0
 40
0.2722113737264804
 50
95.7437054215848633
 51
176.9089930677768052
  0
LINE
  5
37D3
  8
0
 10
442.3962505247453123
 20
69.9243754889725153
 30
0.0
 11
443.3018888673651077
 21
69.9221018950743485
 31
0.0
  0
LINE
  5
37D4
  8
0
 10
443.3018888673651077
 20
69.9221018950743485
 30
0.0
 11
444.0580042912408203
 21
69.9398260462577923
 31
0.0
  0
ARC
  5
37D5
  8
0
 10
444.0518689254155902
 20
70.2015618373555697
 30
0.0
 40
0.2618076909782841
 50
271.3428282029806269
 51
313.1782952298204918
  0
LINE
  5
37D6
  8
0
 10
444.2310163121406958
 20
70.0106443659578019
 30
0.0
 11
444.5841416356407194
 21
70.3336013502577941
 31
0.0
  0
ARC
  5
37D7
  8
0
 10
444.660143597643696
 20
70.2504998267621374
 30
0.0
 40
0.1126151030527506
 50
92.287534492190872
 51
132.4450261246373088
  0
LINE
  5
37D8
  8
0
 10
444.6556486330702
 20
70.3630251871439896
 30
0.0
 11
445.9657687616407884
 21
70.4030453501578108
 31
0.0
  0
LINE
  5
37D9
  8
0
 10
446.8646009414255786
 20
70.4301597490957079
 30
0.0
 11
447.1135352065788879
 21
70.4432058411228184
 31
0.0
  0
LINE
  5
37DA
  8
0
 10
443.1699873544408774
 20
70.4334627622578182
 30
0.0
 11
441.092408246140792
 21
69.0665004532577882
 31
0.0
  0
LINE
  5
37DB
  8
0
 10
441.092408246140792
 20
69.0665004532577882
 30
0.0
 11
440.4694400012407982
 21
66.6637130104577977
 31
0.0
  0
LINE
  5
37DC
  8
0
 10
440.4694400012407982
 20
66.6637130104577977
 30
0.0
 11
440.394322819440788
 21
66.6899330421578043
 31
0.0
  0
LINE
  5
37DD
  8
0
 10
440.394322819440788
 20
66.6899330421578043
 30
0.0
 11
441.0104930417408013
 21
69.0665004532577882
 31
0.0
  0
LINE
  5
37DE
  8
0
 10
441.0104930417408013
 20
69.0665004532577882
 30
0.0
 11
443.0853558626412223
 21
70.4316755558825776
 31
0.0
  0
LINE
  5
37DF
  8
0
 10
441.0104930417408013
 20
69.0665004532577882
 30
0.0
 11
440.9682181440408044
 21
69.9250337639577992
 31
0.0
  0
LINE
  5
37E0
  8
0
 10
441.0104930417408013
 20
69.0665004532577882
 30
0.0
 11
441.092408246140792
 21
69.0665004532577882
 31
0.0
  0
LINE
  5
37E1
  8
0
 10
440.394322819440788
 20
66.6899330421578043
 30
0.0
 11
440.5803609299406958
 21
69.6635023784577925
 31
0.0
  0
LINE
  5
37E2
  8
0
 10
443.1699873544408206
 20
70.4334627622578182
 30
0.0
 11
442.1617636912408216
 21
70.4121715889578184
 31
0.0
  0
ARC
  5
37E3
  8
0
 10
442.2288362388723044
 20
70.1478475256025717
 30
0.0
 40
0.272701186492488
 50
104.2383492228976962
 51
174.8861509561440073
  0
ARC
  5
37E4
  8
0
 10
441.6381018533455176
 20
70.2120543692245462
 30
0.0
 40
0.3216033365536766
 50
324.8943587092040275
 51
352.8732554421550844
  0
ARC
  5
37E5
  8
0
 10
441.7537969469294126
 20
70.130725476530273
 30
0.0
 40
0.1801828873029647
 50
275.1145096091086089
 51
324.8943587092035159
  0
LINE
  5
37E6
  8
0
 10
441.7698596264407911
 20
69.9512599834577884
 30
0.0
 11
440.9682181440408044
 21
69.9250337639577992
 31
0.0
  0
LINE
  5
37E7
  8
0
 10
440.9682181440408044
 20
69.9250337639577992
 30
0.0
 11
438.4176412849806752
 21
69.9019987284561637
 31
0.0
  0
ARC
  5
37E8
  8
0
 10
438.5114046044138263
 20
59.5199633824521115
 30
0.0
 40
10.3824587399010806
 50
90.5174415462295059
 51
103.292231385917205
  0
LINE
  5
37E9
  8
0
 10
436.1242927005408205
 20
69.6242766319577839
 30
0.0
 11
436.0914763796408238
 21
70.1411549202578044
 31
0.0
  0
ARC
  5
37EA
  8
0
 10
437.2179136115670985
 20
70.2126718063668704
 30
0.0
 40
1.1287052327639351
 50
168.0466722206105032
 51
183.6328018921749106
  0
ARC
  5
37EB
  8
0
 10
440.825791724028079
 20
69.6814342066859638
 30
0.0
 40
0.2460849957839088
 50
100.5749758358394956
 51
184.1787573631071098
  0
LINE
  5
37EC
  8
0
 10
420.0578727979947189
 20
69.6047240372624714
 30
0.0
 11
420.0543294426025227
 21
69.7061924602747069
 31
0.0
  0
LINE
  5
37ED
  8
0
 10
427.9994210478520813
 20
55.4990953814577708
 30
0.0
 11
428.5307447158519949
 21
55.4990953814577708
 31
0.0
  0
LINE
  5
37EE
  8
0
 10
428.5209906506847801
 20
55.8715812841126507
 30
0.0
 11
428.5307447158519949
 21
55.4990953814577708
 31
0.0
  0
LINE
  5
37EF
  8
0
 10
427.9825787873497802
 20
55.8848503679589896
 30
0.0
 11
427.9994210478520813
 21
55.4990953814577708
 31
0.0
  0
ENDSEC
  0
EOF
