  0
SECTION
  2
HEADER
  9
$ACADVER
  1
AC1009
  9
$INSBASE
 10
750.3644595164907969
 20
34.6409439024450378
 30
0.0
  9
$EXTMIN
 10
720.9579520169908164
 20
34.6409439024450378
 30
0.0
  9
$EXTMAX
 10
750.3751909270123406
 20
53.5013347294450625
 30
0.0
  9
$LIMMIN
 10
0.0
 20
0.0
  9
$LIMMAX
 10
11.6929133858000007
 20
8.2677165353999982
  9
$ORTHOMODE
 70
     1
  9
$REGENMODE
 70
     1
  9
$FILLMODE
 70
     1
  9
$QTEXTMODE
 70
     0
  9
$MIRRTEXT
 70
     0
  9
$DRAGMODE
 70
     2
  9
$LTSCALE
 40
0.6431102362
  9
$OSMODE
 70
    23
  9
$ATTMODE
 70
     1
  9
$TEXTSIZE
 40
0.2
  9
$TRACEWID
 40
0.05
  9
$TEXTSTYLE
  7
STANDARD
  9
$CLAYER
  8
0
  9
$CELTYPE
  6
BYLAYER
  9
$CECOLOR
 62
   256
  9
$DIMSCALE
 40
1.0
  9
$DIMASZ
 40
0.1875
  9
$DIMEXO
 40
0.0625
  9
$DIMDLI
 40
0.4443307087
  9
$DIMRND
 40
0.0
  9
$DIMDLE
 40
0.0
  9
$DIMEXE
 40
0.125
  9
$DIMTP
 40
0.01
  9
$DIMTM
 40
0.01
  9
$DIMTXT
 40
2.0
  9
$DIMCEN
 40
0.1052362205
  9
$DIMTSZ
 40
0.0
  9
$DIMTOL
 70
     1
  9
$DIMLIM
 70
     0
  9
$DIMTIH
 70
     1
  9
$DIMTOH
 70
     1
  9
$DIMSE1
 70
     0
  9
$DIMSE2
 70
     0
  9
$DIMTAD
 70
     0
  9
$DIMZIN
 70
     0
  9
$DIMBLK
  1

  9
$DIMASO
 70
     1
  9
$DIMSHO
 70
     1
  9
$DIMPOST
  1
\X
  9
$DIMAPOST
  1

  9
$DIMALT
 70
     1
  9
$DIMALTD
 70
     2
  9
$DIMALTF
 40
25.3999999999999986
  9
$DIMLFAC
 40
1.0
  9
$DIMTOFL
 70
     0
  9
$DIMTVP
 40
0.0
  9
$DIMTIX
 70
     0
  9
$DIMSOXD
 70
     0
  9
$DIMSAH
 70
     0
  9
$DIMBLK1
  1

  9
$DIMBLK2
  1

  9
$DIMSTYLE
  2
STANDARD
  9
$DIMCLRD
 70
     0
  9
$DIMCLRE
 70
     0
  9
$DIMCLRT
 70
     0
  9
$DIMTFAC
 40
1.0
  9
$DIMGAP
 40
0.09
  9
$LUNITS
 70
     2
  9
$LUPREC
 70
     4
  9
$SKETCHINC
 40
0.1
  9
$FILLETRAD
 40
0.0
  9
$AUNITS
 70
     0
  9
$AUPREC
 70
     0
  9
$MENU
  1
.
  9
$ELEVATION
 40
0.0
  9
$PELEVATION
 40
0.0
  9
$THICKNESS
 40
0.0
  9
$LIMCHECK
 70
     0
  9
$BLIPMODE
 70
     0
  9
$CHAMFERA
 40
0.0
  9
$CHAMFERB
 40
0.0
  9
$SKPOLY
 70
     0
  9
$TDCREATE
 40
2458106.4931018520146608
  9
$TDUPDATE
 40
2459704.4622222217731178
  9
$TDINDWG
 40
0.2538180093
  9
$TDUSRTIMER
 40
0.2538180093
  9
$USRTIMER
 70
     1
  9
$ANGBASE
 50
0.0
  9
$ANGDIR
 70
     0
  9
$PDMODE
 70
     0
  9
$PDSIZE
 40
0.3125
  9
$PLINEWID
 40
0.0
  9
$COORDS
 70
     1
  9
$SPLFRAME
 70
     0
  9
$SPLINETYPE
 70
     6
  9
$SPLINESEGS
 70
     8
  9
$ATTDIA
 70
     1
  9
$ATTREQ
 70
     1
  9
$HANDLING
 70
     1
  9
$HANDSEED
  5
4CD2
  9
$SURFTAB1
 70
     6
  9
$SURFTAB2
 70
     6
  9
$SURFTYPE
 70
     6
  9
$SURFU
 70
     6
  9
$SURFV
 70
     6
  9
$UCSNAME
  2

  9
$UCSORG
 10
0.0
 20
0.0
 30
0.0
  9
$UCSXDIR
 10
1.0
 20
0.0
 30
0.0
  9
$UCSYDIR
 10
0.0
 20
1.0
 30
0.0
  9
$PUCSNAME
  2

  9
$PUCSORG
 10
0.0
 20
0.0
 30
0.0
  9
$PUCSXDIR
 10
1.0
 20
0.0
 30
0.0
  9
$PUCSYDIR
 10
0.0
 20
1.0
 30
0.0
  9
$USERI1
 70
     0
  9
$USERI2
 70
     0
  9
$USERI3
 70
     0
  9
$USERI4
 70
     0
  9
$USERI5
 70
     0
  9
$USERR1
 40
0.0
  9
$USERR2
 40
0.0
  9
$USERR3
 40
0.0
  9
$USERR4
 40
0.0
  9
$USERR5
 40
0.0
  9
$WORLDVIEW
 70
     1
  9
$SHADEDGE
 70
     3
  9
$SHADEDIF
 70
    70
  9
$TILEMODE
 70
     1
  9
$MAXACTVP
 70
    64
  9
$PLIMCHECK
 70
     0
  9
$PEXTMIN
 10
1.0000000000000000E+20
 20
1.0000000000000000E+20
 30
1.0000000000000000E+20
  9
$PEXTMAX
 10
-1.0000000000000000E+20
 20
-1.0000000000000000E+20
 30
-1.0000000000000000E+20
  9
$PLIMMIN
 10
0.0
 20
0.0
  9
$PLIMMAX
 10
12.0
 20
9.0
  9
$UNITMODE
 70
     0
  9
$VISRETAIN
 70
     1
  9
$PLINEGEN
 70
     0
  9
$PSLTSCALE
 70
     1
  0
ENDSEC
  0
SECTION
  2
TABLES
  0
TABLE
  2
VPORT
 70
     1
  0
VPORT
  2
*ACTIVE
 70
     0
 10
0.0
 20
0.0
 11
1.0
 21
1.0
 12
465.088691185907976
 22
61.6788494904387505
 13
0.0
 23
0.0
 14
1.0
 24
1.0
 15
0.0
 25
0.0
 16
-0.0000000000000568
 26
0.0
 36
193.9250709296327955
 17
273.5742015565131169
 27
-17.6059607340214797
 37
0.0
 40
18.9884049282426304
 41
2.005224660397074
 42
50.0
 43
0.0
 44
0.0
 50
0.0
 51
0.0
 71
     0
 72
   100
 73
     1
 74
     1
 75
     0
 76
     0
 77
     0
 78
     0
  0
ENDTAB
  0
TABLE
  2
LTYPE
 70
     2
  0
LTYPE
  2
CONTINUOUS
 70
     0
  3
Solid line
 72
    65
 73
     0
 40
0.0
  0
LTYPE
  2
PHANTOM2
 70
     0
  3
___ _ _ ___ _ _ ___ _ _ ___ _ _
 72
    65
 73
     6
 40
1.25
 49
0.625
 49
-0.125
 49
0.125
 49
-0.125
 49
0.125
 49
-0.125
  0
ENDTAB
  0
TABLE
  2
LAYER
 70
     2
  0
LAYER
  2
0
 70
     0
 62
   255
  6
CONTINUOUS
  0
LAYER
  2
DEFPOINTS
 70
     0
 62
     7
  6
CONTINUOUS
  0
ENDTAB
  0
TABLE
  2
STYLE
 70
     1
  0
STYLE
  2
STANDARD
 70
     0
 40
0.0
 41
0.8
 50
0.0
 71
     0
 42
0.2
  3
txt
  4

  0
ENDTAB
  0
TABLE
  2
VIEW
 70
     0
  0
ENDTAB
  0
TABLE
  2
UCS
 70
     0
  0
ENDTAB
  0
TABLE
  2
APPID
 70
     9
  0
APPID
  2
ACAD
 70
     0
  0
APPID
  2
ACAD_MLEADERVER
 70
     0
  0
APPID
  2
ACAD_EXEMPT_FROM_CAD_STANDARDS
 70
     0
  0
APPID
  2
ACAD_NAV_VCDISPLAY
 70
     0
  0
APPID
  2
ACAD_DSTYLE_DIMJAG
 70
     0
  0
APPID
  2
ACAD_DSTYLE_DIMTALN
 70
     0
  0
APPID
  2
ACAECLAYERSTANDARD
 70
     0
  0
APPID
  2
ACCMTRANSPARENCY
 70
     0
  0
APPID
  2
ACDBATTR
 70
     0
  0
ENDTAB
  0
TABLE
  2
DIMSTYLE
 70
     1
  0
DIMSTYLE
  2
STANDARD
 70
     0
  3

  4

  5

  6

  7

 40
1.0
 41
0.1875
 42
0.0625
 43
0.38
 44
0.125
 45
0.0
 46
0.0
 47
0.01
 48
0.01
140
0.15625
141
0.09
142
0.0
143
25.3999999999999986
144
1.0
145
0.0
146
1.0
147
0.09
 71
     1
 72
     0
 73
     1
 74
     1
 75
     0
 76
     0
 77
     0
 78
     4
170
     0
171
     2
172
     0
173
     0
174
     0
175
     0
176
     0
177
     0
178
     0
  0
ENDTAB
  0
ENDSEC
  0
SECTION
  2
BLOCKS
  0
BLOCK
  8
0
  2
$MODEL_SPACE
 70
     0
 10
0.0
 20
0.0
 30
0.0
  3
$MODEL_SPACE
  1

  0
ENDBLK
  5
21
  8
0
  0
BLOCK
 67
     1
  8
0
  2
$PAPER_SPACE
 70
     0
 10
0.0
 20
0.0
 30
0.0
  3
$PAPER_SPACE
  1

  0
ENDBLK
  5
1D
 67
     1
  8
0
  0
ENDSEC
  0
SECTION
  2
ENTITIES
  0
ATTDEF
  5
FAA
  8
DEFPOINTS
 10
750.3645242603457746
 20
34.644345367648171
 30
0.0
 40
0.001
  1
71341112
  3

  2
MODELNUMBER
 70
     0
1001
ACDBATTR
1070
     0
1070
     1
  0
ATTDEF
  5
FAB
  8
DEFPOINTS
 10
750.3645242603457746
 20
34.6426787009815129
 30
0.0
 40
0.001
  1
PERFORMA2
  3

  2
TRADENAME
 70
     0
1001
ACDBATTR
1070
     0
1070
     1
  0
ATTDEF
  5
FAC
  8
DEFPOINTS
 10
750.3645242603457746
 20
34.6410120343148407
 30
0.0
 40
0.001
  1
BATH
  3

  2
PRODUCT
 70
     0
1001
ACDBATTR
1070
     0
1070
     1
  0
LINE
  5
4A33
  8
0
 10
730.9123064831411511
 20
34.6409439024450592
 30
0.0
 11
730.3809824873638945
 21
34.6409439024450378
 31
0.0
  0
LINE
  5
4A34
  8
0
 10
750.3644595164907969
 20
53.5013347294450483
 30
0.0
 11
722.387191333773103
 21
53.5013347294450483
 31
0.0
  0
LINE
  5
4A35
  8
0
 10
750.329599820440535
 20
52.261599738245053
 30
0.0
 11
722.5285342074258779
 21
52.261599738245053
 31
0.0
  0
LINE
  5
4A36
  8
0
 10
720.9579520169908164
 20
34.6409439024451018
 30
0.0
 11
721.2267184474386568
 21
34.6409439024451018
 31
0.0
  0
LINE
  5
4A37
  8
0
 10
731.5652847119609987
 20
34.6409439024450378
 30
0.0
 11
731.6865296995910057
 21
34.6409439024450378
 31
0.0
  0
LINE
  5
4A38
  8
0
 10
721.2394595164907969
 20
52.5384553868023971
 30
0.0
 11
721.2394595164907969
 21
51.6104783810450698
 31
0.0
  0
ARC
  5
4A39
  8
0
 10
621.2394595163840449
 20
51.6104783810461427
 30
0.0
 40
100.0000000001065956
 50
358.999999999900524
 51
0.0
  0
LINE
  5
4A3A
  8
0
 10
721.2242290320906477
 20
49.8652377371450797
 30
0.0
 11
720.9579520169908164
 21
34.6409439024451018
 31
0.0
  0
LINE
  5
4A3B
  8
0
 10
721.312383221890741
 20
46.912399986445088
 30
0.0
 11
721.4687276459908389
 21
34.8949468312450932
 31
0.0
  0
ARC
  5
4A3C
  8
0
 10
721.2185330186978263
 20
34.8910351882460787
 30
0.0
 40
0.2502252035212654
 50
271.8746081441969977
 51
0.8957121860324516
  0
ARC
  5
4A3D
  8
0
 10
1433.3683817989860927
 20
38.43778254402919
 30
0.0
 40
712.0984577000458557
 50
178.9376289350402089
 51
179.0782244073182881
  0
LINE
  5
4A3E
  8
0
 10
721.3620763240908218
 20
49.8935419153450894
 30
0.0
 11
721.3387278831122558
 21
48.3966153806895889
 31
0.0
  0
LINE
  5
4A3F
  8
0
 10
721.3387278831122558
 20
48.3966153806895392
 30
0.0
 11
721.312383221890741
 21
46.9123999864450383
 31
0.0
  0
LINE
  5
4A40
  8
0
 10
721.392330691690745
 20
51.6406651249451016
 30
0.0
 11
721.3993468295907405
 21
52.0457743734450986
 31
0.0
  0
LINE
  5
4A41
  8
0
 10
723.6582296954436515
 20
51.9363143741208404
 30
0.0
 11
721.4330727854908218
 21
52.0505774856450927
 31
0.0
  0
ARC
  5
4A42
  8
0
 10
723.6556802558083064
 20
51.90335309876086
 30
0.0
 40
0.0330597234684879
 50
31.8757030145243583
 51
85.5771771742417116
  0
LINE
  5
4A43
  8
0
 10
723.6837544308907582
 20
51.9208112203450725
 30
0.0
 11
723.7792867630735145
 21
51.7553448872581683
 31
0.0
  0
ARC
  5
4A44
  8
0
 10
724.104574416646301
 20
51.9439776515187788
 30
0.0
 40
0.3760244371306516
 50
210.1092418537978972
 51
272.1872854131116242
  0
LINE
  5
4A45
  8
0
 10
724.1189257879907473
 20
51.5682271818451028
 30
0.0
 11
724.6099932456908164
 21
51.5682271818451028
 31
0.0
  0
ARC
  5
4A46
  8
0
 10
724.6243454499698373
 20
51.9439754934663114
 30
0.0
 40
0.3760223124414957
 50
267.812575212206184
 51
329.9582647736393142
  0
LINE
  5
4A47
  8
0
 10
724.9498532880099901
 20
51.7557271818451028
 30
0.0
 11
725.0201936638908364
 21
51.877560286645128
 31
0.0
  0
ARC
  5
4A48
  8
0
 10
725.047230989856871
 20
51.8619932706148603
 30
0.0
 40
0.0311985413679092
 50
89.1360824257997706
 51
150.0683755148901923
  0
ARC
  5
4A49
  8
0
 10
726.1133235693164352
 20
108.6138368175561055
 30
0.0
 40
56.7306576975141326
 50
268.9236993383032086
 51
269.7507345908829848
  0
LINE
  5
4A4A
  8
0
 10
725.8665175023885467
 20
51.8837159860450612
 30
0.0
 11
741.6700174787907827
 21
51.8078264080451021
 31
0.0
  0
ARC
  5
4A4B
  8
0
 10
730.0962346741640658
 20
207.8881817620776076
 30
0.0
 40
156.1310125225338936
 50
268.1290281666078954
 51
269.4496553902944243
  0
ARC
  5
4A4C
  8
0
 10
728.5949486175678658
 20
51.6792799640905471
 30
0.0
 40
0.0851071396862313
 50
44.7969212471358702
 51
88.9093674016627347
  0
LINE
  5
4A4D
  8
0
 10
728.6553413756907958
 20
51.7392461211450794
 30
0.0
 11
729.5526729209907444
 21
50.8560114723450525
 31
0.0
  0
ARC
  5
4A4E
  8
0
 10
729.3332464377417637
 20
50.6276068584340209
 30
0.0
 40
0.3167280366605565
 50
33.7368326239318108
 51
46.1485135736534104
  0
ARC
  5
4A4F
  8
0
 10
738.6441002425584657
 20
56.6062320390552216
 30
0.0
 40
10.7484031215231592
 50
212.6746670468849061
 51
222.085538799649612
  0
LINE
  5
4A50
  8
0
 10
730.6672262850279367
 20
49.4022295731728107
 30
0.0
 11
730.4944282627037637
 21
49.4047317772851926
 31
0.0
  0
LINE
  5
4A51
  8
0
 10
729.8092250176907783
 20
50.0556541391450907
 30
0.0
 11
729.1012167804907449
 21
50.4386555914450767
 31
0.0
  0
LINE
  5
4A52
  8
0
 10
728.2284679601907555
 20
50.6930735692451009
 30
0.0
 11
721.9509746721906822
 21
51.0220630518451088
 31
0.0
  0
ARC
  5
4A53
  8
0
 10
721.9356960120904887
 20
50.4264638472975619
 30
0.0
 40
0.5957951408933062
 50
88.5305373339231636
 51
160.6016619215361061
  0
ARC
  5
4A54
  8
0
 10
407.1488667560391264
 20
-0.038662887258127
 30
0.0
 40
320.7768684502602241
 50
8.4755613676720838
 51
9.1088690126603868
  0
LINE
  5
4A55
  8
0
 10
723.8945339759907256
 20
50.7319866064450906
 30
0.0
 11
724.2329087568906516
 21
50.4377968701450996
 31
0.0
  0
LINE
  5
4A56
  8
0
 10
724.3639069974907443
 20
50.2814153798450931
 30
0.0
 11
724.5800682083907986
 21
49.9064054129450909
 31
0.0
  0
LINE
  5
4A57
  8
0
 10
724.6436585813672764
 20
49.7167714377685073
 30
0.0
 11
724.6668500562161626
 21
49.7220141461110501
 31
0.0
  0
LINE
  5
4A58
  8
0
 10
724.6668500562161626
 20
49.7220141461110501
 30
0.0
 11
724.4542465591907785
 21
50.8908534036450888
 31
0.0
  0
ARC
  5
4A59
  8
0
 10
583.0668893335430312
 20
25.5081582398799895
 30
0.0
 40
143.0163193944109992
 50
8.0023174028315793
 51
8.7400969263849717
  0
ARC
  5
4A5A
  8
0
 10
640.3341280983330535
 20
34.0679828163199971
 30
0.0
 40
85.1165765816863029
 50
6.4616432698716526
 51
7.6629697656028872
  0
ARC
  5
4A5B
  8
0
 10
766.3212328732893184
 20
48.6550816046773704
 30
0.0
 40
41.712985824759599
 50
186.8958212729394006
 51
190.6362798315402074
  0
ARC
  5
4A5C
  8
0
 10
727.7058040982170724
 20
41.3596906952219072
 30
0.0
 40
2.4148606825587509
 50
189.6242178059669072
 51
223.6294850652315915
  0
ARC
  5
4A5D
  8
0
 10
728.6520060193962536
 20
42.1382430697075065
 30
0.0
 40
3.6380298070945538
 50
222.2222772602910084
 51
252.7161564313601048
  0
ARC
  5
4A5E
  8
0
 10
732.8371999805081032
 20
47.9665134034724616
 30
0.0
 40
8.9600549736499975
 50
262.1390238635228798
 51
265.0359027001687195
  0
ARC
  5
4A5F
  8
0
 10
732.8963445085990998
 20
49.5513917602885812
 30
0.0
 40
10.5443966220628909
 50
265.4609314041911716
 51
270.8480347679297893
  0
LINE
  5
4A60
  8
0
 10
731.2875350368908585
 20
39.0871980521450979
 30
0.0
 11
731.5164040710571953
 21
34.6873804375325818
 31
0.0
  0
LINE
  5
4A61
  8
0
 10
731.5164040710571953
 20
34.6873804375325818
 30
0.0
 11
731.342253318190842
 21
39.636878139445102
 31
0.0
  0
ARC
  5
4A62
  8
0
 10
731.5668648210084939
 20
34.6915521392906072
 30
0.0
 40
0.0506328982107293
 50
184.7260213460623959
 51
268.2116709846872027
  0
LINE
  5
4A63
  8
0
 10
731.4527506544907283
 20
39.5541651914450796
 30
0.0
 11
731.6196524273533441
 21
34.6907990703605407
 31
0.0
  0
LINE
  5
4A64
  8
0
 10
731.6196524273533441
 20
34.6907990703605407
 30
0.0
 11
731.5438834404908448
 21
39.0245132106450825
 31
0.0
  0
ARC
  5
4A65
  8
0
 10
731.5691625143114152
 20
34.6914155933088892
 30
0.0
 40
0.0504936770253118
 50
271.6908675828059927
 51
359.3004066498443194
  0
LINE
  5
4A66
  8
0
 10
722.5244595164906514
 20
52.2594099051598775
 30
0.0
 11
722.5244595164906514
 21
52.1273045088450786
 31
0.0
  0
ARC
  5
4A67
  8
0
 10
722.368459516490816
 20
52.1273045088450786
 30
0.0
 40
0.1559999999999981
 50
304.0552975558227899
 51
0.0000000000032569
  0
LINE
  5
4A68
  8
0
 10
730.2072440308197656
 20
39.3971962816859076
 30
0.0
 11
730.3659538997134177
 21
35.2207036108099132
 31
0.0
  0
LINE
  5
4A69
  8
0
 10
730.4098470740907487
 20
39.803654821545102
 30
0.0
 11
730.5743455643189463
 21
35.2183810072591683
 31
0.0
  0
LINE
  5
4A6A
  8
0
 10
730.5743455643189463
 20
35.2183810072591683
 30
0.0
 11
730.3558114695815675
 21
39.4189562005681893
 31
0.0
  0
LINE
  5
4A6B
  8
0
 10
730.6775939179816532
 20
35.2217990817726587
 30
0.0
 11
730.6066255554269446
 21
39.2875738380021886
 31
0.0
  0
LINE
  5
4A6C
  8
0
 10
730.5261033402906605
 20
39.7315537411451132
 30
0.0
 11
730.6775939179816532
 21
35.2217990744726634
 31
0.0
  0
ARC
  5
4A6D
  8
0
 10
730.6258184821464283
 20
35.224659068376603
 30
0.0
 40
0.0518543664609182
 50
186.9539182923892042
 51
356.8382841182187235
  0
LINE
  5
4A6E
  8
0
 10
730.7617457952775339
 20
39.1793070146277529
 30
0.0
 11
730.887552993366171
 21
35.2187907626126986
 31
0.0
  0
ARC
  5
4A6F
  8
0
 10
730.9291914530234635
 20
35.1419480903343668
 30
0.0
 40
0.0299943043447744
 50
89.8992910066442334
 51
181.4242236265947952
  0
LINE
  5
4A70
  8
0
 10
730.9292441740908544
 20
35.1719423483450981
 30
0.0
 11
731.4611821078908633
 21
35.1719423483450981
 31
0.0
  0
ARC
  5
4A71
  8
0
 10
731.460706124762055
 20
35.1412584300491488
 30
0.0
 40
0.0306876099090822
 50
10.6395355821071398
 51
89.1112726568949682
  0
LINE
  5
4A72
  8
0
 10
733.1118908230907891
 20
38.9505246076451073
 30
0.0
 11
733.1440330381908552
 21
38.2978344917450571
 31
0.0
  0
LINE
  5
4A73
  8
0
 10
733.1440330381908552
 20
38.2978344917450571
 30
0.0
 11
733.1193964671906542
 21
39.0450933610450903
 31
0.0
  0
LINE
  5
4A74
  8
0
 10
733.2234108989907782
 20
39.0170717786450822
 30
0.0
 11
733.2479110505909148
 21
38.2994230983450876
 31
0.0
  0
LINE
  5
4A75
  8
0
 10
733.2365261109907806
 20
38.9457008252450834
 30
0.0
 11
733.2479110505909148
 21
38.2994230983450876
 31
0.0
  0
ARC
  5
4A76
  8
0
 10
733.2142136046162477
 20
38.2998812007313774
 30
0.0
 40
0.0702104046525899
 50
181.6704703879956924
 51
253.0663805532180959
  0
ARC
  5
4A77
  8
0
 10
733.18208033080316
 20
38.2961681848896305
 30
0.0
 40
0.0659111381282586
 50
285.451071500395301
 51
2.8306094051378481
  0
LINE
  5
4A78
  8
0
 10
733.193763871290912
 20
38.2327149195450673
 30
0.0
 11
733.1996400712909008
 21
38.2326391864450699
 31
0.0
  0
ARC
  5
4A79
  8
0
 10
314.8164593565081191
 20
-192089.5309087756904773
 30
0.0
 40
192128.9941517944971565
 50
89.8750207263545491
 51
89.8752028519638202
  0
ARC
  5
4A7A
  8
0
 10
733.2198263748415457
 20
-588.9204386639983113
 30
0.0
 40
627.9269764463560932
 50
89.7559772048386577
 51
89.9372920127707545
  0
LINE
  5
4A7B
  8
0
 10
736.1050442860906742
 20
38.8349495942450886
 30
0.0
 11
736.1520682343430053
 21
37.9375124773177035
 31
0.0
  0
LINE
  5
4A7C
  8
0
 10
736.0978138564676101
 20
37.8889313109482515
 30
0.0
 11
736.2639431461907407
 21
34.6873810031470526
 31
0.0
  0
LINE
  5
4A7D
  8
0
 10
736.238155684190815
 20
38.8307486040450982
 30
0.0
 11
736.2536966183004097
 21
37.9409344903424
 31
0.0
  0
LINE
  5
4A7E
  8
0
 10
736.3113680384715281
 20
37.8889230325282966
 30
0.0
 11
736.3671914998534476
 21
34.6907990703605407
 31
0.0
  0
LINE
  5
4A7F
  8
0
 10
736.218607905890849
 20
38.9559972754450925
 30
0.0
 11
736.2536966183004097
 21
37.9409344903424
 31
0.0
  0
LINE
  5
4A80
  8
0
 10
736.2555109584346837
 20
37.8889213269269618
 30
0.0
 11
736.3671914998534476
 21
34.6907990801605166
 31
0.0
  0
LINE
  5
4A81
  8
0
 10
736.1160049784346029
 20
38.9604137922888114
 30
0.0
 11
736.1520682343430053
 21
37.9375124773177035
 31
0.0
  0
LINE
  5
4A82
  8
0
 10
736.1537663458567522
 20
37.8889252667868419
 30
0.0
 11
736.2639431461907407
 21
34.6873810031470526
 31
0.0
  0
ARC
  5
4A83
  8
0
 10
736.3144050365690418
 20
34.6915532888353511
 30
0.0
 40
0.0506340828732745
 50
184.7265735317328108
 51
268.2104189794440003
  0
ARC
  5
4A84
  8
0
 10
736.316700497814054
 20
34.6914166636267609
 30
0.0
 40
0.0504947790210475
 50
271.6920668764597053
 51
359.2992073518217921
  0
LINE
  5
4A85
  8
0
 10
735.9346540778933559
 20
37.8889646464622416
 30
0.0
 11
736.058358839412108
 21
34.6898435749813387
 31
0.0
  0
LINE
  5
4A86
  8
0
 10
736.4743945975467341
 20
37.8889436918423286
 30
0.0
 11
736.5742730119907264
 21
34.687811203045122
 31
0.0
  0
ARC
  5
4A87
  8
0
 10
740.6523150518437433
 20
37.1471175851066988
 30
0.0
 40
0.7502699668519296
 50
9.0138156840818997
 51
90.2045793176833257
  0
ARC
  5
4A88
  8
0
 10
741.6622605345525017
 20
51.7634983877378971
 30
0.0
 40
0.0450015951747679
 50
39.4942661581139234
 51
80.074330537050372
  0
LINE
  5
4A89
  8
0
 10
741.6969877360908185
 20
51.7921194471451116
 30
0.0
 11
741.7787193353907469
 21
51.650556164645117
 31
0.0
  0
ARC
  5
4A8A
  8
0
 10
742.1034788601598393
 20
51.8380561637871224
 30
0.0
 40
0.3749999981420014
 50
210.0000000125259874
 51
270.0000001575095894
  0
LINE
  5
4A8B
  8
0
 10
742.1034788611907516
 20
51.4630561656451135
 30
0.0
 11
742.6254401717908422
 21
51.4630561656451135
 31
0.0
  0
ARC
  5
4A8C
  8
0
 10
742.6254401717908422
 20
51.8380561654719116
 30
0.0
 40
0.3749999998267981
 50
270.0
 51
330.0000000152796815
  0
LINE
  5
4A8D
  8
0
 10
742.9501996979907972
 20
51.6505561653450869
 30
0.0
 11
743.0319312967908445
 21
51.7921194471451116
 31
0.0
  0
ARC
  5
4A8E
  8
0
 10
743.0591380934915833
 20
51.7764115957565281
 30
0.0
 40
0.0314157027927787
 50
90.4314031034686252
 51
150.0000000165694871
  0
LINE
  5
4A8F
  8
0
 10
743.0589015541908111
 20
51.8078264080451021
 30
0.0
 11
747.2663735173956638
 21
51.7913732761450518
 31
0.0
  0
ARC
  5
4A90
  8
0
 10
747.2459058467363775
 20
170.8093633236155995
 30
0.0
 40
119.0179918073958021
 50
270.0098532258280102
 51
271.2640399312249997
  0
ARC
  5
4A91
  8
0
 10
749.8679584424833138
 20
51.9702957223828292
 30
0.0
 40
0.1500014656044257
 50
271.3250597195925025
 51
359.8690789277620183
  0
LINE
  5
4A92
  8
0
 10
750.0179595164908051
 20
52.261599738245053
 30
0.0
 11
750.0179595164908051
 21
51.6047821973451022
 31
0.0
  0
ARC
  5
4A93
  8
0
 10
749.8619595164907423
 20
51.6047821973451022
 30
0.0
 40
0.1559999999999917
 50
270.0
 51
0.0
  0
LINE
  5
4A94
  8
0
 10
749.8619595164907423
 20
51.4487821973450892
 30
0.0
 11
749.7227612479907748
 21
51.4487821973450892
 31
0.0
  0
ARC
  5
4A95
  8
0
 10
749.7227612479907748
 20
51.6367833406127801
 30
0.0
 40
0.1880011432676696
 50
186.0003137239160935
 51
270.0
  0
LINE
  5
4A96
  8
0
 10
749.5357901022907754
 20
51.6171308462450966
 30
0.0
 11
749.521122781490817
 21
51.7563780961450988
 31
0.0
  0
LINE
  5
4A97
  8
0
 10
750.3644595164907969
 20
52.3089347475020787
 30
0.0
 11
750.3644595164907969
 21
53.5013347294450483
 31
0.0
  0
LINE
  5
4A98
  8
0
 10
739.1008658113908041
 20
38.8383419532450915
 30
0.0
 11
739.146246503196835
 21
37.9413026902846724
 31
0.0
  0
ARC
  5
4A99
  8
0
 10
739.1951041057961902
 20
37.9447175890550881
 30
0.0
 40
0.0489767992561543
 50
183.9981822500446071
 51
270.1738307345781891
  0
LINE
  5
4A9A
  8
0
 10
739.1952526971933821
 20
37.8957410152062408
 30
0.0
 11
739.2006264722444939
 21
37.8957595728445114
 31
0.0
  0
ARC
  5
4A9B
  8
0
 10
739.2004057546149625
 20
37.9448485892009018
 30
0.0
 40
0.0490895125572372
 50
270.2576157428542274
 51
359.8754438096340778
  0
LINE
  5
4A9C
  8
0
 10
739.2494951511760064
 20
37.9447418728265333
 30
0.0
 11
739.2339513650907747
 21
38.8347958981450887
 31
0.0
  0
LINE
  5
4A9D
  8
0
 10
742.0255072618906524
 20
38.8535022238450978
 30
0.0
 11
742.257414206890644
 21
34.6873810031470526
 31
0.0
  0
LINE
  5
4A9E
  8
0
 10
742.3050769288907986
 20
38.8535492574451027
 30
0.0
 11
742.3606625605533509
 21
34.6907990703605407
 31
0.0
  0
LINE
  5
4A9F
  8
0
 10
742.2141428932907274
 20
38.8965025968450817
 30
0.0
 11
742.322695694353456
 21
36.1118125074605274
 31
0.0
  0
LINE
  5
4AA0
  8
0
 10
742.322695694353456
 20
36.1118125074605274
 30
0.0
 11
742.3606625605533509
 21
34.6907990801605806
 31
0.0
  0
LINE
  5
4AA1
  8
0
 10
742.1109223208405865
 20
38.9010815058448571
 30
0.0
 11
742.1959131787533579
 21
36.1065096578605704
 31
0.0
  0
LINE
  5
4AA2
  8
0
 10
742.1959131787533579
 20
36.1065096578605704
 30
0.0
 11
742.2257087222534437
 21
35.5818074944605414
 31
0.0
  0
LINE
  5
4AA3
  8
0
 10
742.2257087222534437
 20
35.5818074944605414
 30
0.0
 11
742.257414206890644
 21
34.6873810031470526
 31
0.0
  0
ARC
  5
4AA4
  8
0
 10
742.3062948453534773
 20
34.6907990703605975
 30
0.0
 40
0.0490000000000895
 50
184.0000000000553939
 51
270.0
  0
ARC
  5
4AA5
  8
0
 10
742.3116625605533727
 20
34.6907990703605407
 30
0.0
 40
0.0490000000000119
 50
270.0
 51
359.9999999999836859
  0
LINE
  5
4AA6
  8
0
 10
741.9023625823908787
 20
38.8495831502451026
 30
0.0
 11
742.0618587895908149
 21
34.6898419324450771
 31
0.0
  0
LINE
  5
4AA7
  8
0
 10
742.4472110995724279
 20
38.8491128434688591
 30
0.0
 11
742.5783019935854554
 21
34.6878408867440413
 31
0.0
  0
LINE
  5
4AA8
  8
0
 10
739.1453378058313319
 20
37.8925168501101695
 30
0.0
 11
739.1505548171619466
 21
37.8178760822619182
 31
0.0
  0
ARC
  5
4AA9
  8
0
 10
739.1994124197614155
 20
37.8212909810323268
 30
0.0
 40
0.0489767992561543
 50
183.9981822500446071
 51
270.1738307345781891
  0
LINE
  5
4AAA
  8
0
 10
739.1995610111584938
 20
37.7723144071834867
 30
0.0
 11
739.2049347862097193
 21
37.7723329648217572
 31
0.0
  0
ARC
  5
4AAB
  8
0
 10
739.2047140685801878
 20
37.8214219811781476
 30
0.0
 40
0.0490895125572372
 50
270.2576157428542274
 51
359.8754438096340778
  0
LINE
  5
4AAC
  8
0
 10
739.2538034651412318
 20
37.821315264803772
 30
0.0
 11
739.2538011585347704
 21
37.8927978248158368
 31
0.0
  0
LINE
  5
4AAD
  8
0
 10
739.1500987676602108
 20
37.7690795549898581
 30
0.0
 11
739.1544134109727793
 21
37.7073491370483467
 31
0.0
  0
ARC
  5
4AAE
  8
0
 10
739.2032710135722482
 20
37.7107640358187695
 30
0.0
 40
0.0489767992561543
 50
183.9981822500446071
 51
270.1738307345781891
  0
LINE
  5
4AAF
  8
0
 10
739.2034196049694401
 20
37.6617874619699222
 30
0.0
 11
739.2087933800205519
 21
37.6618060196081927
 31
0.0
  0
ARC
  5
4AB0
  8
0
 10
739.2085726623910205
 20
37.7108950359645902
 30
0.0
 40
0.0490895125572372
 50
270.2576157428542274
 51
359.8754438096340778
  0
LINE
  5
4AB1
  8
0
 10
739.2576620589520644
 20
37.7107883195902716
 30
0.0
 11
739.2576601674913945
 21
37.7694053636318117
 31
0.0
  0
LINE
  5
4AB2
  8
0
 10
739.1551117074332069
 20
37.6585043066864031
 30
0.0
 11
739.1571234187476875
 21
37.6297223724164027
 31
0.0
  0
ARC
  5
4AB3
  8
0
 10
739.2059810213471565
 20
37.6331372711868113
 30
0.0
 40
0.0489767992561543
 50
183.9981822500446071
 51
270.1738307345781891
  0
LINE
  5
4AB4
  8
0
 10
739.2061296127443484
 20
37.5841606973379072
 30
0.0
 11
739.2115033877954602
 21
37.5841792549762275
 31
0.0
  0
ARC
  5
4AB5
  8
0
 10
739.2112826701659287
 20
37.6332682713326179
 30
0.0
 40
0.0490895125572372
 50
270.2576157428542274
 51
359.8754438096340778
  0
LINE
  5
4AB6
  8
0
 10
739.2603720667270863
 20
37.6331615549582494
 30
0.0
 11
739.2603712368198785
 21
37.6588806754323429
 31
0.0
  0
LINE
  5
4AB7
  8
0
 10
739.1578215518675279
 20
37.5810542317556298
 30
0.0
 11
739.1598210707093131
 21
37.5524467374997499
 31
0.0
  0
ARC
  5
4AB8
  8
0
 10
739.2086786733085546
 20
37.5558616362701727
 30
0.0
 40
0.0489767992561543
 50
183.9981822500446071
 51
270.1738307345781891
  0
LINE
  5
4AB9
  8
0
 10
739.2088272647057465
 20
37.5068850624212615
 30
0.0
 11
739.2142010397568583
 21
37.5069036200595889
 31
0.0
  0
ARC
  5
4ABA
  8
0
 10
739.2139803221275542
 20
37.5559926364159224
 30
0.0
 40
0.0490895125572372
 50
270.2576157428542274
 51
359.8754438096340778
  0
LINE
  5
4ABB
  8
0
 10
739.2630697186883708
 20
37.5558859200416109
 30
0.0
 11
739.2630688920678494
 21
37.5815031913699826
 31
0.0
  0
LINE
  5
4ABC
  8
0
 10
739.1605390803920272
 20
37.5037511398350176
 30
0.0
 11
739.1624947761295061
 21
37.475770631019067
 31
0.0
  0
ARC
  5
4ABD
  8
0
 10
739.2113523787290887
 20
37.479185529789433
 30
0.0
 40
0.0489767992561543
 50
183.9981822500446071
 51
270.1738307345781891
  0
ARC
  5
4ABE
  8
0
 10
739.2166540275477473
 20
37.4793165299352466
 30
0.0
 40
0.0490895125572372
 50
270.2576157428542274
 51
359.8754438096340778
  0
LINE
  5
4ABF
  8
0
 10
739.2657434241086776
 20
37.479209813560928
 30
0.0
 11
739.2657426150567517
 21
37.5042826258429827
 31
0.0
  0
LINE
  5
4AC0
  8
0
 10
739.1632655940012455
 20
37.4270279899715916
 30
0.0
 11
739.1651370474548912
 21
37.4002527514454215
 31
0.0
  0
ARC
  5
4AC1
  8
0
 10
739.2139946500542464
 20
37.4036676502158372
 30
0.0
 40
0.0489767992561543
 50
183.9981822500446071
 51
270.1738307345781891
  0
LINE
  5
4AC2
  8
0
 10
739.2141432414514384
 20
37.3546910763669899
 30
0.0
 11
739.2195170165025502
 21
37.3547096340052605
 31
0.0
  0
ARC
  5
4AC3
  8
0
 10
739.2192962988730187
 20
37.4037986503616509
 30
0.0
 40
0.0490895125572372
 50
270.2576157428542274
 51
359.8754438096340778
  0
LINE
  5
4AC4
  8
0
 10
739.2683856954340627
 20
37.4036919339872682
 30
0.0
 11
739.2683849211333609
 21
37.4276877888311432
 31
0.0
  0
LINE
  5
4AC5
  8
0
 10
739.1659798133263166
 20
37.3516383823064899
 30
0.0
 11
739.1676763730115454
 21
37.3273653820032081
 31
0.0
  0
ARC
  5
4AC6
  8
0
 10
739.2165339756110143
 20
37.3307802807736167
 30
0.0
 40
0.0489767992561543
 50
183.9981822500446071
 51
270.1738307345781891
  0
ARC
  5
4AC7
  8
0
 10
739.2218356244296729
 20
37.3309112809194374
 30
0.0
 40
0.0490895125572372
 50
270.2576157428542274
 51
359.8754438096340778
  0
LINE
  5
4AC8
  8
0
 10
739.2709250209906031
 20
37.3308045645450619
 30
0.0
 11
739.270924321056782
 21
37.3524957725432074
 31
0.0
  0
ARC
  5
4AC9
  8
0
 10
739.2228224947936042
 20
37.2307047148939816
 30
0.0
 40
0.0489767992561543
 50
200.5562906331244051
 51
270.1738307345781891
  0
LINE
  5
4ACA
  8
0
 10
739.2229710861907961
 20
37.1817281410451272
 30
0.0
 11
739.2283448612417942
 21
37.1817466986834475
 31
0.0
  0
ARC
  5
4ACB
  8
0
 10
739.2281241436123764
 20
37.2308357150397882
 30
0.0
 40
0.0490895125572372
 50
270.2576157428542274
 51
341.487223976989128
  0
LINE
  5
4ACC
  8
0
 10
739.146246503196835
 20
37.9413026902846724
 30
0.0
 11
739.112336635753536
 21
38.9490065537847414
 31
0.0
  0
LINE
  5
4ACD
  8
0
 10
739.2149202614906471
 20
38.9451098789450825
 30
0.0
 11
739.2494951511760064
 21
37.9447418728265333
 31
0.0
  0
ARC
  5
4ACE
  8
0
 10
743.6572737977739962
 20
42.5423016258178635
 30
0.0
 40
4.0942756194376608
 50
288.4150703606031811
 51
311.6717060056299147
  0
ARC
  5
4ACF
  8
0
 10
744.5913806537198525
 20
41.5104054857300611
 30
0.0
 40
2.7024571576826468
 50
311.4241043336843973
 51
349.2400873267109205
  0
ARC
  5
4AD0
  8
0
 10
16889.9607887247111648
 20
-2489.2560149883702252
 30
0.0
 40
16339.8324867030805763
 50
171.0560949171878917
 51
171.069499989795105
  0
ARC
  5
4AD1
  8
0
 10
896.2892889496027919
 20
23.3425402898083014
 30
0.0
 40
150.001349208548902
 50
170.8178481811405902
 51
171.5107054868670957
  0
ARC
  5
4AD2
  8
0
 10
899.1762125034026667
 20
24.1564067151570505
 30
0.0
 40
152.741457034914788
 50
171.9725272627703134
 51
172.6590786188313018
  0
ARC
  5
4AD3
  8
0
 10
-715.1653360388550027
 20
283.8764436226621228
 30
0.0
 40
1482.4418963668840661
 50
350.5706436047731245
 51
350.6751090626956966
  0
ARC
  5
4AD4
  8
0
 10
749.1255349215425667
 20
51.0028819930869375
 30
0.0
 40
0.3258297208771693
 50
151.9324987122386119
 51
170.7414652564137896
  0
ARC
  5
4AD5
  8
0
 10
771.1460597743304106
 20
39.2696169379870099
 30
0.0
 40
25.2772429656439499
 50
150.4737997659779865
 51
151.949607331063504
  0
ARC
  5
4AD6
  8
0
 10
749.258721478578309
 20
51.6336353946937407
 30
0.0
 40
0.1419868677946572
 50
100.1187840581328032
 51
139.000694366735388
  0
ARC
  5
4AD7
  8
0
 10
726.7362609133731439
 20
56.3723220401330778
 30
0.0
 40
16.8539575333036709
 50
330.8150045116613001
 51
340.6625088730360744
  0
ARC
  5
4AD8
  8
0
 10
742.8843970376764219
 20
50.7011126159524466
 30
0.0
 40
0.2611236205903424
 50
145.1396185531905019
 51
159.7623390477517091
  0
ARC
  5
4AD9
  8
0
 10
866.9881557133983279
 20
-35.5945910327760799
 30
0.0
 40
151.4189595358186011
 50
144.7870069728024873
 51
145.1870494783993877
  0
ARC
  5
4ADA
  8
0
 10
743.3316361044077212
 20
51.6775585856601509
 30
0.0
 40
0.0671741685459498
 50
98.2800704517049155
 51
144.8344378980083889
  0
ARC
  5
4ADB
  8
0
 10
748.8907313467669837
 20
-166.6099037434206878
 30
0.0
 40
218.4249360175805066
 50
91.0501324130097629
 51
91.4609208532980347
  0
LINE
  5
4ADC
  8
0
 10
744.8876046743906727
 20
51.7783460575450789
 30
0.0
 11
743.5414013719906734
 21
50.6772290258450795
 31
0.0
  0
LINE
  5
4ADD
  8
0
 10
743.3787558531907962
 20
50.5077234351450812
 30
0.0
 11
741.8058770218907512
 21
48.5389250456450867
 31
0.0
  0
LINE
  5
4ADE
  8
0
 10
741.634640106190318
 20
48.2182133250878593
 30
0.0
 11
741.4506052851593267
 21
48.1538091490967091
 31
0.0
  0
LINE
  5
4ADF
  8
0
 10
746.1403013376907438
 20
51.6695233846451032
 30
0.0
 11
745.4295628562906586
 21
50.9301226998450929
 31
0.0
  0
ARC
  5
4AE0
  8
0
 10
745.6596160227829841
 20
50.7109809691044831
 30
0.0
 40
0.3177224536684044
 50
136.3915035556059934
 51
158.6924343314387045
  0
ARC
  5
4AE1
  8
0
 10
733.8217026058503052
 20
55.2632062761570211
 30
0.0
 40
12.3652994061281891
 50
324.5254417572389798
 51
338.9729669203582034
  0
LINE
  5
4AE2
  8
0
 10
743.8916722248909537
 20
48.0871111489451977
 30
0.0
 11
744.105520244204854
 21
48.2098217479343916
 31
0.0
  0
ARC
  5
4AE3
  8
0
 10
751.093486757611231
 20
-122.2929750205068018
 30
0.0
 40
174.0660512921120926
 50
90.9187131997644542
 51
91.6031253864578758
  0
ARC
  5
4AE4
  8
0
 10
746.2247188920057397
 20
51.5866541498341888
 30
0.0
 40
0.118294689460941
 50
90.4518178436601801
 51
135.5302847903818133
  0
LINE
  5
4AE6
  8
0
 10
741.3933196279907634
 20
37.2646643472451018
 30
0.0
 11
741.7754742082908024
 21
34.8518352870450911
 31
0.0
  0
ARC
  5
4AE7
  8
0
 10
742.0223962946288339
 20
34.8909439034936426
 30
0.0
 40
0.2500000012040654
 50
189.0000000000351008
 51
269.9979791345518834
  0
LINE
  5
4AE8
  8
0
 10
731.8330798041906746
 20
34.6409439024451018
 30
0.0
 11
731.5652847119599755
 21
34.6409439024451018
 31
0.0
  0
LINE
  5
4AE9
  8
0
 10
736.0076648646908097
 20
34.6409439024451018
 30
0.0
 11
736.6135219549478279
 21
34.6409439024451018
 31
0.0
  0
LINE
  5
4AEA
  8
0
 10
742.0113130539341455
 20
34.6409439024451018
 30
0.0
 11
742.6172148791968084
 21
34.6409439024451018
 31
0.0
  0
LINE
  5
4AEB
  8
0
 10
742.3062948453534773
 20
34.6417990703605128
 30
0.0
 11
742.3116625605533727
 21
34.641799070360527
 31
0.0
  0
ARC
  5
4AEC
  8
0
 10
741.6998801197814828
 20
34.6758330056481299
 30
0.0
 40
0.3622496479321008
 50
354.4731435343286989
 51
2.2162963713521981
  0
LINE
  5
4AED
  8
0
 10
741.292418400690849
 20
37.0706864493451107
 30
0.0
 11
741.7667852301907487
 21
34.838965980245078
 31
0.0
  0
ARC
  5
4AEE
  8
0
 10
742.0113221311985399
 20
34.8909439031224835
 30
0.0
 40
0.2500000008421823
 50
191.9999999994969926
 51
269.9979196442487819
  0
ARC
  5
4AEF
  8
0
 10
742.927109653348225
 20
34.6973491830662724
 30
0.0
 40
0.3489372310431447
 50
181.5614633323355918
 51
189.3026107617633045
  0
ARC
  5
4AF0
  8
0
 10
740.5587997255165646
 20
36.9147019577383304
 30
0.0
 40
0.7500183478996896
 50
12.0036635588126401
 51
90.3079117913917315
  0
ARC
  5
4AF1
  8
0
 10
740.606663116525624
 20
36.6875518683042614
 30
0.0
 40
0.7504153788660108
 50
23.4461464343762813
 51
90.4890385085819275
  0
ARC
  5
4AF2
  8
0
 10
736.0416668754944567
 20
543.1351028127219251
 30
0.0
 40
505.7177091218894134
 50
270.1579485081373946
 51
270.5164770247438923
  0
ARC
  5
4AF3
  8
0
 10
737.9222957244620602
 20
37.0159759148661323
 30
0.0
 40
0.7502895913539418
 50
90.1151969191331546
 51
171.9893466786348029
  0
ARC
  5
4AF4
  8
0
 10
736.4628908489634114
 20
942.6702631181042307
 30
0.0
 40
904.9051735404785859
 50
270.0923095010966222
 51
270.2910943734721059
  0
ARC
  5
4AF5
  8
0
 10
736.5096781490279909
 20
792.2295186364162873
 30
0.0
 40
754.5756515985057149
 50
270.0773529382378229
 51
270.3071497844917985
  0
ARC
  5
4AF6
  8
0
 10
740.583097065607717
 20
36.6781844638458523
 30
0.0
 40
0.7757632486934718
 50
13.6877338707004697
 51
23.3883424564219418
  0
ARC
  5
4AF7
  8
0
 10
740.7556110549915047
 20
36.4953316995342192
 30
0.0
 40
0.7501046803112099
 50
47.0257272392331416
 51
91.2337452926540777
  0
ARC
  5
4AF8
  8
0
 10
734.0046650523389644
 20
330.1732558675712994
 30
0.0
 40
293.0054040007020717
 50
270.6651103424549092
 51
271.3170724072936082
  0
ARC
  5
4AF9
  8
0
 10
737.8845929560711738
 20
36.5857461939497881
 30
0.0
 40
0.7731371627305063
 50
160.6058974356998874
 51
170.3852234611528047
  0
ARC
  5
4AFA
  8
0
 10
737.8636295078916874
 20
36.5917228287134293
 30
0.0
 40
0.751379787274349
 50
90.3431296966171544
 51
160.5049594099093042
  0
ARC
  5
4AFB
  8
0
 10
735.675985035905228
 20
470.9497951868721088
 30
0.0
 40
433.6122019130264107
 50
270.2884732119208024
 51
270.6929722013838955
  0
ARC
  5
4AFC
  8
0
 10
737.8957042542670024
 20
36.8264520080362203
 30
0.0
 40
0.7503398145409471
 50
90.1565776682582083
 51
171.7653935119209052
  0
ARC
  5
4AFD
  8
0
 10
735.9353457557597267
 20
805.3463443123201841
 30
0.0
 40
767.7720527622441296
 50
270.1461409063256838
 51
270.3693485667096184
  0
LINE
  5
4AFE
  8
0
 10
737.1793273280907215
 20
37.1205341899451113
 30
0.0
 11
736.8610889722908723
 21
34.8561506290451106
 31
0.0
  0
ARC
  5
4AFF
  8
0
 10
735.4832668583435407
 20
365.4007947806085781
 30
0.0
 40
328.142966540809482
 50
270.3571042733203171
 51
270.9691460838719195
  0
ARC
  5
4B00
  8
0
 10
736.0936738982687757
 20
654.9783146289804563
 30
0.0
 40
617.4821796765927502
 50
270.1361287800804121
 51
270.455956904239315
  0
ARC
  5
4B01
  8
0
 10
736.3929073836453654
 20
1121.3353141977170253
 30
0.0
 40
1083.4462935455710522
 50
270.0440044257458112
 51
270.2251087313994731
  0
ARC
  5
4B02
  8
0
 10
736.2486971299268816
 20
1175.6736540642530144
 30
0.0
 40
1137.7847327577289889
 50
269.8670561497481231
 51
270.0491649003906787
  0
ARC
  5
4B03
  8
0
 10
731.8330798041906746
 20
35.0159439024451018
 30
0.0
 40
0.3750000000000284
 50
270.0000000916749059
 51
345.0000008533965001
  0
LINE
  5
4B04
  8
0
 10
732.1953019916905987
 20
34.9188867701451073
 30
0.0
 11
732.7234378377908115
 21
36.889916581345112
 31
0.0
  0
ARC
  5
4B05
  8
0
 10
734.1732182607470349
 20
36.5012051781435432
 30
0.0
 40
1.500986285668849
 50
98.698949921308909
 51
164.9910067078216116
  0
ARC
  5
4B06
  8
0
 10
733.7464995431907937
 20
39.2193229736538029
 30
0.0
 40
1.250448071096711
 50
279.1898983771117173
 51
321.3266553015595832
  0
LINE
  5
4B07
  8
0
 10
734.7227508617907006
 20
38.4379435898450907
 30
0.0
 11
734.7563401086906651
 21
38.478582491345108
 31
0.0
  0
ARC
  5
4B08
  8
0
 10
735.894362215236697
 20
37.4998191317832408
 30
0.0
 40
1.501023660375904
 50
90.0077168009469091
 51
139.3026066804549998
  0
LINE
  5
4B09
  8
0
 10
735.3352742585414035
 20
38.8928348121280223
 30
0.0
 11
736.045109326490774
 21
38.8925731750450865
 31
0.0
  0
ARC
  5
4B0A
  8
0
 10
736.0450872088347296
 20
38.8325688539659524
 30
0.0
 40
0.0600043251554177
 50
2.2738724839801732
 51
89.9788807162500035
  0
ARC
  5
4B0B
  8
0
 10
736.202789687733798
 20
37.9419776734678891
 30
0.0
 40
0.0509176178816726
 50
185.0309884166748873
 51
358.8260610967103048
  0
ARC
  5
4B0C
  8
0
 10
735.7125035478720747
 20
34.6751935987629878
 30
0.0
 40
0.3461654293679119
 50
354.3218509977741064
 51
2.4255240412418599
  0
ARC
  5
4B0D
  8
0
 10
736.9348046500418832
 20
34.6990120661592769
 30
0.0
 40
0.3607055882161073
 50
181.7794716450991075
 51
189.2640696669355975
  0
ARC
  5
4B0E
  8
0
 10
736.6135219549478279
 20
34.8909439023433521
 30
0.0
 40
0.2499999998858251
 50
270.0
 51
352.0000004457102136
  0
ARC
  5
4B0F
  8
0
 10
733.9773564444690237
 20
35.7705850218813879
 30
0.0
 40
1.5009152865826469
 50
89.4954948418867673
 51
164.7147945449470114
  0
ARC
  5
4B10
  8
0
 10
736.2119021179648826
 20
270.9454419555481763
 30
0.0
 40
233.684557692229788
 50
269.4553566375109881
 51
269.6924835401098903
  0
ARC
  5
4B11
  8
0
 10
737.5165982446537782
 20
266.1649106106301019
 30
0.0
 40
228.9900558110963971
 50
269.0073362953600054
 51
269.3903807511484274
  0
ARC
  5
4B12
  8
0
 10
736.0076648646908097
 20
34.8909439024450734
 30
0.0
 40
0.2499999999999872
 50
191.999999728596606
 51
270.0
  0
LINE
  5
4B13
  8
0
 10
735.7631279643908329
 20
34.8389659805450975
 30
0.0
 11
735.2671988750906849
 21
37.1721289058450992
 31
0.0
  0
ARC
  5
4B14
  8
0
 10
734.5332392665379757
 20
37.0158789889607505
 30
0.0
 40
0.7504070518814949
 50
12.01807259521612
 51
89.8780375536318274
  0
LINE
  5
4B15
  8
0
 10
734.5348366164906793
 20
37.7662843407450879
 30
0.0
 11
734.1129078719907284
 21
37.7671205706451119
 31
0.0
  0
ARC
  5
4B16
  8
0
 10
734.1097899698499987
 20
36.2668221114671709
 30
0.0
 40
1.500301698967732
 50
89.8809287743173684
 51
160.3779673766256906
  0
ARC
  5
4B17
  8
0
 10
734.318505579821931
 20
36.1930512237776583
 30
0.0
 40
1.7216702450289101
 50
160.3980244051523982
 51
163.4985786758965958
  0
ARC
  5
4B18
  8
0
 10
750.582089799444816
 20
6620.048545204283073
 30
0.0
 40
6582.4128597543558499
 50
269.8517234979494788
 51
269.8637374394996868
  0
ARC
  5
4B19
  8
0
 10
737.712235952250353
 20
1202.0296305610379477
 30
0.0
 40
1164.4570590688890661
 50
269.7870982696344981
 51
269.8456640286935908
  0
ARC
  5
4B1A
  8
0
 10
734.5735545065457472
 20
36.8264468277741202
 30
0.0
 40
0.7503519542946941
 50
23.4464128885488101
 51
89.845664028693605
  0
ARC
  5
4B1B
  8
0
 10
734.4841280033040221
 20
36.7918767558012618
 30
0.0
 40
0.8461587050648336
 50
14.9757232188791605
 51
23.1846135007148
  0
ARC
  5
4B1C
  8
0
 10
734.0389129257355307
 20
35.9986449603320793
 30
0.0
 40
1.501821415468322
 50
89.8117088637175556
 51
163.5333855095666991
  0
ARC
  5
4B1D
  8
0
 10
697.7688505898943276
 20
-11441.8119560726208874
 30
0.0
 40
11479.3697292775905225
 50
89.8146264164623744
 51
89.8189440899815139
  0
ARC
  5
4B1E
  8
0
 10
737.766005369778668
 20
898.2708912452378627
 30
0.0
 40
860.8559505522746349
 50
269.720682820968193
 51
269.8181351865280249
  0
ARC
  5
4B1F
  8
0
 10
736.4320440653060587
 20
420.0807804874203271
 30
0.0
 40
382.7420920430284923
 50
269.5439152606883226
 51
269.7297778347631265
  0
ARC
  5
4B20
  8
0
 10
734.6227039128781371
 20
36.59076634210696
 30
0.0
 40
0.7521907046519161
 50
14.8146467719067996
 51
89.6775521214287039
  0
LINE
  5
4B21
  8
0
 10
739.1688053394707367
 20
37.2785259595075473
 30
0.0
 11
739.1699417785116566
 21
37.2622667112032175
 31
0.0
  0
ARC
  5
4B22
  8
0
 10
739.2187993811110118
 20
37.2656816099736403
 30
0.0
 40
0.0489767992561543
 50
183.9981822500446071
 51
270.1738307345781891
  0
LINE
  5
4B23
  8
0
 10
739.2189479725082037
 20
37.2167050361247433
 30
0.0
 11
739.2243217475593156
 21
37.2167235937630565
 31
0.0
  0
ARC
  5
4B24
  8
0
 10
739.2241010299298978
 20
37.2658126101194611
 30
0.0
 40
0.0490895125572372
 50
270.2576157428542274
 51
359.8754438096340778
  0
LINE
  5
4B25
  8
0
 10
739.273190426490828
 20
37.2657058937450785
 30
0.0
 11
739.2731899744424027
 21
37.279715035681491
 31
0.0
  0
LINE
  5
4B26
  8
0
 10
739.2166825670082062
 20
37.2818037069247481
 30
0.0
 11
739.222056342059318
 21
37.2818222645630826
 31
0.0
  0
LINE
  5
4B27
  8
0
 10
739.2115009701262807
 20
37.4302089559405573
 30
0.0
 11
739.2168747451772788
 21
37.4302275135788918
 31
0.0
  0
ARC
  5
4B28
  8
0
 10
739.2947644310245323
 20
38.8357276930212407
 30
0.0
 40
0.0608202041262725
 50
90.9530651678361437
 51
180.877833333065098
  0
ARC
  5
4B29
  8
0
 10
739.0399874667529048
 20
38.8349948710892789
 30
0.0
 40
0.0609702862449163
 50
3.1469449757898138
 51
89.2639412180867851
  0
ARC
  5
4B2A
  8
0
 10
739.2749914513306067
 20
38.9460597824486712
 30
0.0
 40
0.0600786997648546
 50
90.2180754211206022
 51
180.9059405376673055
  0
ARC
  5
4B2B
  8
0
 10
739.0524161591571328
 20
38.9458345039515024
 30
0.0
 40
0.0600043783043036
 50
3.030275945418734
 51
90.132896162365725
  0
LINE
  5
4B2C
  8
0
 10
736.045109326490774
 20
38.8925731750450865
 30
0.0
 11
736.042672536890791
 21
38.9623435991450791
 31
0.0
  0
ARC
  5
4B2D
  8
0
 10
736.146853183443227
 20
38.965982194141688
 30
0.0
 40
0.1042441676527724
 50
150.5423529668235005
 51
182.0002892881574894
  0
ARC
  5
4B2E
  8
0
 10
736.1861047993055536
 20
37.896481638282367
 30
0.0
 40
1.1282822506977499
 50
91.2540624796159676
 51
96.6172530683649882
  0
ARC
  5
4B2F
  8
0
 10
736.0903866914532045
 20
37.0234205704993684
 30
0.0
 40
2.0024681243009841
 50
84.6066971178012182
 51
87.8612216771032877
  0
LINE
  5
4B30
  8
0
 10
736.1614114714956258
 20
39.0244936403467335
 30
0.0
 11
736.1651189122395635
 21
39.0244937036001573
 31
0.0
  0
ARC
  5
4B31
  8
0
 10
736.1935281389008878
 20
38.9604473938087423
 30
0.0
 40
0.1021691465757987
 50
1.0554754645052471
 51
33.6247453118018171
  0
LINE
  5
4B32
  8
0
 10
736.2956799502908325
 20
38.9623293985451014
 30
0.0
 11
736.2981163978907944
 21
38.8925587676450988
 31
0.0
  0
ARC
  5
4B33
  8
0
 10
736.2990794278872499
 20
38.8316361700911585
 30
0.0
 40
0.0609302085955224
 50
90.9056238805106034
 51
180.8346530943090045
  0
ARC
  5
4B34
  8
0
 10
736.2786423607071811
 20
38.9569811802494002
 30
0.0
 40
0.0600425168841143
 50
90.0379755846739442
 51
180.9389365891707087
  0
ARC
  5
4B35
  8
0
 10
736.0560846319621078
 20
38.9572432272679094
 30
0.0
 40
0.0600041698877634
 50
3.0288667033793528
 51
89.9989244146680534
  0
ARC
  5
4B36
  8
0
 10
733.0511583318760813
 20
38.9473473594789112
 30
0.0
 40
0.0608155440247911
 50
2.9947249117358452
 51
88.8240704521045217
  0
ARC
  5
4B37
  8
0
 10
733.2973166959097853
 20
38.9467017471422565
 30
0.0
 40
0.060798824490684
 50
90.9106753192886572
 51
180.9432944076513934
  0
ARC
  5
4B38
  8
0
 10
732.639907952478211
 20
39.1112869247314308
 30
0.0
 40
0.425196643235379
 50
345.9621597842959204
 51
358.4394951131156972
  0
ARC
  5
4B39
  8
0
 10
733.0922204940675329
 20
39.0955101775852683
 30
0.0
 40
0.0275947147150849
 50
132.8076775818410056
 51
171.2505386055075007
  0
ARC
  5
4B3A
  8
0
 10
733.3288836145810592
 20
38.7592412475864521
 30
0.0
 40
0.4385642434106895
 50
112.9379961394071046
 51
125.6187210742523064
  0
ARC
  5
4B3B
  8
0
 10
733.1595032784878185
 20
39.1594799953438297
 30
0.0
 40
0.0039601092133133
 50
54.3299456065258823
 51
112.9379961393569971
  0
ARC
  5
4B3C
  8
0
 10
731.3920804270694589
 20
36.0367138758172914
 30
0.0
 40
3.592175237334315
 50
58.6156451997096895
 51
60.4842321879538503
  0
ARC
  5
4B3D
  8
0
 10
733.2419406578979988
 20
39.0590586316211983
 30
0.0
 40
0.0489388074837952
 50
20.8192831796391395
 51
64.7699317811361936
  0
ARC
  5
4B3E
  8
0
 10
733.5500187270920378
 20
39.0743963774289469
 30
0.0
 40
0.2623427247061854
 50
179.5509286986024904
 51
194.7749608197586042
  0
ARC
  5
4B3F
  8
0
 10
731.2151693768764744
 20
39.0808185280636309
 30
0.0
 40
0.0726463149568026
 50
5.0379876657810909
 51
71.564244404229413
  0
ARC
  5
4B40
  8
0
 10
731.7539097029274444
 20
39.1610523116849691
 30
0.0
 40
0.5158906909811612
 50
174.9950193383938029
 51
181.2568503048846935
  0
ARC
  5
4B41
  8
0
 10
727.1185339935291267
 20
39.9585618021256579
 30
0.0
 40
4.18958544712501
 50
349.652809278180996
 51
356.5868348958671277
  0
ARC
  5
4B42
  8
0
 10
731.4350367487434141
 20
39.6890345515586915
 30
0.0
 40
0.1358437474203994
 50
117.1054502915711026
 51
171.4922434098903921
  0
ARC
  5
4B43
  8
0
 10
730.6350298817135354
 20
39.0171636882809167
 30
0.0
 40
1.0832052412408251
 50
36.9548779885809324
 51
47.0456747664761181
  0
ARC
  5
4B44
  8
0
 10
731.3729957979645633
 20
39.5723502520448065
 30
0.0
 40
0.1597195542200813
 50
11.0049768877607796
 51
36.9548779885809324
  0
ARC
  5
4B45
  8
0
 10
735.9125691509932494
 20
40.1043590967852381
 30
0.0
 40
4.4113918519638178
 50
186.5279172270143988
 51
192.6965616970734061
  0
ARC
  5
4B46
  8
0
 10
731.3438980859801859
 20
39.0964890931336626
 30
0.0
 40
0.267899701057397
 50
358.7526851176955915
 51
8.2195020363245153
  0
ARC
  5
4B47
  8
0
 10
731.6964500143482155
 20
39.6629624978426918
 30
0.0
 40
0.3551558718673105
 50
155.5504692941279927
 51
184.2118704768292048
  0
ARC
  5
4B48
  8
0
 10
730.1719350029879934
 20
39.2958326042498385
 30
0.0
 40
1.3066079973508591
 50
11.4032174852326502
 51
23.1712945400748005
  0
ARC
  5
4B49
  8
0
 10
730.1259372523063575
 20
39.3922641906158475
 30
0.0
 40
0.0814562321406627
 50
3.4713238041753991
 51
45.9858979068776321
  0
ARC
  5
4B4A
  8
0
 10
730.2838218865082354
 20
39.2120200372468872
 30
0.0
 40
0.2594151019303744
 50
83.010023605985495
 51
112.981863037742599
  0
ARC
  5
4B4B
  8
0
 10
730.2865973495061098
 20
39.405048412534903
 30
0.0
 40
0.0705975990086037
 50
11.3616322887219692
 51
65.9292567432685104
  0
ARC
  5
4B4C
  8
0
 10
731.9018267136194709
 20
39.5716772704818922
 30
0.0
 40
1.5897217251299991
 50
178.1544513619301995
 51
183.6848973229340061
  0
ARC
  5
4B4D
  8
0
 10
725.4606851681146509
 20
40.7603500606748881
 30
0.0
 40
4.9837863331066687
 50
346.806809458891621
 51
350.3374180968153837
  0
ARC
  5
4B4E
  8
0
 10
730.5059132372164186
 20
39.8991996631056764
 30
0.0
 40
0.1344235096828621
 50
119.422148409494298
 51
169.436272270862105
  0
ARC
  5
4B4F
  8
0
 10
728.572062167876652
 20
38.3996093083523107
 30
0.0
 40
2.4703000528871728
 50
35.4844421310663094
 51
40.8776090509350709
  0
ARC
  5
4B50
  8
0
 10
730.4280895814432597
 20
39.7346720303635692
 30
0.0
 40
0.1842633262013015
 50
13.1540087831152892
 51
32.4620577061149476
  0
ARC
  5
4B51
  8
0
 10
735.125451771149983
 20
40.6794462308953726
 30
0.0
 40
4.6072602162621159
 50
191.3008452222335052
 51
195.182488806028914
  0
ARC
  5
4B52
  8
0
 10
728.9566488582902366
 20
39.3534908923706865
 30
0.0
 40
1.726481382305969
 50
359.5862622177144772
 51
3.963646662846692
  0
ARC
  5
4B53
  8
0
 10
730.8303476189241792
 20
39.8526998436031903
 30
0.0
 40
0.4233510628235697
 50
157.2688681043717054
 51
186.6526271073747978
  0
ARC
  5
4B54
  8
0
 10
729.3226299890884547
 20
39.522531753289357
 30
0.0
 40
1.2214901958106259
 50
9.8529724762675972
 51
23.8424238915810989
  0
ARC
  5
4B55
  8
0
 10
730.6735111046821203
 20
39.2733072523462994
 30
0.0
 40
0.0683901466984286
 50
81.9525745481286805
 51
167.9593351654573894
  0
ARC
  5
4B56
  8
0
 10
730.3016462554112422
 20
38.6566668480252673
 30
0.0
 40
0.7834796132267794
 50
48.5371221149965422
 51
60.8660883876654921
  0
ARC
  5
4B57
  8
0
 10
732.4599521554087005
 20
45.5506271467775008
 30
0.0
 40
6.5164574521226157
 50
255.42782237270049
 51
259.1933165350578179
  0
ARC
  5
4B58
  8
0
 10
730.836801616662342
 20
39.1699547354058524
 30
0.0
 40
0.075636244290716
 50
102.512163180600993
 51
172.8973070231301108
  0
ARC
  5
4B59
  8
0
 10
733.3475037610065783
 20
39.0358835907254189
 30
0.0
 40
0.2282931391025847
 50
146.126001769026999
 51
177.687954149387707
  0
ARC
  5
4B5A
  8
0
 10
732.8867146107699
 20
38.9604923353549992
 30
0.0
 40
0.3414170820340988
 50
9.5390300005770197
 51
36.3169505825620291
  0
ARC
  5
4B5B
  8
0
 10
731.6116156764105654
 20
39.0229062517996823
 30
0.0
 40
0.0677512959244215
 50
89.8996760340340728
 51
178.6409028285345926
  0
ARC
  5
4B5C
  8
0
 10
731.2332027135586259
 20
35.2310366780418107
 30
0.0
 40
0.3458665805100872
 50
182.0290655143855929
 51
195.0544131581349063
  0
ARC
  5
4B5D
  8
0
 10
730.0821272708972174
 20
35.2057691729388225
 30
0.0
 40
0.2842192686284662
 50
347.2915301562430841
 51
3.012021363044636
  0
ARC
  5
4B5E
  8
0
 10
730.3293993803348485
 20
35.141930818165882
 30
0.0
 40
0.0300130923217627
 50
2.5070473663057689
 51
89.9580551476069559
  0
LINE
  5
4B5F
  8
0
 10
730.3294213521908205
 20
35.1719439024451077
 30
0.0
 11
730.2194101784906479
 21
35.1719439024451077
 31
0.0
  0
ARC
  5
4B60
  8
0
 10
730.2193914595533215
 20
35.359446104831548
 30
0.0
 40
0.1875022033208622
 50
195.9915637559140009
 51
270.0057200187455919
  0
LINE
  5
4B61
  8
0
 10
730.0391451657908419
 20
35.3077900322450802
 30
0.0
 11
729.496323654690741
 21
37.2008336102450912
 31
0.0
  0
ARC
  5
4B62
  8
0
 10
728.533108906782445
 20
36.9242130830511925
 30
0.0
 40
1.002148475353378
 50
16.0232551476637006
 51
74.7326249508817995
  0
ARC
  5
4B63
  8
0
 10
729.5054280753106468
 20
40.2851368366056235
 30
0.0
 40
2.4967571144106562
 50
218.2408829478642929
 51
253.5164581160273087
  0
ARC
  5
4B64
  8
0
 10
727.2487194299742441
 20
38.502340808522419
 30
0.0
 40
0.3792073899472431
 50
38.7550408482015172
 51
75.3690380053240716
  0
ARC
  5
4B65
  8
0
 10
727.9305592917286276
 20
41.4243707569770123
 30
0.0
 40
2.6214680114920998
 50
257.0817930658524233
 51
269.1349550698391795
  0
LINE
  5
4B66
  8
0
 10
727.8909821800906457
 20
38.8032015164450996
 30
0.0
 11
728.7331263479519521
 21
38.7968264551283966
 31
0.0
  0
ARC
  5
4B67
  8
0
 10
728.4245598081495245
 20
38.4666879897909126
 30
0.0
 40
0.4518901589778829
 50
44.824518464744969
 51
87.6022950308392723
  0
ARC
  5
4B68
  8
0
 10
730.6532122353328305
 20
40.6069089266323786
 30
0.0
 40
2.6380806764386389
 50
223.6718565274885009
 51
242.0902862572515062
  0
ARC
  5
4B69
  8
0
 10
728.4121022105339307
 20
39.6412247452942808
 30
0.0
 40
0.7012098551216158
 50
14.7970742322394404
 51
40.4502964134861926
  0
LINE
  5
4B6A
  8
0
 10
729.0900574445907978
 20
39.820311209145089
 30
0.0
 11
730.0465302476907254
 21
35.3204604607451103
 31
0.0
  0
ARC
  5
4B6B
  8
0
 10
730.2299329233529761
 20
35.359443902884621
 30
0.0
 40
0.1875000005363488
 50
191.9999999999000977
 51
270.0
  0
ARC
  5
4B6C
  8
0
 10
728.57231143285901
 20
43.3908744763356395
 30
0.0
 40
4.4745474344346654
 50
268.3499153484428916
 51
270.2026926390083759
  0
ARC
  5
4B6D
  8
0
 10
728.6013495781586471
 20
-12.24783558658741
 30
0.0
 40
51.1641923329479411
 50
89.2364527600069266
 51
90.0147917363365053
  0
ARC
  5
4B6E
  8
0
 10
728.5316872320256607
 20
39.1879406205589902
 30
0.0
 40
0.9981345403121255
 50
54.3842684715091309
 51
65.4940485920892854
  0
ARC
  5
4B6F
  8
0
 10
731.4143371638626832
 20
43.2879790306207966
 30
0.0
 40
4.013898162054697
 50
235.0154608932816984
 51
248.0898552459337054
  0
LINE
  5
4B70
  8
0
 10
729.9165428007908076
 20
39.5640039365450917
 30
0.0
 11
730.1825359258712069
 21
39.4508449716389222
 31
0.0
  0
ARC
  5
4B71
  8
0
 10
728.04770465318893
 20
41.3465002980373768
 30
0.0
 40
2.6502213493920679
 50
255.6137939834009956
 51
258.9507280010111003
  0
ARC
  5
4B72
  8
0
 10
727.2875688874551088
 20
38.417005159559622
 30
0.0
 40
0.3763692573208144
 50
37.8764958269930219
 51
74.3276959403871444
  0
ARC
  5
4B73
  8
0
 10
729.768851996561807
 20
40.3586577421950068
 30
0.0
 40
2.7743119566420171
 50
218.0665824306585137
 51
258.9937008308652935
  0
ARC
  5
4B74
  8
0
 10
729.7962196609380499
 20
40.0298019324267287
 30
0.0
 40
2.497829010299514
 50
239.6582896694773126
 51
249.7575538104123893
  0
ARC
  5
4B75
  8
0
 10
728.5852802568800826
 20
36.7474912125371631
 30
0.0
 40
1.0007333376390819
 50
16.3977715565617714
 51
69.7294778716552486
  0
ARC
  5
4B76
  8
0
 10
727.3709040676708355
 20
38.3478386125552078
 30
0.0
 40
0.3804940929668986
 50
60.6891219655072476
 51
74.2232035266142134
  0
ARC
  5
4B77
  8
0
 10
728.2498755577465772
 20
41.5798976860966221
 30
0.0
 40
2.9689738526948699
 50
254.8582669176907132
 51
256.1402687065760801
  0
ARC
  5
4B78
  8
0
 10
736.1930327143388695
 20
1229.3845985020850549
 30
0.0
 40
1190.4920443722610344
 50
270.0050574479689089
 51
270.137055534836918
  0
ARC
  5
4B79
  8
0
 10
739.0134329711852388
 20
328.2842751149283913
 30
0.0
 40
289.3878713998701073
 50
270.0555004077427839
 51
270.5874448899277809
  0
LINE
  5
4B7A
  8
0
 10
739.0407707090896565
 20
38.8959601262452068
 30
0.0
 11
739.0388582797908157
 21
38.9510997220451003
 31
0.0
  0
ARC
  5
4B7B
  8
0
 10
739.1351215848485481
 20
38.9565159934110881
 30
0.0
 40
0.0964155583718998
 50
149.2319376187471107
 51
183.2203614159735992
  0
ARC
  5
4B7C
  8
0
 10
739.1646558003160408
 20
38.1616733799738128
 30
0.0
 40
0.8516126595179077
 50
82.5712993706587355
 51
97.5828688259512376
  0
ARC
  5
4B7D
  8
0
 10
739.1907466049897266
 20
38.9498795801966793
 30
0.0
 40
0.101112479333259
 50
1.0304343540484291
 51
33.8068452002477784
  0
LINE
  5
4B7E
  8
0
 10
739.2918427327907693
 20
38.9516979367451128
 30
0.0
 11
739.2937527867909466
 21
38.8965394830451174
 31
0.0
  0
ARC
  5
4B7F
  8
0
 10
741.8347896289981236
 20
38.8456540438671567
 30
0.0
 40
0.0676870881863437
 50
3.3277813863822119
 51
72.9087772265228153
  0
ARC
  5
4B80
  8
0
 10
741.9644702028184611
 20
38.8526950377834481
 30
0.0
 40
0.0610423961646923
 50
0.7576652529684244
 51
74.8429433942954603
  0
ARC
  5
4B81
  8
0
 10
741.986128068049311
 20
38.912428217302228
 30
0.0
 40
0.0057552603415924
 50
98.819927259048896
 51
188.1337692947305129
  0
LINE
  5
4B82
  8
0
 10
741.9852456157907454
 20
38.9181154194451011
 30
0.0
 11
742.0334177745908164
 21
38.9270541049450998
 31
0.0
  0
ARC
  5
4B83
  8
0
 10
742.0281607634651664
 20
38.9416347995616974
 30
0.0
 40
0.0154994458441845
 50
289.8265658619130249
 51
348.9801009980573099
  0
ARC
  5
4B84
  8
0
 10
742.1274122602127363
 20
38.9175162674551913
 30
0.0
 40
0.0866598424072433
 50
152.2152686261987924
 51
165.8698834651789014
  0
ARC
  5
4B85
  8
0
 10
742.1612346779761538
 20
38.3462865493547298
 30
0.0
 40
0.6215262923053368
 50
79.5629662590946793
 51
100.2400926284603031
  0
ARC
  5
4B86
  8
0
 10
742.1961359749816438
 20
38.9100535570343169
 30
0.0
 40
0.0910487888047578
 50
19.0200917816476007
 51
31.4284463538686403
  0
ARC
  5
4B87
  8
0
 10
742.2998023511645442
 20
38.9457894202916108
 30
0.0
 40
0.0186041613317955
 50
199.020091781652809
 51
249.3158505912226133
  0
LINE
  5
4B88
  8
0
 10
742.2932310628907544
 20
38.9283844500451011
 30
0.0
 11
742.3431647174908221
 21
38.9196419044451005
 31
0.0
  0
ARC
  5
4B89
  8
0
 10
742.3422211372587753
 20
38.91425258060913
 30
0.0
 40
0.0054713028670429
 50
354.9290261066404923
 51
80.0691274591659692
  0
ARC
  5
4B8A
  8
0
 10
742.3600545789322496
 20
38.8598364394950622
 30
0.0
 40
0.0553359798161069
 50
102.9316454171564033
 51
186.5239393100231098
  0
ARC
  5
4B8B
  8
0
 10
742.0510315932092453
 20
38.8979404827952209
 30
0.0
 40
0.0599730379589058
 50
3.0021781095778048
 51
90.2749044683854294
  0
ARC
  5
4B8C
  8
0
 10
742.2741717916192101
 20
38.8974933464782708
 30
0.0
 40
0.0600370737075439
 50
90.3288785548255362
 51
180.9455549014980988
  0
ARC
  5
4B8D
  8
0
 10
742.5089521769029943
 20
38.8514000830926918
 30
0.0
 40
0.0617834289678728
 50
105.8366489588597972
 51
182.1215903953691964
  0
ARC
  5
4B8E
  8
0
 10
742.5712100446222621
 20
46.3699811936462893
 30
0.0
 40
7.4595623437220739
 50
268.2827732416246249
 51
271.1698086989314902
  0
ARC
  5
4B8F
  8
0
 10
742.2436791181993385
 20
285.0302181746671977
 30
0.0
 40
246.1187123237318986
 50
270.1117014288278142
 51
270.4392616897720245
  0
ARC
  5
4B90
  8
0
 10
744.1456539905941554
 20
38.476170642875033
 30
0.0
 40
0.4428259560885027
 50
91.9552570294747653
 51
135.3990358135692986
  0
ARC
  5
4B91
  8
0
 10
741.9558793261506935
 20
40.5636746967811703
 30
0.0
 40
2.582605694805288
 50
306.3611026038382192
 51
316.5361186334400827
  0
ARC
  5
4B92
  8
0
 10
743.976573527972846
 20
37.7708319619925632
 30
0.0
 40
0.8649453993309114
 50
124.4701294189239036
 51
174.7791390738607049
  0
LINE
  5
4B93
  8
0
 10
743.1152164981908754
 20
37.8495378135450977
 30
0.0
 11
742.8544667861907556
 21
34.8691549676451231
 31
0.0
  0
ARC
  5
4B94
  8
0
 10
742.605418109382299
 20
34.8909439035333691
 30
0.0
 40
0.2500000022943951
 50
270.0056280991979065
 51
354.9999999996829843
  0
ARC
  5
4B95
  8
0
 10
743.0259054984403519
 20
40.28694725471005
 30
0.0
 40
2.4986296862559811
 50
271.9283631604110951
 51
321.6247586736877224
  0
ARC
  5
4B96
  8
0
 10
745.278978687015524
 20
38.5027681205151069
 30
0.0
 40
0.3753282076549751
 50
104.1843953145018986
 51
141.6247586736876087
  0
ARC
  5
4B97
  8
0
 10
744.6292919755752564
 20
41.3017922290366783
 30
0.0
 40
2.4981888094025111
 50
270.6132184176570945
 51
282.8998609529227792
  0
ARC
  5
4B98
  8
0
 10
743.2344650662071217
 20
171.6218238521325077
 30
0.0
 40
132.8256846970770084
 50
270.2616271395463059
 51
270.6132184176570945
  0
LINE
  5
4B99
  8
0
 10
743.1917219595907227
 20
37.1827037776451022
 30
0.0
 11
742.8647462380907882
 21
34.8561506290451106
 31
0.0
  0
ARC
  5
4B9A
  8
0
 10
742.6171792158606877
 20
34.8909439049958081
 30
0.0
 40
0.2500000050944676
 50
270.0081734344241795
 51
351.9999999996081215
  0
ARC
  5
4B9B
  8
0
 10
743.9354592448103176
 20
37.0776800552706831
 30
0.0
 40
0.751115924266772
 50
106.307208519283904
 51
171.9623619120310138
  0
ARC
  5
4B9C
  8
0
 10
742.9654864837234527
 20
40.1856519581005003
 30
0.0
 40
2.5048562563632171
 50
287.6402168849419922
 51
322.1629329652250817
  0
ARC
  5
4B9D
  8
0
 10
745.2398574608093895
 20
38.4162212578231816
 30
0.0
 40
0.3767549207277106
 50
105.6096801736160984
 51
141.8158464777424967
  0
ARC
  5
4B9E
  8
0
 10
744.4997764266909144
 20
41.2610392089440126
 30
0.0
 40
2.562822860798919
 50
281.1024611232797952
 51
284.4312716977028117
  0
ARC
  5
4B9F
  8
0
 10
742.8640700094493923
 20
40.1106787547899515
 30
0.0
 40
2.5049056228207078
 50
284.6109977180911983
 51
307.9390430279818816
  0
ARC
  5
4BA0
  8
0
 10
742.7240093718722846
 20
40.0456848945216706
 30
0.0
 40
2.5145917935067841
 50
286.2655484841033058
 51
300.2474590676484922
  0
ARC
  5
4BA1
  8
0
 10
743.9265339759748485
 20
37.0170451676164234
 30
0.0
 40
0.7507700531115739
 50
118.390896194515804
 51
160.5038068070626025
  0
ARC
  5
4BA2
  8
0
 10
744.0310706612056038
 20
36.9848191112416629
 30
0.0
 40
0.8600800740975628
 50
160.8042621172861004
 51
168.7779195885179035
  0
ARC
  5
4BA3
  8
0
 10
744.2291882613708367
 20
41.7478409617980475
 30
0.0
 40
3.14230969150212
 50
284.0359726730678176
 51
285.0232294363361234
  0
ARC
  5
4BA4
  8
0
 10
745.1449500948609739
 20
38.3507862644595932
 30
0.0
 40
0.3760319708806611
 50
105.6188705146431062
 51
116.131341234133302
  0
ARC
  5
4BA5
  8
0
 10
742.5875038173765006
 20
47.9155228019066683
 30
0.0
 40
0.9997853794287692
 50
141.425180821807686
 51
162.3768197023948971
  0
ARC
  5
4BA6
  8
0
 10
744.3380849120602534
 20
49.7500037816682124
 30
0.0
 40
1.2224775320865759
 50
130.6695844069593022
 51
141.6967921151776011
  0
ARC
  5
4BA7
  8
0
 10
745.45149242022012
 20
47.5081244991032889
 30
0.0
 40
1.5178999069847869
 50
134.5386637413255926
 51
152.4655645643435093
  0
LINE
  5
4BA8
  8
0
 10
744.3868519776907533
 20
48.5900491063450914
 30
0.0
 11
746.0197710398906565
 21
50.2640176554451017
 31
0.0
  0
ARC
  5
4BA9
  8
0
 10
747.179607989468991
 20
49.1423048984116306
 30
0.0
 40
1.613524483513779
 50
117.6764584208351039
 51
135.9573107502451137
  0
LINE
  5
4BAA
  8
0
 10
746.4301610131908546
 20
50.5712172430450977
 30
0.0
 11
748.5743263231908031
 21
51.6822981250450795
 31
0.0
  0
ARC
  5
4BAB
  8
0
 10
748.999032236325661
 20
50.8203706619721771
 30
0.0
 40
0.9608819200354792
 50
98.1414710138296869
 51
116.2312998385263967
  0
ARC
  5
4BAC
  8
0
 10
747.7409215113924574
 20
74.3683763285752235
 30
0.0
 40
22.6246479054455989
 50
271.4223964214342004
 51
272.8426574327198182
  0
LINE
  5
4BAD
  8
0
 10
749.2337758796375056
 20
51.773413746807428
 30
0.0
 11
749.4889944558475463
 21
51.7841105744425505
 31
0.0
  0
ARC
  5
4BAE
  8
0
 10
749.4902926009353905
 20
51.7531377708852602
 30
0.0
 40
0.0309999958204583
 50
5.999894692751873
 51
92.3999999948964756
  0
ARC
  5
4BAF
  8
0
 10
728.892321814028378
 20
48.4043562001498486
 30
0.0
 40
1.888781715343602
 50
31.9811782729681404
 51
60.9582446331638081
  0
ARC
  5
4BB0
  8
0
 10
728.1100245853973547
 20
48.6626320671484009
 30
0.0
 40
2.0338931944596048
 50
60.8342745165797183
 51
86.6615026317549564
  0
ARC
  5
4BB1
  8
0
 10
724.037974142057692
 20
49.6195213354688889
 30
0.0
 40
0.6134421100796926
 50
9.1216888434247583
 51
30.0472977839628683
  0
ARC
  5
4BB2
  8
0
 10
723.785675024496868
 20
49.9300981220219882
 30
0.0
 40
0.67659147957738
 50
31.2816722373693992
 51
48.6230534809520805
  0
ARC
  5
4BB3
  8
0
 10
723.3065239081379332
 20
50.0494873996031089
 30
0.0
 40
0.900866808821485
 50
49.2533183958890817
 51
84.9652758259888543
  0
ARC
  5
4BB4
  8
0
 10
721.4313718633075041
 20
52.0181220259376715
 30
0.0
 40
0.0325000000168325
 50
86.999993636707444
 51
178.5753771195392972
  0
ARC
  5
4BB5
  8
0
 10
721.3023026441426282
 20
52.0438951145996072
 30
0.0
 40
0.0970613899673168
 50
1.109438895537679
 51
40.9425041447092184
  0
ARC
  5
4BB6
  8
0
 10
721.5271473403449818
 20
52.6255508239481316
 30
0.0
 40
0.5397571046635238
 50
237.791962616624005
 51
253.6960382107930059
  0
ARC
  5
4BB7
  8
0
 10
721.9820126401202742
 20
49.5957144057805621
 30
0.0
 40
0.6249999972063529
 50
156.0059449328728931
 51
176.827625387143911
  0
LINE
  5
4BB8
  8
0
 10
721.4110203581908536
 20
49.8498655625451121
 30
0.0
 11
721.545946792990776
 21
50.1529999419450832
 31
0.0
  0
ARC
  5
4BB9
  8
0
 10
722.1169390771754024
 20
49.8988487851022597
 30
0.0
 40
0.6249999992983641
 50
133.003963313177394
 51
156.0059450103815095
  0
LINE
  5
4BBA
  8
0
 10
721.6906584849906494
 20
50.3559153621450974
 30
0.0
 11
722.1091196609908138
 21
50.7461908428450812
 31
0.0
  0
ARC
  5
4BBB
  8
0
 10
722.7059124911768322
 20
50.1062976343347515
 30
0.0
 40
0.8750000002624139
 50
87.0000000008032259
 51
133.0039633381261979
  0
ARC
  5
4BBC
  8
0
 10
722.907203690175038
 20
50.2186093335479811
 30
0.0
 40
0.7525380801984188
 50
48.2793398413269799
 51
85.581465622765279
  0
LINE
  5
4BBD
  8
0
 10
723.4080174363906508
 20
50.7803024470450879
 30
0.0
 11
723.7725660722908287
 21
50.4549507068450822
 31
0.0
  0
ARC
  5
4BBE
  8
0
 10
723.3687535850169752
 20
50.0024887304481496
 30
0.0
 40
0.6064539264967688
 50
28.4803940228544512
 51
48.2517809214178683
  0
LINE
  5
4BBF
  8
0
 10
723.9018146632907929
 20
50.291681143545091
 30
0.0
 11
723.9733368189979501
 21
50.161481555570461
 31
0.0
  0
LINE
  5
4BC0
  8
0
 10
730.3590512892908464
 20
35.1432509297451503
 30
0.0
 11
730.3809824873638945
 21
34.6409439024450378
 31
0.0
  0
LINE
  5
4BC1
  8
0
 10
730.8992064147907968
 20
35.1412025869451412
 30
0.0
 11
730.9123064831411511
 21
34.6409439024450378
 31
0.0
  0
ARC
  5
4BC2
  8
0
 10
750.3141339743119715
 20
52.309493157636382
 30
0.0
 40
0.050328640131284
 50
287.8964176114199063
 51
359.3641852346034966
  0
ARC
  5
4BC3
  8
0
 10
722.5339755374674269
 20
52.2465890161961823
 30
0.0
 40
0.0159665227601017
 50
109.9253893667191022
 51
126.5838338859496019
  0
LINE
  5
4BC4
  8
0
 10
721.2487970326908453
 20
52.5602053697450486
 30
0.0
 11
722.1323540327906585
 21
53.3995845198450496
 31
0.0
  0
ARC
  5
4BC5
  8
0
 10
722.387191333773103
 20
53.1313347293389597
 30
0.0
 40
0.3700000001060925
 50
90.0000000127474635
 51
133.5311992857830887
  0
ARC
  5
4BC6
  8
0
 10
721.2694595162116684
 20
52.5384553868023971
 30
0.0
 40
0.0299999997210625
 50
133.5311989055925039
 51
180.0000001095299069
  0
LINE
  5
4BC7
  8
0
 10
721.3502847074908004
 20
47.568071616445053
 30
0.0
 11
721.514717196390734
 21
37.5638678945450621
 31
0.0
  0
ARC
  5
4BC8
  8
0
 10
720.8698996705927584
 20
37.5532694547690724
 30
0.0
 40
0.6449046196933617
 50
331.7728174728895851
 51
0.9416480942401234
  0
ENDSEC
  0
EOF
