  0
SECTION
  2
HEADER
  9
$ACADVER
  1
AC1009
  9
$INSBASE
 10
508.1751804525345051
 20
28.0756375167446386
 30
0.0
  9
$EXTMIN
 10
478.1458860509251281
 20
-1.29179758297797
 30
-0.0015258207003583
  9
$EXTMAX
 10
538.190905219346746
 20
28.0816314877149011
 30
0.0000000349246037
  9
$LIMMIN
 10
0.0
 20
0.0
  9
$LIMMAX
 10
11.6929133858000007
 20
8.2677165353999982
  9
$ORTHOMODE
 70
     1
  9
$REGENMODE
 70
     1
  9
$FILLMODE
 70
     1
  9
$QTEXTMODE
 70
     0
  9
$MIRRTEXT
 70
     0
  9
$DRAGMODE
 70
     2
  9
$LTSCALE
 40
0.6431102362
  9
$OSMODE
 70
    23
  9
$ATTMODE
 70
     1
  9
$TEXTSIZE
 40
0.2
  9
$TRACEWID
 40
0.05
  9
$TEXTSTYLE
  7
STANDARD
  9
$CLAYER
  8
0
  9
$CELTYPE
  6
BYLAYER
  9
$CECOLOR
 62
   256
  9
$DIMSCALE
 40
1.0
  9
$DIMASZ
 40
0.1875
  9
$DIMEXO
 40
0.0625
  9
$DIMDLI
 40
0.4443307087
  9
$DIMRND
 40
0.0
  9
$DIMDLE
 40
0.0
  9
$DIMEXE
 40
0.125
  9
$DIMTP
 40
0.01
  9
$DIMTM
 40
0.01
  9
$DIMTXT
 40
2.0
  9
$DIMCEN
 40
0.1052362205
  9
$DIMTSZ
 40
0.0
  9
$DIMTOL
 70
     1
  9
$DIMLIM
 70
     0
  9
$DIMTIH
 70
     1
  9
$DIMTOH
 70
     1
  9
$DIMSE1
 70
     0
  9
$DIMSE2
 70
     0
  9
$DIMTAD
 70
     0
  9
$DIMZIN
 70
     0
  9
$DIMBLK
  1

  9
$DIMASO
 70
     1
  9
$DIMSHO
 70
     1
  9
$DIMPOST
  1
\X
  9
$DIMAPOST
  1

  9
$DIMALT
 70
     1
  9
$DIMALTD
 70
     2
  9
$DIMALTF
 40
25.3999999999999986
  9
$DIMLFAC
 40
1.0
  9
$DIMTOFL
 70
     0
  9
$DIMTVP
 40
0.0
  9
$DIMTIX
 70
     0
  9
$DIMSOXD
 70
     0
  9
$DIMSAH
 70
     0
  9
$DIMBLK1
  1

  9
$DIMBLK2
  1

  9
$DIMSTYLE
  2
STANDARD
  9
$DIMCLRD
 70
     0
  9
$DIMCLRE
 70
     0
  9
$DIMCLRT
 70
     0
  9
$DIMTFAC
 40
1.0
  9
$DIMGAP
 40
0.09
  9
$LUNITS
 70
     2
  9
$LUPREC
 70
     4
  9
$SKETCHINC
 40
0.1
  9
$FILLETRAD
 40
0.0
  9
$AUNITS
 70
     0
  9
$AUPREC
 70
     0
  9
$MENU
  1
.
  9
$ELEVATION
 40
0.0
  9
$PELEVATION
 40
0.0
  9
$THICKNESS
 40
0.0
  9
$LIMCHECK
 70
     0
  9
$BLIPMODE
 70
     0
  9
$CHAMFERA
 40
0.0
  9
$CHAMFERB
 40
0.0
  9
$SKPOLY
 70
     0
  9
$TDCREATE
 40
2458106.4931018520146608
  9
$TDUPDATE
 40
2459704.4571180557832122
  9
$TDINDWG
 40
0.2494893056
  9
$TDUSRTIMER
 40
0.2494893056
  9
$USRTIMER
 70
     1
  9
$ANGBASE
 50
0.0
  9
$ANGDIR
 70
     0
  9
$PDMODE
 70
     0
  9
$PDSIZE
 40
0.3125
  9
$PLINEWID
 40
0.0
  9
$COORDS
 70
     1
  9
$SPLFRAME
 70
     0
  9
$SPLINETYPE
 70
     6
  9
$SPLINESEGS
 70
     8
  9
$ATTDIA
 70
     1
  9
$ATTREQ
 70
     1
  9
$HANDLING
 70
     1
  9
$HANDSEED
  5
4B39
  9
$SURFTAB1
 70
     6
  9
$SURFTAB2
 70
     6
  9
$SURFTYPE
 70
     6
  9
$SURFU
 70
     6
  9
$SURFV
 70
     6
  9
$UCSNAME
  2

  9
$UCSORG
 10
0.0
 20
0.0
 30
0.0
  9
$UCSXDIR
 10
1.0
 20
0.0
 30
0.0
  9
$UCSYDIR
 10
0.0
 20
1.0
 30
0.0
  9
$PUCSNAME
  2

  9
$PUCSORG
 10
0.0
 20
0.0
 30
0.0
  9
$PUCSXDIR
 10
1.0
 20
0.0
 30
0.0
  9
$PUCSYDIR
 10
0.0
 20
1.0
 30
0.0
  9
$USERI1
 70
     0
  9
$USERI2
 70
     0
  9
$USERI3
 70
     0
  9
$USERI4
 70
     0
  9
$USERI5
 70
     0
  9
$USERR1
 40
0.0
  9
$USERR2
 40
0.0
  9
$USERR3
 40
0.0
  9
$USERR4
 40
0.0
  9
$USERR5
 40
0.0
  9
$WORLDVIEW
 70
     1
  9
$SHADEDGE
 70
     3
  9
$SHADEDIF
 70
    70
  9
$TILEMODE
 70
     1
  9
$MAXACTVP
 70
    64
  9
$PLIMCHECK
 70
     0
  9
$PEXTMIN
 10
1.0000000000000000E+20
 20
1.0000000000000000E+20
 30
1.0000000000000000E+20
  9
$PEXTMAX
 10
-1.0000000000000000E+20
 20
-1.0000000000000000E+20
 30
-1.0000000000000000E+20
  9
$PLIMMIN
 10
0.0
 20
0.0
  9
$PLIMMAX
 10
12.0
 20
9.0
  9
$UNITMODE
 70
     0
  9
$VISRETAIN
 70
     1
  9
$PLINEGEN
 70
     0
  9
$PSLTSCALE
 70
     1
  0
ENDSEC
  0
SECTION
  2
TABLES
  0
TABLE
  2
VPORT
 70
     1
  0
VPORT
  2
*ACTIVE
 70
     0
 10
0.0
 20
0.0
 11
1.0
 21
1.0
 12
234.5941940786229054
 22
31.0008776863899413
 13
0.0
 23
0.0
 14
1.0
 24
1.0
 15
0.0
 25
0.0
 16
-0.0000000000000568
 26
0.0
 36
193.9250709296327955
 17
273.5742015565131169
 27
-17.6059607340214797
 37
0.0
 40
30.0378121485280403
 41
2.005224660397074
 42
50.0
 43
0.0
 44
0.0
 50
0.0
 51
0.0
 71
     0
 72
   100
 73
     1
 74
     1
 75
     0
 76
     0
 77
     0
 78
     0
  0
ENDTAB
  0
TABLE
  2
LTYPE
 70
     2
  0
LTYPE
  2
CONTINUOUS
 70
     0
  3
Solid line
 72
    65
 73
     0
 40
0.0
  0
LTYPE
  2
PHANTOM2
 70
     0
  3
___ _ _ ___ _ _ ___ _ _ ___ _ _
 72
    65
 73
     6
 40
1.25
 49
0.625
 49
-0.125
 49
0.125
 49
-0.125
 49
0.125
 49
-0.125
  0
ENDTAB
  0
TABLE
  2
LAYER
 70
     2
  0
LAYER
  2
0
 70
     0
 62
   255
  6
CONTINUOUS
  0
LAYER
  2
DEFPOINTS
 70
     0
 62
     7
  6
CONTINUOUS
  0
ENDTAB
  0
TABLE
  2
STYLE
 70
     1
  0
STYLE
  2
STANDARD
 70
     0
 40
0.0
 41
0.8
 50
0.0
 71
     0
 42
0.2
  3
txt
  4

  0
ENDTAB
  0
TABLE
  2
VIEW
 70
     0
  0
ENDTAB
  0
TABLE
  2
UCS
 70
     0
  0
ENDTAB
  0
TABLE
  2
APPID
 70
     9
  0
APPID
  2
ACAD
 70
     0
  0
APPID
  2
ACAD_MLEADERVER
 70
     0
  0
APPID
  2
ACAD_EXEMPT_FROM_CAD_STANDARDS
 70
     0
  0
APPID
  2
ACAD_NAV_VCDISPLAY
 70
     0
  0
APPID
  2
ACAD_DSTYLE_DIMJAG
 70
     0
  0
APPID
  2
ACAD_DSTYLE_DIMTALN
 70
     0
  0
APPID
  2
ACAECLAYERSTANDARD
 70
     0
  0
APPID
  2
ACCMTRANSPARENCY
 70
     0
  0
APPID
  2
ACDBATTR
 70
     0
  0
ENDTAB
  0
TABLE
  2
DIMSTYLE
 70
     1
  0
DIMSTYLE
  2
STANDARD
 70
     0
  3

  4

  5

  6

  7

 40
1.0
 41
0.1875
 42
0.0625
 43
0.38
 44
0.125
 45
0.0
 46
0.0
 47
0.01
 48
0.01
140
0.15625
141
0.09
142
0.0
143
25.3999999999999986
144
1.0
145
0.0
146
1.0
147
0.09
 71
     1
 72
     0
 73
     1
 74
     1
 75
     0
 76
     0
 77
     0
 78
     4
170
     0
171
     2
172
     0
173
     0
174
     0
175
     0
176
     0
177
     0
178
     0
  0
ENDTAB
  0
ENDSEC
  0
SECTION
  2
BLOCKS
  0
BLOCK
  8
0
  2
$MODEL_SPACE
 70
     0
 10
0.0
 20
0.0
 30
0.0
  3
$MODEL_SPACE
  1

  0
ENDBLK
  5
21
  8
0
  0
BLOCK
 67
     1
  8
0
  2
$PAPER_SPACE
 70
     0
 10
0.0
 20
0.0
 30
0.0
  3
$PAPER_SPACE
  1

  0
ENDBLK
  5
1D
 67
     1
  8
0
  0
ENDSEC
  0
SECTION
  2
ENTITIES
  0
ATTDEF
  5
FAA
  8
DEFPOINTS
 10
508.1752451963894828
 20
28.079038981947761
 30
0.0
 40
0.001
  1
71341110
  3

  2
MODELNUMBER
 70
     0
1001
ACDBATTR
1070
     0
1070
     1
  0
ATTDEF
  5
FAB
  8
DEFPOINTS
 10
508.1752451963894828
 20
28.0773723152810888
 30
0.0
 40
0.001
  1

  3

  2
TRADENAME
 70
     0
1001
ACDBATTR
1070
     0
1070
     1
  0
ATTDEF
  5
FAC
  8
DEFPOINTS
 10
508.1752451963894828
 20
28.0757056486144307
 30
0.0
 40
0.001
  1
BATH
  3

  2
PRODUCT
 70
     0
1001
ACDBATTR
1070
     0
1070
     1
  0
LINE
  5
4939
  8
0
 10
478.1752396070511963
 20
-0.007947211255626
 30
0.0
 11
478.1752396070511963
 21
27.8256321810187188
 31
0.0
  0
LINE
  5
493A
  8
0
 10
478.4252746016111928
 20
28.0756375167446386
 30
0.0
 11
537.9250863034577606
 21
28.0756375167446386
 31
0.0
  0
ARC
  5
493B
  8
0
 10
478.4253248203859812
 20
27.8255522956929617
 30
0.0
 40
0.2500852260938087
 50
90.0115053732532573
 51
179.9816978662398128
  0
LINE
  5
493C
  8
0
 10
478.2565129147512266
 20
-1.2915972271553491
 30
0.0
 11
538.0938479903244342
 21
-1.2915972271553491
 31
0.0
  0
ARC
  5
493D
  8
0
 10
482.4951900019883055
 20
2.7426998537413989
 30
0.0
 40
3.8566318336730592
 50
263.0372396924137774
 51
266.6858347103657252
  0
ARC
  5
493E
  8
0
 10
489.1761572306148196
 20
118.1154043704335947
 30
0.0
 40
119.4226141580835048
 50
266.6858347103657252
 51
267.1860073252397001
  0
ARC
  5
493F
  8
0
 10
483.4992811904539849
 20
2.6213326086445781
 30
0.0
 40
3.7891089197979211
 50
267.1860073252397001
 51
271.3673980750400005
  0
ARC
  5
4940
  8
0
 10
-127.9599118694359987
 20
-577827.553762822994031
 30
0.0
 40
577826.710685946745798
 50
89.9390487586819773
 51
89.9393603346328661
  0
ARC
  5
4941
  8
0
 10
537.9250360846829153
 20
27.8255522956929617
 30
0.0
 40
0.2500852260938087
 50
0.0183021337601508
 51
89.9884946267500254
  0
ARC
  5
4942
  8
0
 10
533.8551709030806478
 20
2.7426998537413989
 30
0.0
 40
3.8566318336730592
 50
273.3141652896342748
 51
276.9627603075862226
  0
ARC
  5
4943
  8
0
 10
527.1742036744541338
 20
118.1154043704335947
 30
0.0
 40
119.4226141580835048
 50
272.8139926747635968
 51
273.3141652896342748
  0
ARC
  5
4944
  8
0
 10
532.8510797146149116
 20
2.6213326086445781
 30
0.0
 40
3.7891089197979211
 50
268.6326019249598858
 51
272.8139926747635968
  0
ARC
  5
4945
  8
0
 10
1144.3102727745049378
 20
-577827.553762822994031
 30
0.0
 40
577826.710685946745798
 50
90.0606396653671339
 51
90.0609512413147542
  0
LINE
  5
4946
  8
0
 10
538.1751212980176433
 20
-0.0079472112457921
 30
0.0
 11
538.1751212980176433
 21
27.8256321810187188
 31
0.0
  0
LINE
  5
4947
  8
0
 10
529.6184239400672595
 20
-1.1700314536480361
 30
0.0
 11
486.7319369690496842
 21
-1.1700314536480361
 31
0.0
  0
LINE
  5
4948
  8
0
 10
482.0276728657511853
 20
-1.0854899048553499
 30
0.0
 11
534.3226880393176543
 21
-1.0854899048553499
 31
0.0
  0
CIRCLE
  5
4949
  8
0
 10
487.4252396070511963
 20
13.9506321761446497
 30
0.0
 40
1.0
  0
CIRCLE
  5
494A
  8
0
 10
487.4252396070511963
 20
13.9506321761446497
 30
0.0
 40
1.062622409584018
  0
LINE
  5
494B
  8
0
 10
478.2251300870511841
 20
-1.064598308255355
 30
0.0
 11
538.1252308180177124
 21
-1.064598308255355
 31
0.0
  0
LINE
  5
494C
  8
0
 10
481.0534964933243032
 20
6.822270449771124
 30
0.0
 11
481.2240637868868021
 21
4.5648655872023047
 31
0.0
  0
ARC
  5
494D
  8
0
 10
521.0653921501092327
 20
277.5958765123941134
 30
0.0
 40
276.6687201098736182
 50
261.8056356067385764
 51
263.8094089201346151
  0
ARC
  5
494E
  8
0
 10
519.2880976325194524
 20
256.6615765735841137
 30
0.0
 40
255.6653087446240136
 50
263.6994759695215862
 51
265.3244259552218978
  0
ARC
  5
494F
  8
0
 10
483.5831755165776258
 20
4.8155969495741848
 30
0.0
 40
2.3723984423451792
 50
186.0667414295820947
 51
195.0824771485081897
  0
ARC
  5
4950
  8
0
 10
482.1767825129771268
 20
4.4301805144734336
 30
0.0
 40
0.9141845040732356
 50
194.6949423628753948
 51
220.9033582987001978
  0
ARC
  5
4951
  8
0
 10
481.693068142183904
 20
4.0372421716649987
 30
0.0
 40
0.2919638069313446
 50
224.7801949622231064
 51
257.798742547304073
  0
ARC
  5
4952
  8
0
 10
492.0927101055116282
 20
14.7961070545075994
 30
0.0
 40
11.8152208004523303
 50
207.9968362615043134
 51
246.8823290481284118
  0
ARC
  5
4953
  8
0
 10
492.3475628099088226
 20
15.1543343355491604
 30
0.0
 40
12.2451018758355108
 50
246.4437049109091902
 51
264.1671936425734089
  0
ARC
  5
4954
  8
0
 10
511.9072502480474895
 20
185.7993319136523951
 30
0.0
 40
184.0065599179374942
 50
263.508156518955218
 51
265.4469707852859983
  0
ARC
  5
4955
  8
0
 10
514.3221048431429381
 20
216.6703785820473058
 30
0.0
 40
214.9718862618360049
 50
265.4585283188055769
 51
267.0590502702848994
  0
ARC
  5
4956
  8
0
 10
524.4372337992490429
 20
12.3140113784090293
 30
0.0
 40
10.4563202483109006
 50
277.0197603904989023
 51
285.0301965401441748
  0
ARC
  5
4957
  8
0
 10
524.310776681488278
 20
12.6529068497531103
 30
0.0
 40
10.8164699581580308
 50
285.2115999095881875
 51
307.086129788739413
  0
ARC
  5
4958
  8
0
 10
523.7607484891339027
 20
13.3622382523863195
 30
0.0
 40
11.7140052379251198
 50
307.1401120118890162
 51
322.8575352090942943
  0
ARC
  5
4959
  8
0
 10
523.164486255421366
 20
13.8359380421771707
 30
0.0
 40
12.4753395371542304
 50
322.7767907567575776
 51
337.8050239991816852
  0
ARC
  5
495A
  8
0
 10
516.4676393337072113
 20
62.0280945364470568
 30
0.0
 40
60.2296930494980103
 50
274.0516680266135836
 51
278.0974748968096151
  0
ARC
  5
495B
  8
0
 10
523.340653384693951
 20
13.5761119891610509
 30
0.0
 40
11.29268529284656
 50
278.2006782121428046
 51
298.9673111797504816
  0
ARC
  5
495C
  8
0
 10
523.3905001070215803
 20
13.3151894058614904
 30
0.0
 40
11.0405739975016299
 50
299.3967872923196865
 51
330.193636433590882
  0
ARC
  5
495D
  8
0
 10
523.2960060033315131
 20
13.3150055573157804
 30
0.0
 40
11.1225759663113895
 50
330.436416834728675
 51
352.3733520812276083
  0
ARC
  5
495E
  8
0
 10
514.664643032891604
 20
219.1804395190810908
 30
0.0
 40
217.4963204125361074
 50
267.0028588641433203
 51
268.9756001380873158
  0
ARC
  5
495F
  8
0
 10
513.6875901763588672
 20
90.9971795934734615
 30
0.0
 40
89.3257565221237968
 50
268.1322310632805284
 51
274.5175149601481053
  0
ARC
  5
4960
  8
0
 10
514.7250719406346207
 20
198.6468438258403921
 30
0.0
 40
197.4717701557785006
 50
265.2718658821481768
 51
268.182779217258485
  0
ARC
  5
4961
  8
0
 10
512.818450926396622
 20
112.9531034169137058
 30
0.0
 40
111.7636143539197064
 50
267.7666120104279912
 51
276.6262561760191829
  0
ARC
  5
4963
  8
0
 10
487.3442588905575121
 20
12.1842104345292004
 30
0.0
 40
6.3968462073139429
 50
187.7134440172216898
 51
207.3053104432331963
  0
LINE
  5
4964
  8
0
 10
481.0534964933243032
 20
21.0789939025181816
 30
0.0
 11
481.2240637868868021
 21
23.3363987650870008
 31
0.0
  0
ARC
  5
4965
  8
0
 10
521.0653921501092327
 20
-249.6946121601046968
 30
0.0
 40
276.6687201098736182
 50
96.1905910798654418
 51
98.1943643932613668
  0
ARC
  5
4966
  8
0
 10
519.2880976325194524
 20
-228.7603122212946971
 30
0.0
 40
255.6653087446240136
 50
94.6755740447781022
 51
96.3005240304783854
  0
ARC
  5
4967
  8
0
 10
483.5831755165776258
 20
23.0856674027151207
 30
0.0
 40
2.3723984423451792
 50
164.9175228514918103
 51
173.9332585704179053
  0
ARC
  5
4968
  8
0
 10
482.1767825129771268
 20
23.4710838378158684
 30
0.0
 40
0.9141845040732356
 50
139.0966417012998022
 51
165.3050576371244915
  0
ARC
  5
4969
  8
0
 10
481.693068142183904
 20
23.8640221806242998
 30
0.0
 40
0.2919638069313446
 50
102.2012574526957991
 51
135.2198050377768084
  0
ARC
  5
496A
  8
0
 10
492.0927101055116282
 20
13.1051572977816999
 30
0.0
 40
11.8152208004523303
 50
113.1176709518715029
 51
152.0031637384963972
  0
ARC
  5
496B
  8
0
 10
492.3475628099088226
 20
12.7469300167401407
 30
0.0
 40
12.2451018758355108
 50
95.8328063574265769
 51
113.5562950890907956
  0
ARC
  5
496C
  8
0
 10
511.9072502480474895
 20
-157.8980675613632059
 30
0.0
 40
184.0065599179374942
 50
94.5530292147139448
 51
96.4918434810448247
  0
ARC
  5
496D
  8
0
 10
514.3221048431429381
 20
-188.7691142297578892
 30
0.0
 40
214.9718862618360049
 50
92.9409497297151148
 51
94.5414716811943947
  0
ARC
  5
496E
  8
0
 10
524.4372337992490429
 20
15.5872529738802701
 30
0.0
 40
10.4563202483109006
 50
74.9698034598557541
 51
82.9802396095011829
  0
ARC
  5
496F
  8
0
 10
524.310776681488278
 20
15.2483575025361908
 30
0.0
 40
10.8164699581580308
 50
52.9138702112605728
 51
74.7884000904117698
  0
ARC
  5
4970
  8
0
 10
523.7607484891339027
 20
14.5390260999029799
 30
0.0
 40
11.7140052379251198
 50
37.1424647909063523
 51
52.8598879881109625
  0
ARC
  5
4971
  8
0
 10
523.164486255421366
 20
14.0653263101121198
 30
0.0
 40
12.4753395371542304
 50
22.1949760008183183
 51
37.2232092432417687
  0
ARC
  5
4972
  8
0
 10
516.4676393337072113
 20
-34.1268301841577468
 30
0.0
 40
60.2296930494980103
 50
81.9025251031904418
 51
85.9483319733864022
  0
ARC
  5
4973
  8
0
 10
523.340653384693951
 20
14.3251523631282502
 30
0.0
 40
11.29268529284656
 50
61.0326888202494331
 51
81.7993217878572381
  0
ARC
  5
4974
  8
0
 10
523.3905001070215803
 20
14.5860749464278108
 30
0.0
 40
11.0405739975016299
 50
29.806363566408411
 51
60.6032127076803206
  0
ARC
  5
4975
  8
0
 10
523.2960060033315131
 20
14.5862587949735207
 30
0.0
 40
11.1225759663113895
 50
7.6266479187724183
 51
29.5635831652712895
  0
ARC
  5
4976
  8
0
 10
514.664643032891604
 20
-191.2791751667917026
 30
0.0
 40
217.4963204125361074
 50
91.0243998619126558
 51
92.9971411358567224
  0
ARC
  5
4977
  8
0
 10
513.6875901763588672
 20
-63.0959152411841586
 30
0.0
 40
89.3257565221237968
 50
85.4824850398519374
 51
91.8677689367195427
  0
ARC
  5
4978
  8
0
 10
514.7250719406346207
 20
-170.7455794735510892
 30
0.0
 40
197.4717701557785006
 50
91.8172207827415292
 51
94.7281341178518375
  0
ARC
  5
4979
  8
0
 10
512.818450926396622
 20
-85.0518390646243887
 30
0.0
 40
111.7636143539197064
 50
83.373743823980746
 51
92.2333879895719946
  0
ARC
  5
497A
  8
0
 10
487.3442588905575121
 20
15.7170539177600901
 30
0.0
 40
6.3968462073139429
 50
152.69468955676669
 51
172.2865559827783102
  0
ARC
  5
497B
  8
0
 10
512.6754721792816554
 20
13.9559646140694706
 30
0.0
 40
31.7783400219248193
 50
175.2714235054046981
 51
179.9857135102037091
  0
ARC
  5
497C
  8
0
 10
643.4602123273581356
 20
13.9506321761446497
 30
0.0
 40
162.5630797226068864
 50
177.486784558283091
 51
182.5132154417167953
  0
ARC
  5
497D
  8
0
 10
484.9489468223492281
 20
13.9494755505982493
 30
0.0
 40
3.881785943396276
 50
161.1970404702450992
 51
198.7669042577662992
  0
ARC
  5
497E
  8
0
 10
477.4980460886247897
 20
13.9518199140370402
 30
0.0
 40
3.9774097446823831
 50
341.6649273471655874
 51
18.2990173808461485
  0
ARC
  5
497F
  8
0
 10
476.0748557668113108
 20
13.9515957674957605
 30
0.0
 40
5.262502412770302
 50
348.0345680242493245
 51
11.9380535148346301
  0
LINE
  5
4980
  8
0
 10
478.4272510918340799
 20
27.9506321761446515
 30
0.0
 11
537.923109813234646
 21
27.9506321761446515
 31
0.0
  0
LINE
  5
4981
  8
0
 10
478.3022628799511722
 20
27.8256321761386296
 30
0.0
 11
478.3022628799511722
 21
-0.0038270919444443
 31
0.0
  0
ARC
  5
4982
  8
0
 10
478.4273317505927139
 20
27.8255633125538786
 30
0.0
 40
0.1250688895997793
 50
90.0369508898510702
 51
179.9684526397797129
  0
ARC
  5
4983
  8
0
 10
480.9528167605984095
 20
-0.0036571554548459
 30
0.0
 40
2.7775804666086739
 50
180.0884950740224042
 51
181.6900398816320035
  0
LINE
  5
4984
  8
0
 10
478.1764445356512283
 20
-0.0855749009553364
 30
0.0
 11
478.2081982619512246
 21
-1.0397473344553561
 31
0.0
  0
ARC
  5
4985
  8
0
 10
478.3085475611970878
 20
-1.0364078288578611
 30
0.0
 40
0.1004048512612139
 50
181.9060321282966868
 51
187.4162808178988087
  0
LINE
  5
4986
  8
0
 10
478.2089826442511935
 20
-1.0493678238553481
 30
0.0
 11
538.1413782608176462
 21
-1.0493678238553481
 31
0.0
  0
LINE
  5
4987
  8
0
 10
478.2251300870511841
 20
-1.0493678238553481
 30
0.0
 11
478.2251300870511841
 21
-1.2910577600553521
 31
0.0
  0
ARC
  5
4988
  8
0
 10
478.2559829469744841
 20
-0.4093292219757672
 30
0.0
 40
0.8822681643521951
 50
267.9959617462337178
 51
270.034416881328184
  0
ARC
  5
4989
  8
0
 10
478.6883754204055776
 20
2.6290320424115938
 30
0.0
 40
0.0298775737019739
 50
87.5927040472718375
 51
174.2280645382633963
  0
LINE
  5
498A
  8
0
 10
478.6896303645511921
 20
2.6588832488446452
 30
0.0
 11
478.8928723111512227
 21
2.6582580634446482
 31
0.0
  0
ARC
  5
498B
  8
0
 10
478.8927941245839861
 20
2.6328403391744502
 30
0.0
 40
0.0254178445233881
 50
28.0602051854423991
 51
89.8237550247300049
  0
ARC
  5
498C
  8
0
 10
478.869302217448876
 20
2.6203177893146541
 30
0.0
 40
0.0520389631294528
 50
357.8958925747766102
 51
28.0602051854438308
  0
LINE
  5
498D
  8
0
 10
478.9213060940512037
 20
2.61840716064465
 30
0.0
 11
478.9213184122511962
 21
1.501987637044649
 31
0.0
  0
LINE
  5
498E
  8
0
 10
478.9213060940512037
 20
2.61840716064465
 30
0.0
 11
478.9011872677511974
 21
2.5106963941446589
 31
0.0
  0
ARC
  5
498F
  8
0
 10
480.1752656579402014
 20
2.3316262754281212
 30
0.0
 40
1.286532360738639
 50
171.999140611497495
 51
180.4721035324091929
  0
LINE
  5
4990
  8
0
 10
478.888776970651179
 20
2.3210256761446568
 30
0.0
 11
478.886427237451187
 21
1.8262532096446611
 31
0.0
  0
ARC
  5
4991
  8
0
 10
480.1671336254740936
 20
1.8051484299880789
 30
0.0
 40
1.2808802692082559
 50
179.0559074478553043
 51
187.3951296938452913
  0
LINE
  5
4992
  8
0
 10
478.8969075815510905
 20
1.6402846638446389
 30
0.0
 11
478.9213184122511962
 21
1.501987637044649
 31
0.0
  0
ARC
  5
4993
  8
0
 10
478.8631207214347114
 20
1.4990716549624059
 30
0.0
 40
0.0582706973347749
 50
334.7133573147515904
 51
2.8683932701619228
  0
ARC
  5
4994
  8
0
 10
478.8918539552894913
 20
1.485497711939757
 30
0.0
 40
0.0264925498598354
 50
273.2582910669910916
 51
334.7133573147538073
  0
LINE
  5
4995
  8
0
 10
478.8933597192511797
 20
1.4590479884446521
 30
0.0
 11
478.6876142193511896
 21
1.4590479897446611
 31
0.0
  0
ARC
  5
4996
  8
0
 10
478.6876142195490047
 20
1.490347277042587
 30
0.0
 40
0.0312992872979336
 50
188.1773546529645103
 51
269.9999996379772824
  0
LINE
  5
4997
  8
0
 10
478.6566331669511101
 20
1.4858953375446471
 30
0.0
 11
478.6659805100510994
 21
1.6404369820446469
 31
0.0
  0
ARC
  5
4998
  8
0
 10
474.2098736123654135
 20
1.825150832774042
 30
0.0
 40
4.4599336194896386
 50
357.6263431441698799
 51
0.0623188456108421
  0
LINE
  5
4999
  8
0
 10
478.6698045937511097
 20
1.8300017635446431
 30
0.0
 11
478.6698045819512117
 21
2.3212236404446571
 31
0.0
  0
ARC
  5
499A
  8
0
 10
474.785693341911724
 20
2.3377140468804072
 30
0.0
 40
3.884146245767008
 50
359.7567461496382748
 51
2.5549755418446369
  0
LINE
  5
499B
  8
0
 10
478.6659783917511959
 20
2.5108613555446482
 30
0.0
 11
478.6586493234511863
 21
2.6320367983446569
 31
0.0
  0
ARC
  5
499C
  8
0
 10
479.745748152156807
 20
-0.0016088675828172
 30
0.0
 40
1.443486976592959
 50
180.088047170458907
 51
181.6908907709101868
  0
LINE
  5
499D
  8
0
 10
478.3028897217512281
 20
-0.0442023107553382
 30
0.0
 11
478.3342549194513253
 21
-0.9866998562553418
 31
0.0
  0
ARC
  5
499E
  8
0
 10
478.8106066749261913
 20
-0.9708474362076202
 30
0.0
 40
0.4766154573295515
 50
181.9060319958244065
 51
185.7221160876243005
  0
ARC
  5
499F
  8
0
 10
478.3039339759807262
 20
-1.018478857706298
 30
0.0
 40
0.0324323309363085
 50
287.7468103112437916
 51
0.1961556041856928
  0
ARC
  5
49A0
  8
0
 10
478.3754014171345261
 20
-0.8750553491212968
 30
0.0
 40
0.0310442311608922
 50
180.2207331520966136
 51
269.8839063592254206
  0
LINE
  5
49A1
  8
0
 10
478.3753385148513075
 20
-0.9060995165553578
 30
0.0
 11
478.6884462849512261
 21
-0.9060995166553453
 31
0.0
  0
ARC
  5
49A2
  8
0
 10
478.6857113105037911
 20
-0.9435840159742241
 30
0.0
 40
0.0375841425925162
 50
0.4915549453048284
 51
85.8269335787214516
  0
LINE
  5
49A3
  8
0
 10
478.7232940699411756
 20
-0.9432615760898102
 30
0.0
 11
478.7263864575512002
 21
-1.0183682865553429
 31
0.0
  0
ARC
  5
49A4
  8
0
 10
478.6977645238117134
 20
-1.0224201197285789
 30
0.0
 40
0.0289073077793201
 50
291.2178988045156984
 51
8.0574750251907972
  0
LINE
  5
49A5
  8
0
 10
478.3681816700639047
 20
0.0756321761446515
 30
0.0
 11
478.5899320637511778
 21
0.0756321761446515
 31
0.0
  0
ARC
  5
49A6
  8
0
 10
478.3770362350944083
 20
0.044639740650311
 30
0.0
 40
0.0309944358663273
 50
90.6509590201168152
 51
180.0139836148171071
  0
LINE
  5
49A7
  8
0
 10
478.3460418001512267
 20
0.0446321761446456
 30
0.0
 11
478.3443574163512153
 21
-0.8751749473553473
 31
0.0
  0
ARC
  5
49A8
  8
0
 10
478.3695361141046192
 20
-0.8832801084457457
 30
0.0
 40
0.0391428886134008
 50
190.518988354593489
 51
266.6023977887393244
  0
LINE
  5
49A9
  8
0
 10
478.3534698850481846
 20
-0.8970269714719876
 30
0.0
 11
478.3436303204790079
 21
-0.9126238571092244
 31
0.0
  0
LINE
  5
49AA
  8
0
 10
478.3672163265512154
 20
-0.92235419595535
 30
0.0
 11
478.5287176747511921
 21
-0.9223527990553606
 31
0.0
  0
ARC
  5
49AB
  8
0
 10
478.5287029374280792
 20
0.7814896856201444
 30
0.0
 40
1.703842484739239
 50
270.0004955777436066
 51
274.5312954371427168
  0
ARC
  5
49AC
  8
0
 10
478.6573794813056111
 20
-0.8421620143118957
 30
0.0
 40
0.0750998728952161
 50
274.5312954371427168
 51
292.0763571403135757
  0
LINE
  5
49AD
  8
0
 10
478.685605160451189
 20
-0.9117558498553393
 30
0.0
 11
478.6884462849512261
 21
-0.9060995166553453
 31
0.0
  0
ARC
  5
49AE
  8
0
 10
478.5899302281562768
 20
0.1388872209416974
 30
0.0
 40
0.0632550448236866
 50
270.0016626632267958
 51
359.7689607910842255
  0
LINE
  5
49AF
  8
0
 10
478.6531802736511736
 20
0.1386321791446647
 30
0.0
 11
478.6555535980511991
 21
1.4354460375446501
 31
0.0
  0
ARC
  5
49B0
  8
0
 10
479.9451567665169023
 20
1.4330859095693
 30
0.0
 40
1.289605328122073
 50
177.6530775989010067
 51
179.8951419906263141
  0
LINE
  5
49B1
  8
0
 10
478.6575678703512153
 20
2.6879315667446662
 30
0.0
 11
478.6587860642511032
 21
19.4332051196446507
 31
0.0
  0
ARC
  5
49B2
  8
0
 10
479.7854713458618221
 20
2.6817964184955789
 30
0.0
 40
1.127920161231714
 50
179.6883468823158978
 51
182.5284961401929991
  0
ARC
  5
49B3
  8
0
 10
478.6895957237056791
 20
20.6613397149116089
 30
0.0
 40
0.0298775737019739
 50
87.5927040472718375
 51
174.2280645382633963
  0
LINE
  5
49B4
  8
0
 10
478.6908506678511799
 20
20.6911909213446492
 30
0.0
 11
478.8958365441512228
 21
20.6873754994446593
 31
0.0
  0
ARC
  5
49B5
  8
0
 10
478.8957583575839863
 20
20.6619577751744607
 30
0.0
 40
0.0254178445233881
 50
28.0602051854423991
 51
89.8237550247300049
  0
ARC
  5
49B6
  8
0
 10
478.8722664504488193
 20
20.6494352253146616
 30
0.0
 40
0.0520389631294528
 50
357.8958925747766102
 51
28.0602051854438308
  0
LINE
  5
49B7
  8
0
 10
478.9242703270510901
 20
20.6475245966446614
 30
0.0
 11
478.9243195399012052
 21
19.5040477142446598
 31
0.0
  0
LINE
  5
49B8
  8
0
 10
478.9242703270510901
 20
20.6475245966446614
 30
0.0
 11
478.9041515007511975
 21
20.53981383014467
 31
0.0
  0
ARC
  5
49B9
  8
0
 10
480.1782298909402016
 20
20.3607437114281318
 30
0.0
 40
1.286532360738639
 50
171.999140611497495
 51
180.4721035324091929
  0
LINE
  5
49BA
  8
0
 10
478.8917412036511791
 20
20.3501431121446608
 30
0.0
 11
478.8894283651011961
 21
19.8283132868446508
 31
0.0
  0
ARC
  5
49BB
  8
0
 10
480.1701347531241026
 20
19.8072085071880615
 30
0.0
 40
1.2808802692082559
 50
179.0559074478553043
 51
187.3951296938452913
  0
LINE
  5
49BC
  8
0
 10
478.8999087092012132
 20
19.6423447410446492
 30
0.0
 11
478.9243195399012052
 21
19.5040477142446598
 31
0.0
  0
ARC
  5
49BD
  8
0
 10
478.8661218490847205
 20
19.5011317321623991
 30
0.0
 40
0.0582706973347749
 50
334.7133573147515904
 51
2.8683932701619228
  0
ARC
  5
49BE
  8
0
 10
478.8948550829395003
 20
19.4875577891397604
 30
0.0
 40
0.0264925498598354
 50
273.2582910669910916
 51
334.7133573147538073
  0
LINE
  5
49BF
  8
0
 10
478.8963608469011888
 20
19.4611080656446482
 30
0.0
 11
478.6906153470011986
 21
19.4611080669446501
 31
0.0
  0
ARC
  5
49C0
  8
0
 10
478.6906153471989001
 20
19.4924073542425909
 30
0.0
 40
0.0312992872979336
 50
188.1773546529645103
 51
269.9999996379772824
  0
LINE
  5
49C1
  8
0
 10
478.659634294601176
 20
19.4879554147446612
 30
0.0
 11
478.6689816377012221
 21
19.6424970592446613
 31
0.0
  0
ARC
  5
49C2
  8
0
 10
474.2128747400154793
 20
19.8272109099740383
 30
0.0
 40
4.4599336194896386
 50
357.6263431441698799
 51
0.0623188456108421
  0
LINE
  5
49C3
  8
0
 10
478.6728057214011756
 20
19.8320618407446609
 30
0.0
 11
478.6727688149512119
 21
20.3503410764446713
 31
0.0
  0
ARC
  5
49C4
  8
0
 10
549.300019530348095
 20
22.264730787568439
 30
0.0
 40
70.6531912342363739
 50
181.4099055362194974
 51
181.5526528206704882
  0
LINE
  5
49C5
  8
0
 10
478.6682184859511722
 20
20.5263082824446599
 30
0.0
 11
478.6598696267511741
 21
20.6643444708446502
 31
0.0
  0
ARC
  5
49C6
  8
0
 10
479.599982246307377
 20
19.4460051600085002
 30
0.0
 40
0.9412832167581067
 50
177.4456477200747884
 51
180.7791607055141014
  0
ARC
  5
49C7
  8
0
 10
479.7591147109926055
 20
20.7133871005924988
 30
0.0
 40
1.1003385546654341
 50
179.7567171740529091
 51
182.5545472349928104
  0
LINE
  5
49C8
  8
0
 10
478.6587860754511894
 20
20.7180592190446511
 30
0.0
 11
478.6575110003511782
 21
27.4791321253446483
 31
0.0
  0
ARC
  5
49C9
  8
0
 10
478.7830577348140082
 20
27.4789309280622405
 30
0.0
 40
0.1255468956789468
 50
94.2525663780325971
 51
179.9081796487010081
  0
ARC
  5
49CA
  8
0
 10
478.769437582902583
 20
27.4790573740925694
 30
0.0
 40
0.1250748265194683
 50
90.0358382121868601
 51
179.9657337292526051
  0
LINE
  5
49CB
  8
0
 10
478.769359349253989
 20
27.6041321761446596
 30
0.0
 11
537.5810015558148507
 21
27.6041321761446596
 31
0.0
  0
LINE
  5
49CC
  8
0
 10
478.6443627787512014
 20
27.4791321762476812
 30
0.0
 11
478.6443627787512014
 21
0.1385356686053996
 31
0.0
  0
ARC
  5
49CD
  8
0
 10
478.5813774423181144
 20
0.1386149230931011
 30
0.0
 40
0.0629853862960713
 50
270.5245267438036763
 51
359.9279047233189885
  0
LINE
  5
49CE
  8
0
 10
478.1764445356512283
 20
-0.0855749009553364
 30
0.0
 11
478.2429259064512053
 21
-0.0855749026553525
 31
0.0
  0
ARC
  5
49CF
  8
0
 10
478.2429259084206024
 20
-0.0085585227946297
 30
0.0
 40
0.0770163798607158
 50
269.9999985348791824
 51
299.6503244305158091
  0
ARC
  5
49D0
  8
0
 10
478.259018742270996
 20
-0.0368291884021375
 30
0.0
 40
0.0444862425227566
 50
299.6503244305154112
 51
350.4598106313715107
  0
ARC
  5
49D1
  8
0
 10
517.7552241222215343
 20
13.9506321761446497
 30
0.0
 40
16.6990347011289799
 50
352.7348337316142874
 51
7.265166268385677
  0
ARC
  5
49D2
  8
0
 10
522.9519387188266819
 20
13.9506321761446497
 30
0.0
 40
12.7154912860595406
 50
337.6883016181246262
 51
22.3116983818754093
  0
LINE
  5
49D3
  8
0
 10
493.7413596380512217
 20
27.3407072004446583
 30
0.0
 11
492.609119570151222
 21
27.340707198444651
 31
0.0
  0
ARC
  5
49D4
  8
0
 10
492.6091195700315097
 20
27.4084404824247017
 30
0.0
 40
0.0677332839800471
 50
246.1490196228378977
 51
270.0000001012111284
  0
ARC
  5
49D5
  8
0
 10
492.5922122920300126
 20
27.3701987438688299
 30
0.0
 40
0.025920766509809
 50
183.4551001405405088
 51
246.1490196228598109
  0
LINE
  5
49D6
  8
0
 10
492.5663386408511997
 20
27.3686365943446503
 30
0.0
 11
492.5601510853510945
 21
27.5731321761446502
 31
0.0
  0
ARC
  5
49D7
  8
0
 10
492.5919237086667977
 20
27.5740935410231316
 30
0.0
 40
0.031787164308695
 50
140.6325755724099906
 51
181.7331068035742874
  0
ARC
  5
49D8
  8
0
 10
492.5891271435774001
 20
27.5763880039510489
 30
0.0
 40
0.0281697983571618
 50
99.9725968918198902
 51
140.6325755724087117
  0
LINE
  5
49D9
  8
0
 10
492.609119570151222
 20
27.340707198444651
 30
0.0
 11
492.7303728943512056
 21
27.3627808569446493
 31
0.0
  0
ARC
  5
49DA
  8
0
 10
492.9036211448650988
 20
26.0762488609981489
 30
0.0
 40
1.2981446502220859
 50
89.2756401806518483
 51
97.6694835127339331
  0
ARC
  5
49DB
  8
0
 10
493.7413596455709239
 20
27.4084404824247017
 30
0.0
 40
0.0677332839800471
 50
269.9999998987888716
 51
293.8509803771621023
  0
ARC
  5
49DC
  8
0
 10
493.7582669235724211
 20
27.3701987438688299
 30
0.0
 40
0.025920766509809
 50
293.8509803771402744
 51
356.5448998594594059
  0
LINE
  5
49DD
  8
0
 10
493.7841405747511772
 20
27.3686365943446503
 30
0.0
 11
493.7903281302512255
 21
27.5731321761446502
 31
0.0
  0
ARC
  5
49DE
  8
0
 10
493.7585555069355792
 20
27.5740935410231316
 30
0.0
 40
0.031787164308695
 50
358.2668931964248031
 51
39.3674244275900094
  0
ARC
  5
49DF
  8
0
 10
493.7613520720249767
 20
27.5763880039510489
 30
0.0
 40
0.0281697983571618
 50
39.367424427591267
 51
80.0274031081800956
  0
LINE
  5
49E0
  8
0
 10
493.741359645451098
 20
27.340707198444651
 30
0.0
 11
493.6201063212512281
 21
27.3627808569446493
 31
0.0
  0
ARC
  5
49E1
  8
0
 10
493.446858070737278
 20
26.0762488609981489
 30
0.0
 40
1.2981446502220859
 50
82.3305164872660811
 51
90.7243598193481375
  0
LINE
  5
49E2
  8
0
 10
492.9200324544511886
 20
27.3742897701446601
 30
0.0
 11
493.4304467611511882
 21
27.3742897701446601
 31
0.0
  0
LINE
  5
49E3
  8
0
 10
508.7413004864844766
 20
27.3407072004446583
 30
0.0
 11
507.6090604185844768
 21
27.340707198444651
 31
0.0
  0
ARC
  5
49E4
  8
0
 10
507.6090604184648214
 20
27.4084404824247017
 30
0.0
 40
0.0677332839800471
 50
246.1490196228378977
 51
270.0000001012111284
  0
ARC
  5
49E5
  8
0
 10
507.5921531404632105
 20
27.3701987438688299
 30
0.0
 40
0.025920766509809
 50
183.4551001405405088
 51
246.1490196228598109
  0
LINE
  5
49E6
  8
0
 10
507.5662794892845113
 20
27.3686365943446503
 30
0.0
 11
507.5600919337844061
 21
27.5731321761446502
 31
0.0
  0
ARC
  5
49E7
  8
0
 10
507.5918645571001093
 20
27.5740935410231316
 30
0.0
 40
0.031787164308695
 50
140.6325755724099906
 51
181.7331068035742874
  0
ARC
  5
49E8
  8
0
 10
507.5890679920105981
 20
27.5763880039510489
 30
0.0
 40
0.0281697983571618
 50
99.9725968918198902
 51
140.6325755724087117
  0
LINE
  5
49E9
  8
0
 10
507.6090604185844768
 20
27.340707198444651
 30
0.0
 11
507.7303137427844035
 21
27.3627808569446493
 31
0.0
  0
ARC
  5
49EA
  8
0
 10
507.9035619932982968
 20
26.0762488609981489
 30
0.0
 40
1.2981446502220859
 50
89.2756401806518483
 51
97.6694835127339331
  0
ARC
  5
49EB
  8
0
 10
508.7413004940041219
 20
27.4084404824247017
 30
0.0
 40
0.0677332839800471
 50
269.9999998987888716
 51
293.8509803771621023
  0
ARC
  5
49EC
  8
0
 10
508.7582077720056759
 20
27.3701987438688299
 30
0.0
 40
0.025920766509809
 50
293.8509803771402744
 51
356.5448998594594059
  0
LINE
  5
49ED
  8
0
 10
508.7840814231844888
 20
27.3686365943446503
 30
0.0
 11
508.7902689786844803
 21
27.5731321761446502
 31
0.0
  0
ARC
  5
49EE
  8
0
 10
508.7584963553687771
 20
27.5740935410231316
 30
0.0
 40
0.031787164308695
 50
358.2668931964248031
 51
39.3674244275900094
  0
ARC
  5
49EF
  8
0
 10
508.7612929204581746
 20
27.5763880039510489
 30
0.0
 40
0.0281697983571618
 50
39.367424427591267
 51
80.0274031081800956
  0
LINE
  5
49F0
  8
0
 10
508.7413004938844097
 20
27.340707198444651
 30
0.0
 11
508.6200471696844261
 21
27.3627808569446493
 31
0.0
  0
ARC
  5
49F1
  8
0
 10
508.4467989191705897
 20
26.0762488609981489
 30
0.0
 40
1.2981446502220859
 50
82.3305164872660811
 51
90.7243598193481375
  0
LINE
  5
49F2
  8
0
 10
507.9199733028843866
 20
27.3742897701446601
 30
0.0
 11
508.4303876095843862
 21
27.3742897701446601
 31
0.0
  0
ARC
  5
49F3
  8
0
 10
478.4597178641685105
 20
27.8252061538510098
 30
0.0
 40
0.1254974271225135
 50
91.9328787188757559
 51
179.8054992974404058
  0
LINE
  5
49F4
  8
0
 10
478.3342211601511735
 20
27.8256321763554091
 30
0.0
 11
478.3342211601511735
 21
0.1362009450107706
 31
0.0
  0
ARC
  5
49F5
  8
0
 10
478.8808999363325825
 20
0.1011041935515067
 30
0.0
 40
0.5463203804503096
 50
181.0057780142539912
 51
185.9328085182260111
  0
ARC
  5
49F6
  8
0
 10
480.714032403295505
 20
0.1374247965643605
 30
0.0
 40
2.3798115578357608
 50
180.0294651614416068
 51
181.1053939331980871
  0
ARC
  5
49F7
  8
0
 10
478.3685123369465941
 20
0.0446273621490008
 30
0.0
 40
0.0310065772295424
 50
90.6110373225246661
 51
179.9852027234207981
  0
LINE
  5
49F8
  8
0
 10
538.0480980251177243
 20
27.8256321761386296
 30
0.0
 11
538.0480980251177243
 21
-0.0038270919444443
 31
0.0
  0
ARC
  5
49F9
  8
0
 10
537.9230291544762395
 20
27.8255633125538786
 30
0.0
 40
0.1250688895997793
 50
0.0315473602202149
 51
89.963049110148944
  0
ARC
  5
49FA
  8
0
 10
535.3975441444705439
 20
-0.0036571554548459
 30
0.0
 40
2.7775804666086739
 50
358.3099601183678828
 51
359.9115049259768284
  0
LINE
  5
49FB
  8
0
 10
538.1739163694176113
 20
-0.0855749009553364
 30
0.0
 11
538.1421626431175582
 21
-1.0397473344553561
 31
0.0
  0
ARC
  5
49FC
  8
0
 10
538.0418133438718087
 20
-1.0364078288578611
 30
0.0
 40
0.1004048512612139
 50
352.5837191821012198
 51
358.0939678717023753
  0
LINE
  5
49FD
  8
0
 10
538.1252308180177124
 20
-1.0493678238553481
 30
0.0
 11
538.1252308180177124
 21
-1.2910577600553521
 31
0.0
  0
ARC
  5
49FE
  8
0
 10
538.0943779580943556
 20
-0.4093292219757672
 30
0.0
 40
0.8822681643521951
 50
269.965583118671816
 51
272.0040382537662822
  0
ARC
  5
49FF
  8
0
 10
537.6619854846633189
 20
2.6290320424115938
 30
0.0
 40
0.0298775737019739
 50
5.7719354617366214
 51
92.407295952728191
  0
LINE
  5
4A00
  8
0
 10
537.6607305405176476
 20
2.6588832488446452
 30
0.0
 11
537.4574885939176738
 21
2.6582580634446482
 31
0.0
  0
ARC
  5
4A01
  8
0
 10
537.4575667804848536
 20
2.6328403391744502
 30
0.0
 40
0.0254178445233881
 50
90.1762449752699808
 51
151.9397948145575867
  0
ARC
  5
4A02
  8
0
 10
537.4810586876201342
 20
2.6203177893146541
 30
0.0
 40
0.0520389631294528
 50
151.9397948145561088
 51
182.1041074252233045
  0
LINE
  5
4A03
  8
0
 10
537.4290548110177497
 20
2.61840716064465
 30
0.0
 11
537.4290424928176435
 21
1.501987637044649
 31
0.0
  0
LINE
  5
4A04
  8
0
 10
537.4290548110177497
 20
2.61840716064465
 30
0.0
 11
537.4491736373176991
 21
2.5106963941446589
 31
0.0
  0
ARC
  5
4A05
  8
0
 10
536.1750952471287519
 20
2.3316262754281212
 30
0.0
 40
1.286532360738639
 50
359.5278964675907787
 51
8.0008593885025281
  0
LINE
  5
4A06
  8
0
 10
537.4615839344177175
 20
2.3210256761446568
 30
0.0
 11
537.4639336676176526
 21
1.8262532096446611
 31
0.0
  0
ARC
  5
4A07
  8
0
 10
536.1832272795948029
 20
1.8051484299880789
 30
0.0
 40
1.2808802692082559
 50
352.6048703061546803
 51
0.9440925521446372
  0
LINE
  5
4A08
  8
0
 10
537.4534533235175786
 20
1.6402846638446389
 30
0.0
 11
537.4290424928176435
 21
1.501987637044649
 31
0.0
  0
ARC
  5
4A09
  8
0
 10
537.4872401836341851
 20
1.4990716549624059
 30
0.0
 40
0.0582706973347749
 50
177.1316067298380119
 51
205.2866426852484096
  0
ARC
  5
4A0A
  8
0
 10
537.4585069497793484
 20
1.485497711939757
 30
0.0
 40
0.0264925498598354
 50
205.2866426852461927
 51
266.7417089330089084
  0
LINE
  5
4A0B
  8
0
 10
537.4570011858176031
 20
1.4590479884446521
 30
0.0
 11
537.6627466857175932
 21
1.4590479897446611
 31
0.0
  0
ARC
  5
4A0C
  8
0
 10
537.6627466855198918
 20
1.490347277042587
 30
0.0
 40
0.0312992872979336
 50
270.0000003620226039
 51
351.8226453470355182
  0
LINE
  5
4A0D
  8
0
 10
537.6937277381175591
 20
1.4858953375446471
 30
0.0
 11
537.6843803950175698
 21
1.6404369820446469
 31
0.0
  0
ARC
  5
4A0E
  8
0
 10
542.1404872927033693
 20
1.825150832774042
 30
0.0
 40
4.4599336194896386
 50
179.9376811543891108
 51
182.3736568558300917
  0
LINE
  5
4A0F
  8
0
 10
537.6805563113175594
 20
1.8300017635446431
 30
0.0
 11
537.6805563231176848
 21
2.3212236404446571
 31
0.0
  0
ARC
  5
4A10
  8
0
 10
541.5646675631571725
 20
2.3377140468804072
 30
0.0
 40
3.884146245767008
 50
177.4450244581553022
 51
180.2432538503618105
  0
LINE
  5
4A11
  8
0
 10
537.6843825133175869
 20
2.5108613555446482
 30
0.0
 11
537.6917115816175965
 21
2.6320367983446569
 31
0.0
  0
ARC
  5
4A12
  8
0
 10
536.6046127529122032
 20
-0.0016088675828172
 30
0.0
 40
1.443486976592959
 50
358.3091092290898132
 51
359.9119528295403256
  0
LINE
  5
4A13
  8
0
 10
538.0474711833177253
 20
-0.0442023107553382
 30
0.0
 11
538.0161059856177417
 21
-0.9866998562553418
 31
0.0
  0
ARC
  5
4A14
  8
0
 10
537.5397542301426483
 20
-0.9708474362076202
 30
0.0
 40
0.4766154573295515
 50
354.277883912375728
 51
358.0939680041755082
  0
ARC
  5
4A15
  8
0
 10
538.0464269290881703
 20
-1.018478857706298
 30
0.0
 40
0.0324323309363085
 50
179.8038443958143091
 51
252.2531896887560947
  0
ARC
  5
4A16
  8
0
 10
537.9749594879344841
 20
-0.8750553491212968
 30
0.0
 40
0.0310442311608922
 50
270.1160936407745794
 51
359.7792668479025906
  0
LINE
  5
4A17
  8
0
 10
537.9750223902176458
 20
-0.9060995165553578
 30
0.0
 11
537.6619146201177273
 21
-0.9060995166553453
 31
0.0
  0
ARC
  5
4A18
  8
0
 10
537.6646495945650486
 20
-0.9435840159742241
 30
0.0
 40
0.0375841425925162
 50
94.1730664212785342
 51
179.5084450546951018
  0
LINE
  5
4A19
  8
0
 10
537.6270668351276072
 20
-0.9432615760898102
 30
0.0
 11
537.6239744475177531
 21
-1.0183682865553429
 31
0.0
  0
ARC
  5
4A1A
  8
0
 10
537.6525963812571263
 20
-1.0224201197285789
 30
0.0
 40
0.0289073077793201
 50
171.9425249748092028
 51
248.7821011954841879
  0
LINE
  5
4A1B
  8
0
 10
537.9821792350051055
 20
0.0756321761446515
 30
0.0
 11
537.7604288413175482
 21
0.0756321761446515
 31
0.0
  0
ARC
  5
4A1C
  8
0
 10
537.973324669974545
 20
0.044639740650311
 30
0.0
 40
0.0309944358663273
 50
359.9860163851828929
 51
89.3490409798831848
  0
LINE
  5
4A1D
  8
0
 10
538.0043191049177267
 20
0.0446321761446456
 30
0.0
 11
538.006003488717738
 21
-0.8751749473553473
 31
0.0
  0
ARC
  5
4A1E
  8
0
 10
537.9808247909643342
 20
-0.8832801084457457
 30
0.0
 40
0.0391428886134008
 50
273.3976022112606756
 51
349.481011645406511
  0
LINE
  5
4A1F
  8
0
 10
537.9968910200207119
 20
-0.8970269714719876
 30
0.0
 11
538.0067305845899455
 21
-0.9126238571092244
 31
0.0
  0
LINE
  5
4A20
  8
0
 10
537.9831445785176811
 20
-0.92235419595535
 30
0.0
 11
537.8216432303177044
 21
-0.9223527990553606
 31
0.0
  0
ARC
  5
4A21
  8
0
 10
537.8216579676408173
 20
0.7814896856201444
 30
0.0
 40
1.703842484739239
 50
265.4687045628572832
 51
269.9995044222563934
  0
ARC
  5
4A22
  8
0
 10
537.6929814237632854
 20
-0.8421620143118957
 30
0.0
 40
0.0750998728952161
 50
247.9236428596863959
 51
265.4687045628572832
  0
LINE
  5
4A23
  8
0
 10
537.6647557446176506
 20
-0.9117558498553393
 30
0.0
 11
537.6619146201177273
 21
-0.9060995166553453
 31
0.0
  0
ARC
  5
4A24
  8
0
 10
537.760430676912506
 20
0.1388872209416974
 30
0.0
 40
0.0632550448236866
 50
180.2310392089158029
 51
269.9983373367697936
  0
LINE
  5
4A25
  8
0
 10
537.6971806314177229
 20
0.1386321791446647
 30
0.0
 11
537.6948073070177543
 21
1.4354460375446501
 31
0.0
  0
ARC
  5
4A26
  8
0
 10
536.4052041385518805
 20
1.4330859095693
 30
0.0
 40
1.289605328122073
 50
0.104858009373639
 51
2.3469224010989751
  0
LINE
  5
4A27
  8
0
 10
537.692793034717738
 20
2.6879315667446662
 30
0.0
 11
537.6915748408175659
 21
19.4332051196446507
 31
0.0
  0
ARC
  5
4A28
  8
0
 10
536.5648895592071312
 20
2.6817964184955789
 30
0.0
 40
1.127920161231714
 50
357.4715038598068872
 51
0.3116531176840731
  0
ARC
  5
4A29
  8
0
 10
537.6607651813633311
 20
20.6613397149116089
 30
0.0
 40
0.0298775737019739
 50
5.7719354617366214
 51
92.407295952728191
  0
LINE
  5
4A2A
  8
0
 10
537.6595102372176598
 20
20.6911909213446492
 30
0.0
 11
537.4545243609177305
 21
20.6873754994446593
 31
0.0
  0
ARC
  5
4A2B
  8
0
 10
537.4546025474849102
 20
20.6619577751744607
 30
0.0
 40
0.0254178445233881
 50
90.1762449752699808
 51
151.9397948145575867
  0
ARC
  5
4A2C
  8
0
 10
537.4780944546199635
 20
20.6494352253146616
 30
0.0
 40
0.0520389631294528
 50
151.9397948145561088
 51
182.1041074252233045
  0
LINE
  5
4A2D
  8
0
 10
537.426090578017579
 20
20.6475245966446614
 30
0.0
 11
537.4260413651677482
 21
19.5040477142446598
 31
0.0
  0
LINE
  5
4A2E
  8
0
 10
537.426090578017579
 20
20.6475245966446614
 30
0.0
 11
537.4462094043177558
 21
20.53981383014467
 31
0.0
  0
ARC
  5
4A2F
  8
0
 10
536.1721310141286949
 20
20.3607437114281318
 30
0.0
 40
1.286532360738639
 50
359.5278964675907787
 51
8.0008593885025281
  0
LINE
  5
4A30
  8
0
 10
537.4586197014177742
 20
20.3501431121446608
 30
0.0
 11
537.4609325399676436
 21
19.8283132868446508
 31
0.0
  0
ARC
  5
4A31
  8
0
 10
536.1802261519446802
 20
19.8072085071880615
 30
0.0
 40
1.2808802692082559
 50
352.6048703061546803
 51
0.9440925521446372
  0
LINE
  5
4A32
  8
0
 10
537.4504521958676833
 20
19.6423447410446492
 30
0.0
 11
537.4260413651677482
 21
19.5040477142446598
 31
0.0
  0
ARC
  5
4A33
  8
0
 10
537.4842390559842897
 20
19.5011317321623991
 30
0.0
 40
0.0582706973347749
 50
177.1316067298380119
 51
205.2866426852484096
  0
ARC
  5
4A34
  8
0
 10
537.455505822129453
 20
19.4875577891397604
 30
0.0
 40
0.0264925498598354
 50
205.2866426852461927
 51
266.7417089330089084
  0
LINE
  5
4A35
  8
0
 10
537.4540000581677077
 20
19.4611080656446482
 30
0.0
 11
537.6597455580676979
 21
19.4611080669446501
 31
0.0
  0
ARC
  5
4A36
  8
0
 10
537.6597455578699964
 20
19.4924073542425909
 30
0.0
 40
0.0312992872979336
 50
270.0000003620226039
 51
351.8226453470355182
  0
LINE
  5
4A37
  8
0
 10
537.6907266104676637
 20
19.4879554147446612
 30
0.0
 11
537.6813792673676744
 21
19.6424970592446613
 31
0.0
  0
ARC
  5
4A38
  8
0
 10
542.137486165053474
 20
19.8272109099740383
 30
0.0
 40
4.4599336194896386
 50
179.9376811543891108
 51
182.3736568558300917
  0
LINE
  5
4A39
  8
0
 10
537.6775551836676641
 20
19.8320618407446609
 30
0.0
 11
537.6775920901177415
 21
20.3503410764446713
 31
0.0
  0
ARC
  5
4A3A
  8
0
 10
467.0503413747209152
 20
22.264730787568439
 30
0.0
 40
70.6531912342363739
 50
358.4473471793294834
 51
358.5900944637796215
  0
LINE
  5
4A3B
  8
0
 10
537.6821424191176675
 20
20.5263082824446599
 30
0.0
 11
537.6904912783177224
 21
20.6643444708446502
 31
0.0
  0
ARC
  5
4A3C
  8
0
 10
536.7503786587615195
 20
19.4460051600085002
 30
0.0
 40
0.9412832167581067
 50
359.220839294485927
 51
2.554352279925173
  0
ARC
  5
4A3D
  8
0
 10
536.5912461940763478
 20
20.7133871005924988
 30
0.0
 40
1.1003385546654341
 50
357.4454527650070759
 51
0.2432828259471227
  0
LINE
  5
4A3E
  8
0
 10
537.6915748296177071
 20
20.7180592190446511
 30
0.0
 11
537.6928499047177183
 21
27.4791321253446483
 31
0.0
  0
ARC
  5
4A3F
  8
0
 10
537.5673031702549451
 20
27.4789309280622405
 30
0.0
 40
0.1255468956789468
 50
0.0918203512989619
 51
85.7474336219674029
  0
ARC
  5
4A40
  8
0
 10
537.5809233221663135
 20
27.4790573740925694
 30
0.0
 40
0.1250748265194683
 50
0.0342662707474279
 51
89.9641617878131541
  0
LINE
  5
4A41
  8
0
 10
537.7059981263176951
 20
27.4791321762476812
 30
0.0
 11
537.7059981263176951
 21
0.1385356686053996
 31
0.0
  0
ARC
  5
4A42
  8
0
 10
537.768983462750839
 20
0.1386149230931011
 30
0.0
 40
0.0629853862960713
 50
180.0720952766808978
 51
269.4754732561930268
  0
LINE
  5
4A43
  8
0
 10
538.1739163694176113
 20
-0.0855749009553364
 30
0.0
 11
538.1074349986175775
 21
-0.0855749026553525
 31
0.0
  0
ARC
  5
4A44
  8
0
 10
538.1074349966482941
 20
-0.0085585227946297
 30
0.0
 40
0.0770163798607158
 50
240.3496755694841909
 51
270.0000014651175775
  0
ARC
  5
4A45
  8
0
 10
538.0913421627980142
 20
-0.0368291884021375
 30
0.0
 40
0.0444862425227566
 50
189.5401893686284893
 51
240.3496755694845888
  0
ARC
  5
4A46
  8
0
 10
537.8906430409004997
 20
27.8252061538510098
 30
0.0
 40
0.1254974271225135
 50
0.1945007025595548
 51
88.0671212811242441
  0
LINE
  5
4A47
  8
0
 10
538.016139744917723
 20
27.8256321763554091
 30
0.0
 11
538.016139744917723
 21
0.1362009450107706
 31
0.0
  0
ARC
  5
4A48
  8
0
 10
537.4694609687361435
 20
0.1011041935515067
 30
0.0
 40
0.5463203804503096
 50
354.0671914817738752
 51
358.9942219857459236
  0
ARC
  5
4A49
  8
0
 10
535.6363285017732778
 20
0.1374247965643605
 30
0.0
 40
2.3798115578357608
 50
358.8946060668018845
 51
359.9705348385576258
  0
ARC
  5
4A4A
  8
0
 10
537.9818485681222455
 20
0.0446273621490008
 30
0.0
 40
0.0310065772295424
 50
0.0147972765791833
 51
89.3889626774753197
  0
LINE
  5
4A4B
  8
0
 10
522.6090012670176748
 20
27.3407072004446583
 30
0.0
 11
523.7412413349177314
 21
27.340707198444651
 31
0.0
  0
ARC
  5
4A4C
  8
0
 10
523.7412413350373299
 20
27.4084404824247017
 30
0.0
 40
0.0677332839800471
 50
269.9999998987888716
 51
293.8509803771621023
  0
ARC
  5
4A4D
  8
0
 10
523.7581486130388839
 20
27.3701987438688299
 30
0.0
 40
0.025920766509809
 50
293.8509803771402744
 51
356.5448998594594059
  0
LINE
  5
4A4E
  8
0
 10
523.7840222642175831
 20
27.3686365943446503
 30
0.0
 11
523.7902098197175746
 21
27.5731321761446502
 31
0.0
  0
ARC
  5
4A4F
  8
0
 10
523.758437196402042
 20
27.5740935410231316
 30
0.0
 40
0.031787164308695
 50
358.2668931964248031
 51
39.3674244275900094
  0
ARC
  5
4A50
  8
0
 10
523.7612337614915532
 20
27.5763880039510489
 30
0.0
 40
0.0281697983571618
 50
39.367424427591267
 51
80.0274031081800956
  0
LINE
  5
4A51
  8
0
 10
523.7412413349177314
 20
27.340707198444651
 30
0.0
 11
523.6199880107177478
 21
27.3627808569446493
 31
0.0
  0
ARC
  5
4A52
  8
0
 10
523.4467397602038545
 20
26.0762488609981489
 30
0.0
 40
1.2981446502220859
 50
82.3305164872660811
 51
90.7243598193481375
  0
ARC
  5
4A53
  8
0
 10
522.6090012594980863
 20
27.4084404824247017
 30
0.0
 40
0.0677332839800471
 50
246.1490196228378977
 51
270.0000001012111284
  0
ARC
  5
4A54
  8
0
 10
522.5920939814963049
 20
27.3701987438688299
 30
0.0
 40
0.025920766509809
 50
183.4551001405405088
 51
246.1490196228598109
  0
LINE
  5
4A55
  8
0
 10
522.5662203303177193
 20
27.3686365943446503
 30
0.0
 11
522.5600327748177278
 21
27.5731321761446502
 31
0.0
  0
ARC
  5
4A56
  8
0
 10
522.5918053981333742
 20
27.5740935410231316
 30
0.0
 40
0.031787164308695
 50
140.6325755724099906
 51
181.7331068035742874
  0
ARC
  5
4A57
  8
0
 10
522.5890088330437493
 20
27.5763880039510489
 30
0.0
 40
0.0281697983571618
 50
99.9725968918198902
 51
140.6325755724087117
  0
LINE
  5
4A58
  8
0
 10
522.6090012596175711
 20
27.340707198444651
 30
0.0
 11
522.7302545838176684
 21
27.3627808569446493
 31
0.0
  0
ARC
  5
4A59
  8
0
 10
522.9035028343315616
 20
26.0762488609981489
 30
0.0
 40
1.2981446502220859
 50
89.2756401806518483
 51
97.6694835127339331
  0
LINE
  5
4A5A
  8
0
 10
523.4303284506177079
 20
27.3742897701446601
 30
0.0
 11
522.9199141439177083
 21
27.3742897701446601
 31
0.0
  0
LINE
  5
4A5B
  8
0
 10
538.0114703845515578
 20
27.9139962021847516
 30
0.0
 11
537.980719065766948
 21
27.9125898706328286
 31
0.0
  0
LINE
  5
4A5C
  8
0
 10
537.6592423761381951
 20
27.5644248192836301
 30
0.0
 11
537.669365793363113
 21
27.567497418854451
 31
0.0
  0
LINE
  5
4A5D
  8
0
 10
537.7157922269628898
 20
0.0940697078274582
 30
0.0
 11
537.7242705736184689
 21
0.0942537189580009
 31
0.0
  0
ARC
  5
4A5E
  8
0
 10
512.6754721792816554
 20
13.9452997382198305
 30
0.0
 40
31.7783400219248193
 50
180.0142864897962056
 51
184.7285764945960977
  0
LINE
  5
4A5F
  8
0
 10
478.6345686781060067
 20
0.0940697078274582
 30
0.0
 11
478.6260903314503139
 21
0.0942537189580009
 31
0.0
  0
LINE
  5
4A60
  8
0
 10
478.6911185289307014
 20
27.5644248192836301
 30
0.0
 11
478.6809951117057835
 21
27.567497418854451
 31
0.0
  0
LINE
  5
4A61
  8
0
 10
478.338890520517225
 20
27.9139962021847516
 30
0.0
 11
478.369641839301778
 21
27.9125898706328286
 31
0.0
  0
ARC
  5
4A62
  8
0
 10
488.4092031108581864
 20
15.9694723453035596
 30
0.0
 40
3.1936069848280781
 50
144.1242105215881111
 51
173.92346893894819
  0
ARC
  5
4A63
  8
0
 10
489.9601823264115978
 20
15.0248535818106692
 30
0.0
 40
5.0059812193822113
 50
127.6579778946594956
 51
145.7669268002489957
  0
ARC
  5
4A64
  8
0
 10
492.6066755557911279
 20
12.4112264590096206
 30
0.0
 40
8.7062577505713552
 50
107.1098195296894033
 51
130.939522961984494
  0
ARC
  5
4A65
  8
0
 10
495.9753017372585759
 20
-5.693312372025118
 30
0.0
 40
27.0826775171289498
 50
94.7964711371786279
 51
102.647999679773207
  0
ARC
  5
4A66
  8
0
 10
516.6584169376772024
 20
-216.2425732979754969
 30
0.0
 40
238.6429703519596899
 50
91.0414316855190862
 51
95.5180319289776349
  0
ARC
  5
4A67
  8
0
 10
512.8360607985232491
 20
-1.2689769404594951
 30
0.0
 40
23.6355664978579796
 50
84.3101030557842535
 51
91.2487167566040824
  0
ARC
  5
4A68
  8
0
 10
514.4624889258833491
 20
14.1062026491724701
 30
0.0
 40
8.1754293516651142
 50
54.2392572306816589
 51
84.9692723967926185
  0
ARC
  5
4A69
  8
0
 10
513.392357282607577
 20
13.4707091289363596
 30
0.0
 40
9.3297432152611321
 50
22.2893932755448283
 51
51.1856979043643534
  0
ARC
  5
4A6A
  8
0
 10
488.4092031108581864
 20
11.9317920069857397
 30
0.0
 40
3.1936069848280781
 50
186.0765310610510141
 51
215.8757894784118889
  0
ARC
  5
4A6B
  8
0
 10
489.9601823264115978
 20
12.8764107704786301
 30
0.0
 40
5.0059812193822113
 50
214.2330731997508906
 51
232.3420221053405044
  0
ARC
  5
4A6C
  8
0
 10
492.6066755557911279
 20
15.4900378932796805
 30
0.0
 40
8.7062577505713552
 50
229.0604770380153923
 51
252.8901804703135952
  0
ARC
  5
4A6D
  8
0
 10
495.9753017372585759
 20
33.5945767243144218
 30
0.0
 40
27.0826775171289498
 50
257.3520003202268072
 51
265.2035288628213721
  0
ARC
  5
4A6E
  8
0
 10
516.6584169376772024
 20
244.1438376502649135
 30
0.0
 40
238.6429703519596899
 50
264.4819680710223224
 51
268.9585683144808854
  0
ARC
  5
4A6F
  8
0
 10
512.8360607985232491
 20
29.1702412927487984
 30
0.0
 40
23.6355664978579796
 50
268.7512832433959034
 51
275.6898969442157181
  0
ARC
  5
4A70
  8
0
 10
514.4624889258833491
 20
13.7950617031168292
 30
0.0
 40
8.1754293516651142
 50
275.0307276032106074
 51
305.7607427693179147
  0
ARC
  5
4A71
  8
0
 10
513.392357282607577
 20
14.4305552233529397
 30
0.0
 40
9.3297432152611321
 50
308.8143020956355826
 51
337.7106067244544079
  0
ARC
  5
4A72
  8
0
 10
516.0330374066626291
 20
13.9506321761446603
 30
0.0
 40
30.8895460721310187
 50
175.62401823869601
 51
184.37598176130399
  0
ARC
  5
4A73
  8
0
 10
513.8715748316427607
 20
13.9506321761446497
 30
0.0
 40
8.7082566138083664
 50
339.4366858579617769
 51
20.5633141420382515
  0
ENDSEC
  0
EOF
