  0
SECTION
  2
HEADER
  9
$ACADVER
  1
AC1009
  9
$INSBASE
 10
524.7664228524888586
 20
-13.2902005917826092
 30
0.0
  9
$EXTMIN
 10
494.7649574270370749
 20
-13.2909829358841698
 30
-0.0015258207003583
  9
$EXTMAX
 10
554.8065735903272753
 20
3.3237005348019499
 30
0.0000000349246037
  9
$LIMMIN
 10
0.0
 20
0.0
  9
$LIMMAX
 10
11.6929133858000007
 20
8.2677165353999982
  9
$ORTHOMODE
 70
     1
  9
$REGENMODE
 70
     1
  9
$FILLMODE
 70
     1
  9
$QTEXTMODE
 70
     0
  9
$MIRRTEXT
 70
     0
  9
$DRAGMODE
 70
     2
  9
$LTSCALE
 40
0.6431102362
  9
$OSMODE
 70
    23
  9
$ATTMODE
 70
     1
  9
$TEXTSIZE
 40
0.2
  9
$TRACEWID
 40
0.05
  9
$TEXTSTYLE
  7
STANDARD
  9
$CLAYER
  8
0
  9
$CELTYPE
  6
BYLAYER
  9
$CECOLOR
 62
   256
  9
$DIMSCALE
 40
1.0
  9
$DIMASZ
 40
0.1875
  9
$DIMEXO
 40
0.0625
  9
$DIMDLI
 40
0.4443307087
  9
$DIMRND
 40
0.0
  9
$DIMDLE
 40
0.0
  9
$DIMEXE
 40
0.125
  9
$DIMTP
 40
0.01
  9
$DIMTM
 40
0.01
  9
$DIMTXT
 40
2.0
  9
$DIMCEN
 40
0.1052362205
  9
$DIMTSZ
 40
0.0
  9
$DIMTOL
 70
     1
  9
$DIMLIM
 70
     0
  9
$DIMTIH
 70
     1
  9
$DIMTOH
 70
     1
  9
$DIMSE1
 70
     0
  9
$DIMSE2
 70
     0
  9
$DIMTAD
 70
     0
  9
$DIMZIN
 70
     0
  9
$DIMBLK
  1

  9
$DIMASO
 70
     1
  9
$DIMSHO
 70
     1
  9
$DIMPOST
  1
\X
  9
$DIMAPOST
  1

  9
$DIMALT
 70
     1
  9
$DIMALTD
 70
     2
  9
$DIMALTF
 40
25.3999999999999986
  9
$DIMLFAC
 40
1.0
  9
$DIMTOFL
 70
     0
  9
$DIMTVP
 40
0.0
  9
$DIMTIX
 70
     0
  9
$DIMSOXD
 70
     0
  9
$DIMSAH
 70
     0
  9
$DIMBLK1
  1

  9
$DIMBLK2
  1

  9
$DIMSTYLE
  2
STANDARD
  9
$DIMCLRD
 70
     0
  9
$DIMCLRE
 70
     0
  9
$DIMCLRT
 70
     0
  9
$DIMTFAC
 40
1.0
  9
$DIMGAP
 40
0.09
  9
$LUNITS
 70
     2
  9
$LUPREC
 70
     4
  9
$SKETCHINC
 40
0.1
  9
$FILLETRAD
 40
0.0
  9
$AUNITS
 70
     0
  9
$AUPREC
 70
     0
  9
$MENU
  1
.
  9
$ELEVATION
 40
0.0
  9
$PELEVATION
 40
0.0
  9
$THICKNESS
 40
0.0
  9
$LIMCHECK
 70
     0
  9
$BLIPMODE
 70
     0
  9
$CHAMFERA
 40
0.0
  9
$CHAMFERB
 40
0.0
  9
$SKPOLY
 70
     0
  9
$TDCREATE
 40
2458106.4931018520146608
  9
$TDUPDATE
 40
2459704.4571990738622844
  9
$TDINDWG
 40
0.2488874537
  9
$TDUSRTIMER
 40
0.2488874537
  9
$USRTIMER
 70
     1
  9
$ANGBASE
 50
0.0
  9
$ANGDIR
 70
     0
  9
$PDMODE
 70
     0
  9
$PDSIZE
 40
0.3125
  9
$PLINEWID
 40
0.0
  9
$COORDS
 70
     1
  9
$SPLFRAME
 70
     0
  9
$SPLINETYPE
 70
     6
  9
$SPLINESEGS
 70
     8
  9
$ATTDIA
 70
     1
  9
$ATTREQ
 70
     1
  9
$HANDLING
 70
     1
  9
$HANDSEED
  5
461D
  9
$SURFTAB1
 70
     6
  9
$SURFTAB2
 70
     6
  9
$SURFTYPE
 70
     6
  9
$SURFU
 70
     6
  9
$SURFV
 70
     6
  9
$UCSNAME
  2

  9
$UCSORG
 10
0.0
 20
0.0
 30
0.0
  9
$UCSXDIR
 10
1.0
 20
0.0
 30
0.0
  9
$UCSYDIR
 10
0.0
 20
1.0
 30
0.0
  9
$PUCSNAME
  2

  9
$PUCSORG
 10
0.0
 20
0.0
 30
0.0
  9
$PUCSXDIR
 10
1.0
 20
0.0
 30
0.0
  9
$PUCSYDIR
 10
0.0
 20
1.0
 30
0.0
  9
$USERI1
 70
     0
  9
$USERI2
 70
     0
  9
$USERI3
 70
     0
  9
$USERI4
 70
     0
  9
$USERI5
 70
     0
  9
$USERR1
 40
0.0
  9
$USERR2
 40
0.0
  9
$USERR3
 40
0.0
  9
$USERR4
 40
0.0
  9
$USERR5
 40
0.0
  9
$WORLDVIEW
 70
     1
  9
$SHADEDGE
 70
     3
  9
$SHADEDIF
 70
    70
  9
$TILEMODE
 70
     1
  9
$MAXACTVP
 70
    64
  9
$PLIMCHECK
 70
     0
  9
$PEXTMIN
 10
1.0000000000000000E+20
 20
1.0000000000000000E+20
 30
1.0000000000000000E+20
  9
$PEXTMAX
 10
-1.0000000000000000E+20
 20
-1.0000000000000000E+20
 30
-1.0000000000000000E+20
  9
$PLIMMIN
 10
0.0
 20
0.0
  9
$PLIMMAX
 10
12.0
 20
9.0
  9
$UNITMODE
 70
     0
  9
$VISRETAIN
 70
     1
  9
$PLINEGEN
 70
     0
  9
$PSLTSCALE
 70
     1
  0
ENDSEC
  0
SECTION
  2
TABLES
  0
TABLE
  2
VPORT
 70
     1
  0
VPORT
  2
*ACTIVE
 70
     0
 10
0.0
 20
0.0
 11
1.0
 21
1.0
 12
251.2115639521692003
 22
12.6223195334803702
 13
0.0
 23
0.0
 14
1.0
 24
1.0
 15
0.0
 25
0.0
 16
-0.0000000000000568
 26
0.0
 36
193.9250709296327955
 17
273.5742015565131169
 27
-17.6059607340214797
 37
0.0
 40
30.0361097787012383
 41
2.005224660397074
 42
50.0
 43
0.0
 44
0.0
 50
0.0
 51
0.0
 71
     0
 72
   100
 73
     1
 74
     1
 75
     0
 76
     0
 77
     0
 78
     0
  0
ENDTAB
  0
TABLE
  2
LTYPE
 70
     2
  0
LTYPE
  2
CONTINUOUS
 70
     0
  3
Solid line
 72
    65
 73
     0
 40
0.0
  0
LTYPE
  2
PHANTOM2
 70
     0
  3
___ _ _ ___ _ _ ___ _ _ ___ _ _
 72
    65
 73
     6
 40
1.25
 49
0.625
 49
-0.125
 49
0.125
 49
-0.125
 49
0.125
 49
-0.125
  0
ENDTAB
  0
TABLE
  2
LAYER
 70
     2
  0
LAYER
  2
0
 70
     0
 62
   255
  6
CONTINUOUS
  0
LAYER
  2
DEFPOINTS
 70
     0
 62
     7
  6
CONTINUOUS
  0
ENDTAB
  0
TABLE
  2
STYLE
 70
     1
  0
STYLE
  2
STANDARD
 70
     0
 40
0.0
 41
0.8
 50
0.0
 71
     0
 42
0.2
  3
txt
  4

  0
ENDTAB
  0
TABLE
  2
VIEW
 70
     0
  0
ENDTAB
  0
TABLE
  2
UCS
 70
     0
  0
ENDTAB
  0
TABLE
  2
APPID
 70
     9
  0
APPID
  2
ACAD
 70
     0
  0
APPID
  2
ACAD_MLEADERVER
 70
     0
  0
APPID
  2
ACAD_EXEMPT_FROM_CAD_STANDARDS
 70
     0
  0
APPID
  2
ACAD_NAV_VCDISPLAY
 70
     0
  0
APPID
  2
ACAD_DSTYLE_DIMJAG
 70
     0
  0
APPID
  2
ACAD_DSTYLE_DIMTALN
 70
     0
  0
APPID
  2
ACAECLAYERSTANDARD
 70
     0
  0
APPID
  2
ACCMTRANSPARENCY
 70
     0
  0
APPID
  2
ACDBATTR
 70
     0
  0
ENDTAB
  0
TABLE
  2
DIMSTYLE
 70
     1
  0
DIMSTYLE
  2
STANDARD
 70
     0
  3

  4

  5

  6

  7

 40
1.0
 41
0.1875
 42
0.0625
 43
0.38
 44
0.125
 45
0.0
 46
0.0
 47
0.01
 48
0.01
140
0.15625
141
0.09
142
0.0
143
25.3999999999999986
144
1.0
145
0.0
146
1.0
147
0.09
 71
     1
 72
     0
 73
     1
 74
     1
 75
     0
 76
     0
 77
     0
 78
     4
170
     0
171
     2
172
     0
173
     0
174
     0
175
     0
176
     0
177
     0
178
     0
  0
ENDTAB
  0
ENDSEC
  0
SECTION
  2
BLOCKS
  0
BLOCK
  8
0
  2
$MODEL_SPACE
 70
     0
 10
0.0
 20
0.0
 30
0.0
  3
$MODEL_SPACE
  1

  0
ENDBLK
  5
21
  8
0
  0
BLOCK
 67
     1
  8
0
  2
$PAPER_SPACE
 70
     0
 10
0.0
 20
0.0
 30
0.0
  3
$PAPER_SPACE
  1

  0
ENDBLK
  5
1D
 67
     1
  8
0
  0
ENDSEC
  0
SECTION
  2
ENTITIES
  0
ATTDEF
  5
FAA
  8
DEFPOINTS
 10
524.7664875963439499
 20
-13.2867991265794902
 30
0.0
 40
0.001
  1
71341110
  3

  2
MODELNUMBER
 70
     0
1001
ACDBATTR
1070
     0
1070
     1
  0
ATTDEF
  5
FAB
  8
DEFPOINTS
 10
524.7664875963439499
 20
-13.2884657932461607
 30
0.0
 40
0.001
  1

  3

  2
TRADENAME
 70
     0
1001
ACDBATTR
1070
     0
1070
     1
  0
ATTDEF
  5
FAC
  8
DEFPOINTS
 10
524.7664875963439499
 20
-13.2901324599128206
 30
0.0
 40
0.001
  1
BATH
  3

  2
PRODUCT
 70
     0
1001
ACDBATTR
1070
     0
1070
     1
  0
LINE
  5
44E9
  8
0
 10
495.3120259774020724
 20
2.0196318612173911
 30
0.0
 11
554.2208197275756447
 21
2.0196318612173911
 31
0.0
  0
LINE
  5
44EA
  8
0
 10
495.3078449609055838
 20
2.1393605092173971
 30
0.0
 11
495.3176288575056105
 21
1.8591863666173929
 31
0.0
  0
ARC
  5
44EB
  8
0
 10
494.5023864206460189
 20
1.858445771382349
 30
0.0
 40
0.8152427732510513
 50
350.6792486471738926
 51
0.0520495103107399
  0
LINE
  5
44EC
  8
0
 10
495.3068656431055956
 20
1.7264080496173899
 30
0.0
 11
495.2941023693056195
 21
1.644631884017371
 31
0.0
  0
LINE
  5
44ED
  8
0
 10
495.2941023693056195
 20
1.644631884017371
 30
0.0
 11
554.2387433356719839
 21
1.644631884017371
 31
0.0
  0
ARC
  5
44EE
  8
0
 10
495.1199594851570964
 20
2.1327994080972701
 30
0.0
 40
0.1880000001201205
 50
1.9999986996496599
 51
89.9999999852104651
  0
ARC
  5
44EF
  8
0
 10
494.9554790219056031
 20
2.3507994082173971
 30
0.0
 40
0.0300000000000011
 50
182.0012180976918899
 51
270.0000000000130171
  0
ARC
  5
44F0
  8
0
 10
494.8473269797053717
 20
-13.2592490293245593
 30
0.0
 40
0.0309545261547637
 50
180.0842376063959023
 51
269.2071411192632127
  0
LINE
  5
44F1
  8
0
 10
494.8163724870054807
 20
-13.2592945393825996
 30
0.0
 11
494.8163724870054807
 21
1.947503059475479
 31
0.0
  0
LINE
  5
44F2
  8
0
 10
494.813725468954317
 20
1.9711779005032419
 30
0.0
 11
494.766482007005493
 21
3.323229508217401
 31
0.0
  0
ARC
  5
44F3
  8
0
 10
494.8680535571995733
 20
2.3158384887815648
 30
0.0
 40
0.0641697340059712
 50
22.4488024949907015
 51
91.2844432002964936
  0
LINE
  5
44F4
  8
0
 10
494.8666151358056027
 20
2.3799920974173849
 30
0.0
 11
494.7994406619279744
 21
2.37999206231737
 31
0.0
  0
LINE
  5
44F5
  8
0
 10
494.925497319405622
 20
2.3497517841173869
 30
0.0
 11
494.893505315205573
 21
3.2653248359173972
 31
0.0
  0
LINE
  5
44F6
  8
0
 10
498.6189152657055956
 20
-1.482320002682598
 30
0.0
 11
498.8634772522055982
 21
-3.109884273182586
 31
0.0
  0
ARC
  5
44F7
  8
0
 10
824.4049909028769889
 20
52.032990506705481
 30
0.0
 40
330.1787602935121981
 50
189.6139701320965116
 51
190.6413203638797995
  0
ARC
  5
44F8
  8
0
 10
500.2016985458640761
 20
-8.8972743548590323
 30
0.0
 40
0.29995694399143
 50
187.7793978703375899
 51
266.0325034072806147
  0
LINE
  5
44F9
  8
0
 10
500.1809443590425985
 20
-9.1965124406336223
 30
0.0
 11
503.3231794696318957
 21
-9.5426768717452681
 31
0.0
  0
ARC
  5
44FA
  8
0
 10
524.7661388981947539
 20
197.6544027567830994
 30
0.0
 40
208.3036973163119967
 50
264.0914570232815777
 51
266.3325643803789262
  0
LINE
  5
44FB
  8
0
 10
494.8468986447057887
 20
-13.2902005917826198
 30
0.0
 11
554.685947060271701
 21
-13.2902005917826198
 31
0.0
  0
LINE
  5
44FC
  8
0
 10
494.9554790219056031
 20
2.3207994082173959
 30
0.0
 11
554.5773666830720003
 21
2.3207994082173959
 31
0.0
  0
ARC
  5
44FD
  8
0
 10
554.6855187252722317
 20
-13.2592490293245593
 30
0.0
 40
0.0309545261547637
 50
270.7928588807367873
 51
359.915762393603984
  0
LINE
  5
44FE
  8
0
 10
554.7164732179720659
 20
-13.2592945393825996
 30
0.0
 11
554.7164732179720659
 21
1.947503059475437
 31
0.0
  0
LINE
  5
44FF
  8
0
 10
550.9139304392720078
 20
-1.482320002682598
 30
0.0
 11
550.6693684527720052
 21
-3.109884273182586
 31
0.0
  0
ARC
  5
4500
  8
0
 10
225.1278548021008987
 20
52.032990506705481
 30
0.0
 40
330.1787602935121981
 50
349.3586796361184952
 51
350.3860298679051084
  0
ARC
  5
4501
  8
0
 10
549.3311471591136979
 20
-8.8972743548590323
 30
0.0
 40
0.29995694399143
 50
273.9674965927193853
 51
352.2206021296623248
  0
LINE
  5
4502
  8
0
 10
549.3519013459350617
 20
-9.1965124406336223
 30
0.0
 11
546.2096662353458214
 21
-9.5426768717452681
 31
0.0
  0
ARC
  5
4503
  8
0
 10
524.7667068067828495
 20
197.6544027567830994
 30
0.0
 40
208.3036973163119967
 50
273.6674356196210738
 51
275.9085429767184792
  0
ARC
  5
4504
  8
0
 10
524.7664228524882901
 20
197.6569202819171949
 30
0.0
 40
208.3062278491013046
 50
266.3325307303662726
 51
273.6674692696337274
  0
LINE
  5
4505
  8
0
 10
498.6189152657055956
 20
-1.482320002682598
 30
0.0
 11
550.9139304392720078
 21
-1.482320002682598
 31
0.0
  0
LINE
  5
4507
  8
0
 10
494.766482007005493
 20
3.323229508217401
 30
0.0
 11
554.7663636979721105
 21
3.323229508217401
 31
0.0
  0
ARC
  5
4508
  8
0
 10
494.8334342197534284
 20
3.2631522864628328
 30
0.0
 40
0.0601103691550838
 50
2.0712737750827142
 51
88.0971365251162695
  0
ARC
  5
4509
  8
0
 10
494.9700973224739755
 20
1.9766760036455859
 30
0.0
 40
0.1564684815270001
 50
182.0137152569674868
 51
190.7454571063578896
  0
ARC
  5
450A
  8
0
 10
495.1726436142055832
 20
2.2577994082174579
 30
0.0
 40
0.0629999999999322
 50
26.5309573010858983
 51
90.0
  0
LINE
  5
450B
  8
0
 10
554.2250007440720765
 20
2.1393605092173971
 30
0.0
 11
554.2152168474721066
 21
1.8591863666173929
 31
0.0
  0
ARC
  5
450C
  8
0
 10
555.030459284331755
 20
1.858445771382349
 30
0.0
 40
0.8152427732510513
 50
179.947950489689191
 51
189.3207513528261074
  0
LINE
  5
450D
  8
0
 10
554.2259800618721783
 20
1.7264080496173899
 30
0.0
 11
554.2387433356719839
 21
1.644631884017371
 31
0.0
  0
ARC
  5
450E
  8
0
 10
554.412886219820507
 20
2.1327994080972701
 30
0.0
 40
0.1880000001201205
 50
90.0000000147895349
 51
178.0000013003503057
  0
ARC
  5
450F
  8
0
 10
554.5773666830720003
 20
2.3507994082173971
 30
0.0
 40
0.0300000000000011
 50
269.9999999999869829
 51
357.9987819023079965
  0
LINE
  5
4510
  8
0
 10
554.7191202360234001
 20
1.9711779005032419
 30
0.0
 11
554.7663636979721105
 21
3.323229508217401
 31
0.0
  0
ARC
  5
4511
  8
0
 10
554.6647921477781438
 20
2.3158384887815648
 30
0.0
 40
0.0641697340059712
 50
88.7155567997035206
 51
157.5511975050092985
  0
LINE
  5
4512
  8
0
 10
554.6662305691719439
 20
2.3799920974173849
 30
0.0
 11
554.7334050430497427
 21
2.37999206231737
 31
0.0
  0
LINE
  5
4513
  8
0
 10
554.6073483855719815
 20
2.3497517841173869
 30
0.0
 11
554.6393403897719736
 21
3.2653248359173972
 31
0.0
  0
ARC
  5
4514
  8
0
 10
554.6994114852243456
 20
3.2631522864628328
 30
0.0
 40
0.0601103691550838
 50
91.9028634748837447
 51
177.9287262249173125
  0
ARC
  5
4515
  8
0
 10
554.5627483825036279
 20
1.9766760036455859
 30
0.0
 40
0.1564684815270001
 50
349.2545428936421104
 51
357.9862847430323995
  0
ARC
  5
4516
  8
0
 10
554.3602020907719634
 20
2.2577994082174579
 30
0.0
 40
0.0629999999999322
 50
90.0
 51
153.4690426989141088
  0
ENDSEC
  0
EOF
