  0
SECTION
  2
HEADER
  9
$ACADVER
  1
AC1009
  9
$INSBASE
 10
213.3881405755555
 20
105.3835364251336
 30
0.0
  9
$EXTMIN
 10
183.38814061296631
 20
72.134919398273013
 30
0.0
  9
$EXTMAX
 10
243.38814053814471
 20
105.3912065371879
 30
0.0
  9
$LIMMIN
 10
0.0
 20
0.0
  9
$LIMMAX
 10
11.692913385800001
 20
8.2677165353999982
  9
$ORTHOMODE
 70
     0
  9
$REGENMODE
 70
     1
  9
$FILLMODE
 70
     1
  9
$QTEXTMODE
 70
     0
  9
$MIRRTEXT
 70
     0
  9
$DRAGMODE
 70
     2
  9
$LTSCALE
 40
0.6431102362
  9
$OSMODE
 70
   439
  9
$ATTMODE
 70
     1
  9
$TEXTSIZE
 40
0.2
  9
$TRACEWID
 40
0.05
  9
$TEXTSTYLE
  7
STANDARD
  9
$CLAYER
  8
0
  9
$CELTYPE
  6
BYLAYER
  9
$CECOLOR
 62
   256
  9
$DIMSCALE
 40
1.0
  9
$DIMASZ
 40
0.1875
  9
$DIMEXO
 40
0.0625
  9
$DIMDLI
 40
0.4443307087
  9
$DIMRND
 40
0.0
  9
$DIMDLE
 40
0.0
  9
$DIMEXE
 40
0.125
  9
$DIMTP
 40
0.01
  9
$DIMTM
 40
0.01
  9
$DIMTXT
 40
2.0
  9
$DIMCEN
 40
0.1052362205
  9
$DIMTSZ
 40
0.0
  9
$DIMTOL
 70
     1
  9
$DIMLIM
 70
     0
  9
$DIMTIH
 70
     1
  9
$DIMTOH
 70
     1
  9
$DIMSE1
 70
     0
  9
$DIMSE2
 70
     0
  9
$DIMTAD
 70
     0
  9
$DIMZIN
 70
     0
  9
$DIMBLK
  1

  9
$DIMASO
 70
     1
  9
$DIMSHO
 70
     1
  9
$DIMPOST
  1
\X
  9
$DIMAPOST
  1

  9
$DIMALT
 70
     1
  9
$DIMALTD
 70
     2
  9
$DIMALTF
 40
25.399999999999999
  9
$DIMLFAC
 40
1.0
  9
$DIMTOFL
 70
     0
  9
$DIMTVP
 40
0.0
  9
$DIMTIX
 70
     0
  9
$DIMSOXD
 70
     0
  9
$DIMSAH
 70
     0
  9
$DIMBLK1
  1

  9
$DIMBLK2
  1

  9
$DIMSTYLE
  2
STANDARD
  9
$DIMCLRD
 70
     0
  9
$DIMCLRE
 70
     0
  9
$DIMCLRT
 70
     0
  9
$DIMTFAC
 40
1.0
  9
$DIMGAP
 40
0.09
  9
$LUNITS
 70
     2
  9
$LUPREC
 70
     4
  9
$SKETCHINC
 40
0.1
  9
$FILLETRAD
 40
0.0
  9
$AUNITS
 70
     0
  9
$AUPREC
 70
     0
  9
$MENU
  1
.
  9
$ELEVATION
 40
0.0
  9
$PELEVATION
 40
0.0
  9
$THICKNESS
 40
0.0
  9
$LIMCHECK
 70
     0
  9
$BLIPMODE
 70
     0
  9
$CHAMFERA
 40
0.0
  9
$CHAMFERB
 40
0.0
  9
$SKPOLY
 70
     0
  9
$TDCREATE
 40
2458086.6599313542
  9
$TDUPDATE
 40
2458372.607795937
  9
$TDINDWG
 40
0.2786364583
  9
$TDUSRTIMER
 40
0.2786364005
  9
$USRTIMER
 70
     1
  9
$ANGBASE
 50
0.0
  9
$ANGDIR
 70
     0
  9
$PDMODE
 70
     0
  9
$PDSIZE
 40
0.3125
  9
$PLINEWID
 40
0.0
  9
$COORDS
 70
     1
  9
$SPLFRAME
 70
     0
  9
$SPLINETYPE
 70
     6
  9
$SPLINESEGS
 70
     8
  9
$ATTDIA
 70
     1
  9
$ATTREQ
 70
     1
  9
$HANDLING
 70
     1
  9
$HANDSEED
  5
5B57
  9
$SURFTAB1
 70
     6
  9
$SURFTAB2
 70
     6
  9
$SURFTYPE
 70
     6
  9
$SURFU
 70
     6
  9
$SURFV
 70
     6
  9
$UCSNAME
  2

  9
$UCSORG
 10
0.0
 20
0.0
 30
0.0
  9
$UCSXDIR
 10
1.0
 20
0.0
 30
0.0
  9
$UCSYDIR
 10
0.0
 20
1.0
 30
0.0
  9
$PUCSNAME
  2

  9
$PUCSORG
 10
0.0
 20
0.0
 30
0.0
  9
$PUCSXDIR
 10
1.0
 20
0.0
 30
0.0
  9
$PUCSYDIR
 10
0.0
 20
1.0
 30
0.0
  9
$USERI1
 70
     0
  9
$USERI2
 70
     0
  9
$USERI3
 70
     0
  9
$USERI4
 70
     0
  9
$USERI5
 70
     0
  9
$USERR1
 40
0.0
  9
$USERR2
 40
0.0
  9
$USERR3
 40
0.0
  9
$USERR4
 40
0.0
  9
$USERR5
 40
0.0
  9
$WORLDVIEW
 70
     1
  9
$SHADEDGE
 70
     3
  9
$SHADEDIF
 70
    70
  9
$TILEMODE
 70
     1
  9
$MAXACTVP
 70
    64
  9
$PLIMCHECK
 70
     0
  9
$PEXTMIN
 10
1.0000000000000000E+020
 20
1.0000000000000000E+020
 30
1.0000000000000000E+020
  9
$PEXTMAX
 10
-1.0000000000000000E+020
 20
-1.0000000000000000E+020
 30
-1.0000000000000000E+020
  9
$PLIMMIN
 10
0.0
 20
0.0
  9
$PLIMMAX
 10
12.0
 20
9.0
  9
$UNITMODE
 70
     0
  9
$VISRETAIN
 70
     1
  9
$PLINEGEN
 70
     0
  9
$PSLTSCALE
 70
     1
  0
ENDSEC
  0
SECTION
  2
TABLES
  0
TABLE
  2
VPORT
 70
     1
  0
VPORT
  2
*ACTIVE
 70
     0
 10
0.0
 20
0.0
 11
1.0
 21
1.0
 12
4.2847939651821596
 22
-0.6395687065365827
 13
0.0
 23
0.0
 14
1.0
 24
1.0
 15
0.0
 25
0.0
 16
-0.0000000000000568
 26
0.0
 36
192.7327373278309
 17
213.3881405755555
 27
88.763062967730434
 37
0.0
 40
46.98140750299364
 41
2.0930851063829778
 42
50.0
 43
0.0
 44
0.0
 50
0.0
 51
0.0
 71
     0
 72
   100
 73
     1
 74
     1
 75
     0
 76
     0
 77
     0
 78
     0
  0
ENDTAB
  0
TABLE
  2
LTYPE
 70
     2
  0
LTYPE
  2
CONTINUOUS
 70
     0
  3
Solid line
 72
    65
 73
     0
 40
0.0
  0
LTYPE
  2
PHANTOM2
 70
     0
  3
___ _ _ ___ _ _ ___ _ _ ___ _ _
 72
    65
 73
     6
 40
1.25
 49
0.625
 49
-0.125
 49
0.125
 49
-0.125
 49
0.125
 49
-0.125
  0
ENDTAB
  0
TABLE
  2
LAYER
 70
     2
  0
LAYER
  2
0
 70
     0
 62
   255
  6
CONTINUOUS
  0
LAYER
  2
DEFPOINTS
 70
     0
 62
     7
  6
CONTINUOUS
  0
ENDTAB
  0
TABLE
  2
STYLE
 70
     2
  0
STYLE
  2
STANDARD
 70
     0
 40
0.0
 41
0.8
 50
0.0
 71
     0
 42
0.2
  3
txt
  4

  0
STYLE
  2
ANNOTATIVE
 70
     0
 40
0.0
 41
1.0
 50
0.0
 71
     0
 42
0.2
  3
txt
  4

  0
ENDTAB
  0
TABLE
  2
VIEW
 70
     0
  0
ENDTAB
  0
TABLE
  2
UCS
 70
     0
  0
ENDTAB
  0
TABLE
  2
APPID
 70
    10
  0
APPID
  2
ACAD
 70
     0
  0
APPID
  2
ACADANNOTATIVE
 70
     0
  0
APPID
  2
ACAD_MLEADERVER
 70
     0
  0
APPID
  2
ACAD_EXEMPT_FROM_CAD_STANDARDS
 70
     0
  0
APPID
  2
ACAD_NAV_VCDISPLAY
 70
     0
  0
APPID
  2
ACAD_DSTYLE_DIMJAG
 70
     0
  0
APPID
  2
ACAD_DSTYLE_DIMTALN
 70
     0
  0
APPID
  2
ACAECLAYERSTANDARD
 70
     0
  0
APPID
  2
ACCMTRANSPARENCY
 70
     0
  0
APPID
  2
ACDBATTR
 70
     0
  0
ENDTAB
  0
TABLE
  2
DIMSTYLE
 70
     2
  0
DIMSTYLE
  2
STANDARD
 70
     0
  3

  4

  5

  6

  7

 40
1.0
 41
0.1875
 42
0.0625
 43
0.38
 44
0.125
 45
0.0
 46
0.0
 47
0.01
 48
0.01
140
0.15625
141
0.09
142
0.0
143
25.399999999999999
144
1.0
145
0.0
146
1.0
147
0.09
 71
     1
 72
     0
 73
     1
 74
     1
 75
     0
 76
     0
 77
     0
 78
     4
170
     0
171
     2
172
     0
173
     0
174
     0
175
     0
176
     0
177
     0
178
     0
  0
DIMSTYLE
  2
ANNOTATIVE
 70
     0
  3

  4

  5

  6

  7

 40
1.0
 41
0.18
 42
0.0625
 43
0.38
 44
0.18
 45
0.0
 46
0.0
 47
0.0
 48
0.0
140
0.18
141
0.09
142
0.0
143
25.399999999999999
144
1.0
145
0.0
146
1.0
147
0.09
 71
     0
 72
     0
 73
     1
 74
     1
 75
     0
 76
     0
 77
     0
 78
     0
170
     0
171
     2
172
     0
173
     0
174
     0
175
     0
176
     0
177
     0
178
     0
  0
ENDTAB
  0
ENDSEC
  0
SECTION
  2
BLOCKS
  0
BLOCK
  8
0
  2
$MODEL_SPACE
 70
     0
 10
0.0
 20
0.0
 30
0.0
  3
$MODEL_SPACE
  1

  0
ENDBLK
  5
5AF3
  8
0
  0
BLOCK
 67
     1
  8
0
  2
$PAPER_SPACE
 70
     0
 10
0.0
 20
0.0
 30
0.0
  3
$PAPER_SPACE
  1

  0
ENDBLK
  5
5AEF
 67
     1
  8
0
  0
ENDSEC
  0
SECTION
  2
ENTITIES
  0
ARC
  5
5309
  8
0
 10
183.5580657328517
 20
105.213611218602
 30
0.0
 40
0.1710999214345923
 50
96.717810587373066
 51
173.28194138244089
  0
LINE
  5
530A
  8
0
 10
183.53805055610741
 20
105.3835364251336
 30
0.0
 11
213.3881405755555
 21
105.3835364251336
 31
0.0
  0
LINE
  5
530B
  8
0
 10
183.38814061296631
 20
105.23362713094269
 30
0.0
 11
183.38814061296631
 21
72.134919398273013
 31
0.0
  0
LINE
  5
530C
  8
0
 10
183.38814061296631
 20
72.134919398273013
 30
0.0
 11
183.4433699200554
 21
72.139751336599986
 31
0.0
  0
ARC
  5
530D
  8
0
 10
183.4382264296236
 20
72.199444347732026
 30
0.0
 40
0.0599141975814632
 50
274.92476728933849
 51
0.0752326569211753
  0
ARC
  5
530E
  8
0
 10
183.70191211579669
 20
105.2135370662419
 30
0.0
 40
0.1700000186745293
 50
90.020344091914296
 51
179.02045844927409
  0
LINE
  5
530F
  8
0
 10
183.53193694039771
 20
105.2164432832718
 30
0.0
 11
183.40394057552811
 21
97.883537074129435
 31
0.0
  0
LINE
  5
5310
  8
0
 10
183.38814061296631
 20
97.884919391726996
 30
0.0
 11
186.08986344725551
 21
97.648549271800007
 31
0.0
  0
ARC
  5
5311
  8
0
 10
184.06975401014381
 20
97.885515136905695
 30
0.0
 40
0.0600000000118967
 50
265.00000005733449
 51
356.99954384557611
  0
LINE
  5
5312
  8
0
 10
184.12967175723901
 20
97.882374502501435
 30
0.0
 11
184.15296024534891
 21
98.326677707873586
 31
0.0
  0
ARC
  5
5313
  8
0
 10
184.21287799561409
 20
98.323537074296894
 30
0.0
 40
0.0599999999701024
 50
89.997292514573004
 51
176.9995439402104
  0
LINE
  5
5314
  8
0
 10
184.21288083088621
 20
98.383537074200007
 30
0.0
 11
184.39900315545549
 21
98.383537074200035
 31
0.0
  0
ARC
  5
5315
  8
0
 10
184.3990031476051
 20
98.323537054523513
 30
0.0
 40
0.0600000196764991
 50
2.9990179154807981
 51
89.999992503565537
  0
LINE
  5
5316
  8
0
 10
184.45892099315549
 20
98.326676185900013
 30
0.0
 11
184.4843855749555
 21
97.840856817399995
 31
0.0
  0
ARC
  5
5317
  8
0
 10
184.5443033220308
 20
97.843997451789321
 30
0.0
 40
0.0599999999748792
 50
183.00045613233311
 51
265.00014646388269
  0
LINE
  5
5318
  8
0
 10
184.18090103985551
 20
97.815561841500013
 30
0.0
 11
184.20468588275551
 21
98.269403679800007
 31
0.0
  0
LINE
  5
5319
  8
0
 10
184.20468588275551
 20
98.269403679800007
 30
0.0
 11
184.39910645925551
 21
98.266010056000042
 31
0.0
  0
LINE
  5
531A
  8
0
 10
184.39910645925551
 20
98.266010056000042
 30
0.0
 11
184.4321419090555
 21
97.793581113700014
 31
0.0
  0
ARC
  5
531B
  8
0
 10
183.4303555393594
 20
97.691411810426274
 30
0.0
 40
0.189123960391564
 50
63.565049597120691
 51
86.054128487640014
  0
ARC
  5
531C
  8
0
 10
183.48941457704061
 20
97.799153932852633
 30
0.0
 40
0.0665374044948468
 50
9.7015807281049025
 51
67.804741606756551
  0
LINE
  5
531D
  8
0
 10
183.55500041815549
 20
97.810366588300013
 30
0.0
 11
183.5550004119244
 21
73.390737124936777
 31
0.0
  0
LINE
  5
531E
  8
0
 10
183.49814057555551
 20
72.199523018500003
 30
0.0
 11
183.49814057555551
 21
73.330819353199999
 31
0.0
  0
ARC
  5
531F
  8
0
 10
183.55814057551771
 20
73.330819353215233
 30
0.0
 40
0.0599999999622374
 50
91.999999966155357
 51
180.00000001456101
  0
LINE
  5
5320
  8
0
 10
183.5560466057523
 20
73.39078280279989
 30
0.0
 11
184.30686543676219
 21
73.417001974192345
 31
0.0
  0
ARC
  5
5321
  8
0
 10
184.29814057555549
 20
73.666849681400009
 30
0.0
 40
0.2500000000000215
 50
271.9999970259413
 51
359.99999999999352
  0
LINE
  5
5322
  8
0
 10
184.54814057555541
 20
73.666849681400009
 30
0.0
 11
184.54814057554111
 21
76.634919394679017
 31
0.0
  0
LINE
  5
5323
  8
0
 10
183.49814057555551
 20
73.283537111599998
 30
0.0
 11
213.3881405755555
 21
73.283537111599998
 31
0.0
  0
LINE
  5
5324
  8
0
 10
184.3002795968554
 20
73.416771991552267
 30
0.0
 11
184.30027952238149
 21
73.383537111599992
 31
0.0
  0
LINE
  5
5325
  8
0
 10
213.3881405755555
 20
73.383537111599992
 30
0.0
 11
183.52949030593581
 21
73.383537111599992
 31
0.0
  0
ARC
  5
5326
  8
0
 10
186.8227227550785
 20
76.240831946605454
 30
0.0
 40
2.3084689749265861
 50
137.54993310498239
 51
170.17067810332099
  0
ARC
  5
5327
  8
0
 10
183.9694862994314
 20
78.751521450456053
 30
0.0
 40
1.493216980249864
 50
320.36104586748422
 51
355.51969027074909
  0
ARC
  5
5328
  8
0
 10
457.72325654786692
 20
82.323119810649374
 30
0.0
 40
272.29009645716951
 50
176.82178470326261
 51
180.7761106120991
  0
ARC
  5
5329
  8
0
 10
185.59701965931711
 20
97.435409543566763
 30
0.0
 40
0.2554479485641767
 50
356.40551975593729
 51
82.680332962018298
  0
ARC
  5
532A
  8
0
 10
186.01938126809401
 20
76.368761855805403
 30
0.0
 40
1.4951217378269781
 50
126.5859156108579
 51
169.7457054596496
  0
ARC
  5
532B
  8
0
 10
184.11354610113401
 20
79.127888882087504
 30
0.0
 40
1.8597975837221961
 50
303.0655250846952
 51
344.62822311133323
  0
ARC
  5
532C
  8
0
 10
449.6436792352136
 20
82.242791709654611
 30
0.0
 40
263.76154451430563
 50
176.71121839195831
 51
180.78375299246761
  0
ARC
  5
532D
  8
0
 10
186.0613701199924
 20
97.394211328194643
 30
0.0
 40
0.2559290121418769
 50
355.56251509775899
 51
83.607841053654084
  0
CIRCLE
  5
532E
  8
0
 10
191.8881405755555
 20
89.883537111600006
 30
0.0
 40
1.0
  0
CIRCLE
  5
532F
  8
0
 10
191.8881405755555
 20
89.883537111600006
 30
0.0
 40
1.387500000000002
  0
ARC
  5
5330
  8
0
 10
183.444935369017
 20
97.940179684717492
 30
0.0
 40
0.0600000000387359
 50
265.0000000393581
 51
358.99999998394088
  0
LINE
  5
5331
  8
0
 10
183.5049262307555
 20
97.939132540300022
 30
0.0
 11
183.6320942628555
 21
105.2245842186
 31
0.0
  0
ARC
  5
5332
  8
0
 10
183.69208512454901
 20
105.2235370742159
 30
0.0
 40
0.0599999999840435
 50
89.99999999377772
 51
179.0000000018405
  0
LINE
  5
5333
  8
0
 10
183.6920851245554
 20
105.2835370742
 30
0.0
 11
213.3881405755555
 21
105.2835370742
 31
0.0
  0
LINE
  5
5334
  8
0
 10
183.51321680605551
 20
104.1439681272
 30
0.0
 11
183.51321680605551
 21
105.25846088110001
 31
0.0
  0
LINE
  5
5335
  8
0
 10
183.51321680605551
 20
105.25846088110001
 30
0.0
 11
183.5379552383761
 21
105.25846088110001
 31
0.0
  0
ARC
  5
5336
  8
0
 10
185.845026248051
 20
97.730223748096336
 30
0.0
 40
0.0600247670869143
 50
265.0244681545044
 51
357.97499903211531
  0
LINE
  5
5337
  8
0
 10
185.9050135298815
 20
97.728102738331486
 30
0.0
 11
186.02881678115551
 21
101.2723001386
 31
0.0
  0
ARC
  5
5338
  8
0
 10
187.4414498850883
 20
101.44319828476461
 30
0.0
 40
1.422933049264604
 50
83.345908197611735
 51
186.89803154922771
  0
LINE
  5
5339
  8
0
 10
187.60633214195551
 20
102.85654619100001
 30
0.0
 11
195.30607987885551
 21
102.8565478804
 31
0.0
  0
ARC
  5
533A
  8
0
 10
195.44880919278569
 20
98.425037315775356
 30
0.0
 40
4.4338084691870669
 50
66.908544900893133
 51
91.844734704886037
  0
ARC
  5
533B
  8
0
 10
198.08861563517661
 20
104.06151070545199
 30
0.0
 40
1.799616358073109
 50
239.96106471963631
 51
273.833723314547
  0
ARC
  5
533C
  8
0
 10
212.99526859042811
 20
-85.765450245034671
 30
0.0
 40
188.61185599496989
 50
89.880654782832025
 51
94.49634733038161
  0
ARC
  5
533D
  8
0
 10
185.3714158265075
 20
97.77163446621374
 30
0.0
 40
0.059999982078171
 50
264.999992608463
 51
358.00001745048689
  0
LINE
  5
533E
  8
0
 10
185.43137925885549
 20
97.769540515300008
 30
0.0
 11
185.55156122696681
 21
101.2080156155408
 31
0.0
  0
ARC
  5
533F
  8
0
 10
187.8439719461395
 20
101.0478590853801
 30
0.0
 40
2.297998481185441
 50
95.935694745930476
 51
176.0035926133078
  0
LINE
  5
5340
  8
0
 10
187.60633085026481
 20
103.3335370436853
 30
0.0
 11
195.30607990962841
 21
103.33353654693521
 31
0.0
  0
ARC
  5
5341
  8
0
 10
195.3024211782319
 20
97.749088000370605
 30
0.0
 40
5.5844497450995672
 50
65.851670729382363
 51
89.962461855338034
  0
ARC
  5
5342
  8
0
 10
198.07744974962151
 20
103.9134048798222
 30
0.0
 40
1.17573486757427
 50
245.34678393103471
 51
274.60656494612982
  0
ARC
  5
5343
  8
0
 10
213.3881174647326
 20
-92.492188993480326
 30
0.0
 40
195.82572560688169
 50
89.999993238101254
 51
94.456544599317553
  0
ARC
  5
5344
  8
0
 10
193.8953249978552
 20
63.112247929201153
 30
0.0
 40
36.631957569898837
 50
92.752631787599427
 51
102.534895826046
  0
ARC
  5
5345
  8
0
 10
192.56739898624599
 20
101.90084013373981
 30
0.0
 40
2.2407979856366871
 50
258.90300665089791
 51
356.45268942443738
  0
LINE
  5
5346
  8
0
 10
194.80390371235549
 20
101.7621959036999
 30
0.0
 11
195.15463025545719
 21
102.8565478471705
 31
0.0
  0
ARC
  5
5347
  8
0
 10
184.32440947062599
 20
73.633552286815615
 30
0.0
 40
0.2500151804557232
 50
270.01173070864388
 51
359.9965298817275
  0
LINE
  5
5348
  8
0
 10
184.57442465062309
 20
73.633537144648869
 30
0.0
 11
184.5745316552763
 21
76.753470945085283
 31
0.0
  0
ARC
  5
5349
  8
0
 10
243.2224961307567
 20
105.2178919496304
 30
0.0
 40
0.1663901007568321
 50
5.426456878687361
 51
84.573791151527345
  0
LINE
  5
534A
  8
0
 10
243.2382305950035
 20
105.3835364251336
 30
0.0
 11
213.3881405755555
 21
105.3835364251336
 31
0.0
  0
LINE
  5
534B
  8
0
 10
243.38814053814471
 20
105.23362713094269
 30
0.0
 11
243.38814053814471
 21
72.134919398273013
 31
0.0
  0
LINE
  5
534C
  8
0
 10
243.38814053814471
 20
72.134919398273013
 30
0.0
 11
243.3329112310555
 21
72.139751336599986
 31
0.0
  0
ARC
  5
534D
  8
0
 10
243.33805472148731
 20
72.199444347732026
 30
0.0
 40
0.0599141975814632
 50
179.9247673430788
 51
265.07523271066162
  0
ARC
  5
534E
  8
0
 10
243.07436903531431
 20
105.2135370662419
 30
0.0
 40
0.1700000186745293
 50
0.9795415507258692
 51
89.979655908085647
  0
LINE
  5
534F
  8
0
 10
243.24434421071331
 20
105.2164432832718
 30
0.0
 11
243.37234057558291
 21
97.883537074129435
 31
0.0
  0
LINE
  5
5350
  8
0
 10
243.38814053814471
 20
97.884919391726996
 30
0.0
 11
240.68641770385551
 21
97.648549271800007
 31
0.0
  0
ARC
  5
5351
  8
0
 10
242.7065271409671
 20
97.885515136905695
 30
0.0
 40
0.0600000000118967
 50
183.0004561544238
 51
274.99999994266551
  0
LINE
  5
5352
  8
0
 10
242.6466093938719
 20
97.882374502501435
 30
0.0
 11
242.62332090576211
 21
98.326677707873586
 31
0.0
  0
ARC
  5
5353
  8
0
 10
242.56340315549679
 20
98.323537074296894
 30
0.0
 40
0.0599999999701024
 50
3.0004560597896139
 51
90.002707485426967
  0
LINE
  5
5354
  8
0
 10
242.5634003202247
 20
98.383537074200007
 30
0.0
 11
242.3772779956555
 21
98.383537074200035
 31
0.0
  0
ARC
  5
5355
  8
0
 10
242.37727800350569
 20
98.323537054523513
 30
0.0
 40
0.0600000196764991
 50
90.000007496434449
 51
177.00098208451919
  0
LINE
  5
5356
  8
0
 10
242.31736015795551
 20
98.326676185900013
 30
0.0
 11
242.2918955761555
 21
97.840856817399995
 31
0.0
  0
ARC
  5
5357
  8
0
 10
242.23197782908011
 20
97.843997451789321
 30
0.0
 40
0.0599999999748792
 50
274.9998535361172
 51
356.99954386766677
  0
LINE
  5
5358
  8
0
 10
242.59538011125551
 20
97.815561841500013
 30
0.0
 11
242.57159526835551
 21
98.269403679800007
 31
0.0
  0
LINE
  5
5359
  8
0
 10
242.57159526835551
 20
98.269403679800007
 30
0.0
 11
242.3771746918554
 21
98.266010056000042
 31
0.0
  0
LINE
  5
535A
  8
0
 10
242.3771746918554
 20
98.266010056000042
 30
0.0
 11
242.34413924205549
 21
97.793581113700014
 31
0.0
  0
ARC
  5
535B
  8
0
 10
243.3459256117516
 20
97.691411810426274
 30
0.0
 40
0.189123960391564
 50
93.945871512359986
 51
116.43495040287929
  0
ARC
  5
535C
  8
0
 10
243.2868665740703
 20
97.799153932852633
 30
0.0
 40
0.0665374044948468
 50
112.19525839324341
 51
170.29841927189511
  0
LINE
  5
535D
  8
0
 10
243.22128073295551
 20
97.810366588300013
 30
0.0
 11
243.2212807391866
 21
73.390737124936777
 31
0.0
  0
LINE
  5
535E
  8
0
 10
243.27814057555551
 20
72.199523018500003
 30
0.0
 11
243.27814057555551
 21
73.330819353199999
 31
0.0
  0
ARC
  5
535F
  8
0
 10
243.21814057559331
 20
73.330819353215233
 30
0.0
 40
0.0599999999622374
 50
359.99999998543888
 51
88.000000033844643
  0
LINE
  5
5360
  8
0
 10
243.22023454535869
 20
73.39078280279989
 30
0.0
 11
242.4694157143488
 21
73.417001974192345
 31
0.0
  0
ARC
  5
5361
  8
0
 10
242.4781405755555
 20
73.666849681400009
 30
0.0
 40
0.2500000000000215
 50
180.00000000000659
 51
268.0000029740587
  0
LINE
  5
5362
  8
0
 10
242.2281405755555
 20
73.666849681400009
 30
0.0
 11
242.22814057556991
 21
76.634919394679017
 31
0.0
  0
LINE
  5
5363
  8
0
 10
243.27814057555551
 20
73.283537111599998
 30
0.0
 11
213.3881405755555
 21
73.283537111599998
 31
0.0
  0
LINE
  5
5364
  8
0
 10
242.4760015542555
 20
73.416771991552267
 30
0.0
 11
242.47600162872939
 21
73.383537111599992
 31
0.0
  0
LINE
  5
5365
  8
0
 10
213.3881405755555
 20
73.383537111599992
 30
0.0
 11
243.2467908451751
 21
73.383537111599992
 31
0.0
  0
ARC
  5
5366
  8
0
 10
239.95355839603229
 20
76.240831946605454
 30
0.0
 40
2.3084689749265861
 50
9.8293218966789357
 51
42.450066895017592
  0
ARC
  5
5367
  8
0
 10
242.80679485167951
 20
78.751521450456053
 30
0.0
 40
1.493216980249864
 50
184.48030972925091
 51
219.63895413251581
  0
ARC
  5
5368
  8
0
 10
-30.94697539675602
 20
82.323119810649374
 30
0.0
 40
272.29009645716951
 50
359.2238893879009
 51
3.178215296737418
  0
ARC
  5
5369
  8
0
 10
241.1792614917938
 20
97.435409543566763
 30
0.0
 40
0.2554479485641767
 50
97.319667037981716
 51
183.59448024406271
  0
ARC
  5
536A
  8
0
 10
240.75689988301701
 20
76.368761855805403
 30
0.0
 40
1.4951217378269781
 50
10.25429454035039
 51
53.41408438914204
  0
ARC
  5
536B
  8
0
 10
242.6627350499769
 20
79.127888882087504
 30
0.0
 40
1.8597975837221961
 50
195.3717768886668
 51
236.93447491530469
  0
ARC
  5
536C
  8
0
 10
-22.867398084102661
 20
82.242791709654611
 30
0.0
 40
263.76154451430563
 50
359.21624700753227
 51
3.2887816080416798
  0
ARC
  5
536D
  8
0
 10
240.7149110311185
 20
97.394211328194643
 30
0.0
 40
0.2559290121418769
 50
96.392158946345901
 51
184.43748490224101
  0
ARC
  5
536E
  8
0
 10
243.33134578209399
 20
97.940179684717492
 30
0.0
 40
0.0600000000387359
 50
181.00000001605909
 51
274.99999996064201
  0
LINE
  5
536F
  8
0
 10
243.27135492035549
 20
97.939132540300022
 30
0.0
 11
243.14418688825549
 21
105.2245842186
 31
0.0
  0
ARC
  5
5370
  8
0
 10
243.08419602656201
 20
105.2235370742159
 30
0.0
 40
0.0599999999840435
 50
0.9999999981594291
 51
90.000000006222265
  0
LINE
  5
5371
  8
0
 10
243.0841960265555
 20
105.2835370742
 30
0.0
 11
213.3881405755555
 21
105.2835370742
 31
0.0
  0
LINE
  5
5372
  8
0
 10
243.2630643450556
 20
104.1439681272
 30
0.0
 11
243.2630643450556
 21
105.25846088110001
 31
0.0
  0
LINE
  5
5373
  8
0
 10
243.2630643450556
 20
105.25846088110001
 30
0.0
 11
243.23832591273489
 21
105.25846088110001
 31
0.0
  0
ARC
  5
5374
  8
0
 10
240.93125490305991
 20
97.730223748096336
 30
0.0
 40
0.0600247670869143
 50
182.02500096788461
 51
274.9755318454956
  0
LINE
  5
5375
  8
0
 10
240.87126762122941
 20
97.728102738331486
 30
0.0
 11
240.74746436995551
 21
101.2723001386
 31
0.0
  0
ARC
  5
5376
  8
0
 10
239.3348312660226
 20
101.44319828476461
 30
0.0
 40
1.422933049264604
 50
353.10196845077218
 51
96.65409180238828
  0
LINE
  5
5377
  8
0
 10
239.1699490091554
 20
102.85654619100001
 30
0.0
 11
231.47020127225551
 21
102.8565478804
 31
0.0
  0
ARC
  5
5378
  8
0
 10
231.32747195832519
 20
98.425037315775356
 30
0.0
 40
4.4338084691870669
 50
88.155265295113935
 51
113.0914550991068
  0
ARC
  5
5379
  8
0
 10
228.68766551593441
 20
104.06151070545199
 30
0.0
 40
1.799616358073109
 50
266.166276685453
 51
300.03893528036372
  0
ARC
  5
537A
  8
0
 10
213.78101256068291
 20
-85.765450245034671
 30
0.0
 40
188.61185599496989
 50
85.503652669618376
 51
90.119345217167947
  0
ARC
  5
537B
  8
0
 10
241.40486532460349
 20
97.77163446621374
 30
0.0
 40
0.059999982078171
 50
181.99998254951311
 51
275.000007391537
  0
LINE
  5
537C
  8
0
 10
241.34490189225551
 20
97.769540515300008
 30
0.0
 11
241.2247199241441
 21
101.2080156155408
 31
0.0
  0
ARC
  5
537D
  8
0
 10
238.93230920497149
 20
101.0478590853801
 30
0.0
 40
2.297998481185441
 50
3.9964073866922281
 51
84.064305254069524
  0
LINE
  5
537E
  8
0
 10
239.16995030084621
 20
103.3335370436853
 30
0.0
 11
231.4702012414825
 21
103.33353654693521
 31
0.0
  0
ARC
  5
537F
  8
0
 10
231.47385997287901
 20
97.749088000370605
 30
0.0
 40
5.5844497450995672
 50
90.037538144661994
 51
114.14832927061759
  0
ARC
  5
5380
  8
0
 10
228.6988314014894
 20
103.9134048798222
 30
0.0
 40
1.17573486757427
 50
265.39343505387018
 51
294.65321606896521
  0
ARC
  5
5381
  8
0
 10
213.38816368637839
 20
-92.492188993480326
 30
0.0
 40
195.82572560688169
 50
85.543455400682447
 51
90.000006761898717
  0
ARC
  5
5382
  8
0
 10
232.88095615325571
 20
63.112247929201153
 30
0.0
 40
36.631957569898837
 50
77.465104173954003
 51
87.247368212400573
  0
ARC
  5
5383
  8
0
 10
234.208882164865
 20
101.90084013373981
 30
0.0
 40
2.2407979856366871
 50
183.54731057556251
 51
281.09699334910209
  0
LINE
  5
5384
  8
0
 10
231.9723774387555
 20
101.7621959036999
 30
0.0
 11
231.6216508956538
 21
102.8565478471705
 31
0.0
  0
ARC
  5
5385
  8
0
 10
242.451871680485
 20
73.633552286815615
 30
0.0
 40
0.2500151804557232
 50
180.0034701182725
 51
269.98826929135612
  0
LINE
  5
5386
  8
0
 10
242.20185650048771
 20
73.633537144648869
 30
0.0
 11
242.20174949583469
 21
76.753470945085283
 31
0.0
  0
ARC
  5
5387
  8
0
 10
198.6191212858304
 20
89.864489411013381
 30
0.0
 40
12.401560097095359
 50
174.91723040328051
 51
184.43795176309709
  0
ARC
  5
5388
  8
0
 10
174.20484600732911
 20
89.861008320075626
 30
0.0
 40
12.209132016387001
 50
355.44652954998691
 51
5.2814071552677042
  0
ARC
  5
5389
  8
0
 10
186.62674544655039
 20
90.950960052660619
 30
0.0
 40
0.3606261293960008
 50
149.58377740470459
 51
178.0545466771475
  0
ARC
  5
538A
  8
0
 10
186.06154631551109
 20
90.972640004489705
 30
0.0
 40
0.3008462924769772
 50
2.3218144739559232
 51
32.331365408608761
  0
ARC
  5
538B
  8
0
 10
186.95554606803171
 20
88.919916334440984
 30
0.0
 40
0.7009631237715862
 50
181.2304841654572
 51
204.11384671100541
  0
ARC
  5
538C
  8
0
 10
185.69565518235009
 20
88.912889169438827
 30
0.0
 40
0.6801160466821425
 50
335.74856086147452
 51
358.21737985893202
  0
ARC
  5
538D
  8
0
 10
191.65171026670279
 20
98.074455200459042
 30
0.0
 40
0.9798140614056162
 50
88.219005895250021
 51
166.8629192440475
  0
ARC
  5
538E
  8
0
 10
-894.74224504336564
 20
-39564.65374780017
 30
0.0
 40
39678.583821850931
 50
88.377737080733922
 51
88.431009684991395
  0
ARC
  5
538F
  8
0
 10
228.5390561700965
 20
97.122517320575426
 30
0.0
 40
0.9042456200217182
 50
10.32276020935347
 51
88.653661193838943
  0
ARC
  5
5390
  8
0
 10
193.9663983110174
 20
89.883537057047391
 30
0.0
 40
36.22633602528964
 50
348.21151661591517
 51
11.78848332447455
  0
ARC
  5
5391
  8
0
 10
228.5390462214782
 20
82.64456919638117
 30
0.0
 40
0.9042576292138127
 50
271.34688053487542
 51
349.67657720784882
  0
ARC
  5
5392
  8
0
 10
-371.33112446648369
 20
20954.612361182932
 30
0.0
 40
20881.490533305041
 50
271.54501398279712
 51
271.6462415090524
  0
ARC
  5
5393
  8
0
 10
191.65171005986599
 20
81.692618539723014
 30
0.0
 40
0.9798137919650615
 50
193.1370555943034
 51
271.78100465340179
  0
ARC
  5
5394
  8
0
 10
225.59544305927449
 20
89.88353702261395
 30
0.0
 40
35.897807505601747
 50
166.44511211784001
 51
193.55488759448031
  0
ARC
  5
5395
  8
0
 10
199.96453775330849
 20
118292.1186005955
 30
0.0
 40
118215.19025289069
 50
269.99522161784802
 51
270.01738905820679
  0
ARC
  5
5396
  8
0
 10
190.0996167647979
 20
79.409369229351341
 30
0.0
 40
2.4806175517606839
 50
197.6822869769789
 51
270.1374592081832
  0
ARC
  5
5397
  8
0
 10
224.90021380633871
 20
89.94073258456396
 30
0.0
 40
38.839561244875632
 50
166.32970509116939
 51
196.8908680305465
  0
ARC
  5
5398
  8
0
 10
236.1252147682824
 20
79.34909722120166
 30
0.0
 40
2.431805090263345
 50
263.32177913197103
 51
337.70583989511817
  0
ARC
  5
5399
  8
0
 10
200.98232974559571
 20
89.914052511569736
 30
0.0
 40
39.117669131925759
 50
342.92249923103537
 51
13.78097963556006
  0
ARC
  5
539A
  8
0
 10
197.98412871226071
 20
89.885191909763208
 30
0.0
 40
39.026365880074891
 50
343.93961491982242
 51
14.459280340629411
  0
ARC
  5
539B
  8
0
 10
233.37380843055519
 20
79.875968692200061
 30
0.0
 40
2.2554349515323762
 50
263.17932016232231
 51
339.56609551384082
  0
ARC
  5
539C
  8
0
 10
312.69681379289392
 20
116293.01461692021
 30
0.0
 40
116215.4053749681
 50
269.93981491493611
 51
269.9607606146663
  0
ARC
  5
539D
  8
0
 10
190.6270214921397
 20
80.167682263889944
 30
0.0
 40
2.4943317821917521
 50
196.57678411666049
 51
269.86013595428608
  0
ARC
  5
539E
  8
0
 10
223.52867694067149
 20
89.88354725668141
 30
0.0
 40
36.800549654679131
 50
165.2432985178728
 51
196.4603463432795
  0
ARC
  5
539F
  8
0
 10
300.44657878058621
 20
-3366.3071161788148
 30
0.0
 40
3446.0986052394451
 50
91.136832553845011
 51
91.824758019463289
  0
ARC
  5
53A0
  8
0
 10
231.96266687890559
 20
84.548686226242182
 30
0.0
 40
5.4366807176328313
 50
271.18814187636337
 51
307.31230859947613
  0
ARC
  5
53A1
  8
0
 10
202.0054701381834
 20
89.877334216224767
 30
0.0
 40
34.625360855282111
 50
343.81290988977668
 51
15.085259232357471
  0
ARC
  5
53A2
  8
0
 10
233.08462322759129
 20
96.576173799744893
 30
0.0
 40
3.2992198906579211
 50
44.504097692351692
 51
69.207995716287883
  0
ARC
  5
53A3
  8
0
 10
231.9144613394549
 20
94.455576481946864
 30
0.0
 40
5.68556741533608
 50
79.581912424465344
 51
88.54127101016077
  0
ARC
  5
53A4
  8
0
 10
-1014.782789975852
 20
-37554.099525445898
 30
0.0
 40
37674.876463856162
 50
88.103462107727609
 51
88.160245520190983
  0
ARC
  5
53A5
  8
0
 10
190.6367575008824
 20
80.248454444698226
 30
0.0
 40
2.20584299075872
 50
196.18031690963741
 51
271.99792801137107
  0
ARC
  5
53A6
  8
0
 10
223.55360987626429
 20
89.883672985902933
 30
0.0
 40
36.503892658698163
 50
165.03087682026791
 51
196.30731646895271
  0
ATTDEF
  5
5761
  8
DEFPOINTS
 10
213.3869623544924
 20
105.39020653718789
 30
0.0
 40
0.001
  1
71320110
  3

  2
MODELNUMBER
 70
     0
1001
ACDBATTR
1070
     0
1070
     1
  0
ATTDEF
  5
5762
  8
DEFPOINTS
 10
213.3869623544924
 20
105.3885398705212
 30
0.0
 40
0.001
  1
ENSEMBLE
  3

  2
TRADENAME
 70
     0
1001
ACDBATTR
1070
     0
1070
     1
  0
ATTDEF
  5
5763
  8
DEFPOINTS
 10
213.3869623544924
 20
105.38687320385461
 30
0.0
 40
0.001
  1
BATH AND WALL SURROUND
  3

  2
PRODUCT
 70
     0
1001
ACDBATTR
1070
     0
1070
     1
  0
ATTDEF
  5
5764
  8
DEFPOINTS
 10
213.3869623544924
 20
105.3852065371879
 30
0.0
 40
0.001
  1
VIKRELL
  3

  2
MATERIAL
 70
     0
1001
ACDBATTR
1070
     0
1070
     1
  0
ENDSEC
  0
EOF
