  0
SECTION
  2
HEADER
  9
$ACADVER
  1
AC1009
  9
$INSBASE
 10
6.8905851080999989
 20
-32.897699196700003
 30
0.0
  9
$EXTMIN
 10
-23.113152592157149
 20
-32.914093301942273
 30
-0.0015258207003583
  9
$EXTMAX
 10
36.890860190784622
 20
40.418656774586232
 30
0.0000000349246037
  9
$LIMMIN
 10
0.0
 20
0.0
  9
$LIMMAX
 10
11.692913385800001
 20
8.2677165353999982
  9
$ORTHOMODE
 70
     0
  9
$REGENMODE
 70
     1
  9
$FILLMODE
 70
     1
  9
$QTEXTMODE
 70
     0
  9
$MIRRTEXT
 70
     0
  9
$DRAGMODE
 70
     2
  9
$LTSCALE
 40
0.6431102362
  9
$OSMODE
 70
  3071
  9
$ATTMODE
 70
     1
  9
$TEXTSIZE
 40
0.2
  9
$TRACEWID
 40
0.05
  9
$TEXTSTYLE
  7
STANDARD
  9
$CLAYER
  8
0
  9
$CELTYPE
  6
BYLAYER
  9
$CECOLOR
 62
   256
  9
$DIMSCALE
 40
1.0
  9
$DIMASZ
 40
0.1875
  9
$DIMEXO
 40
0.0625
  9
$DIMDLI
 40
0.4443307087
  9
$DIMRND
 40
0.0
  9
$DIMDLE
 40
0.0
  9
$DIMEXE
 40
0.125
  9
$DIMTP
 40
0.0
  9
$DIMTM
 40
0.0
  9
$DIMTXT
 40
1.0
  9
$DIMCEN
 40
0.1052362205
  9
$DIMTSZ
 40
0.0
  9
$DIMTOL
 70
     0
  9
$DIMLIM
 70
     0
  9
$DIMTIH
 70
     1
  9
$DIMTOH
 70
     1
  9
$DIMSE1
 70
     0
  9
$DIMSE2
 70
     0
  9
$DIMTAD
 70
     0
  9
$DIMZIN
 70
     0
  9
$DIMBLK
  1

  9
$DIMASO
 70
     1
  9
$DIMSHO
 70
     1
  9
$DIMPOST
  1
\X
  9
$DIMAPOST
  1

  9
$DIMALT
 70
     1
  9
$DIMALTD
 70
     2
  9
$DIMALTF
 40
25.399999999999999
  9
$DIMLFAC
 40
1.0
  9
$DIMTOFL
 70
     0
  9
$DIMTVP
 40
0.0
  9
$DIMTIX
 70
     0
  9
$DIMSOXD
 70
     0
  9
$DIMSAH
 70
     0
  9
$DIMBLK1
  1

  9
$DIMBLK2
  1

  9
$DIMSTYLE
  2
STANDARD
  9
$DIMCLRD
 70
     0
  9
$DIMCLRE
 70
     0
  9
$DIMCLRT
 70
     0
  9
$DIMTFAC
 40
1.0
  9
$DIMGAP
 40
0.09
  9
$LUNITS
 70
     4
  9
$LUPREC
 70
     4
  9
$SKETCHINC
 40
0.1
  9
$FILLETRAD
 40
0.0
  9
$AUNITS
 70
     0
  9
$AUPREC
 70
     2
  9
$MENU
  1
.
  9
$ELEVATION
 40
0.0
  9
$PELEVATION
 40
0.0
  9
$THICKNESS
 40
0.0
  9
$LIMCHECK
 70
     0
  9
$BLIPMODE
 70
     0
  9
$CHAMFERA
 40
0.0
  9
$CHAMFERB
 40
0.0
  9
$SKPOLY
 70
     0
  9
$TDCREATE
 40
2458151.6818910418
  9
$TDUPDATE
 40
2458151.7733609611
  9
$TDINDWG
 40
0.0904421528
  9
$TDUSRTIMER
 40
0.0904421528
  9
$USRTIMER
 70
     1
  9
$ANGBASE
 50
0.0
  9
$ANGDIR
 70
     0
  9
$PDMODE
 70
     0
  9
$PDSIZE
 40
0.3125
  9
$PLINEWID
 40
0.0
  9
$COORDS
 70
     1
  9
$SPLFRAME
 70
     0
  9
$SPLINETYPE
 70
     6
  9
$SPLINESEGS
 70
     8
  9
$ATTDIA
 70
     1
  9
$ATTREQ
 70
     1
  9
$HANDLING
 70
     1
  9
$HANDSEED
  5
A591
  9
$SURFTAB1
 70
     6
  9
$SURFTAB2
 70
     6
  9
$SURFTYPE
 70
     6
  9
$SURFU
 70
     6
  9
$SURFV
 70
     6
  9
$UCSNAME
  2

  9
$UCSORG
 10
0.0
 20
0.0
 30
0.0
  9
$UCSXDIR
 10
1.0
 20
0.0
 30
0.0
  9
$UCSYDIR
 10
0.0
 20
1.0
 30
0.0
  9
$PUCSNAME
  2

  9
$PUCSORG
 10
0.0
 20
0.0
 30
0.0
  9
$PUCSXDIR
 10
1.0
 20
0.0
 30
0.0
  9
$PUCSYDIR
 10
0.0
 20
1.0
 30
0.0
  9
$USERI1
 70
     0
  9
$USERI2
 70
     0
  9
$USERI3
 70
     0
  9
$USERI4
 70
     0
  9
$USERI5
 70
     0
  9
$USERR1
 40
0.0
  9
$USERR2
 40
0.0
  9
$USERR3
 40
0.0
  9
$USERR4
 40
0.0
  9
$USERR5
 40
0.0
  9
$WORLDVIEW
 70
     1
  9
$SHADEDGE
 70
     3
  9
$SHADEDIF
 70
    70
  9
$TILEMODE
 70
     1
  9
$MAXACTVP
 70
    48
  9
$PLIMCHECK
 70
     0
  9
$PEXTMIN
 10
1.0000000000000000E+020
 20
1.0000000000000000E+020
 30
1.0000000000000000E+020
  9
$PEXTMAX
 10
-1.0000000000000000E+020
 20
-1.0000000000000000E+020
 30
-1.0000000000000000E+020
  9
$PLIMMIN
 10
0.0
 20
0.0
  9
$PLIMMAX
 10
12.0
 20
9.0
  9
$UNITMODE
 70
     0
  9
$VISRETAIN
 70
     1
  9
$PLINEGEN
 70
     0
  9
$PSLTSCALE
 70
     1
  0
ENDSEC
  0
SECTION
  2
TABLES
  0
TABLE
  2
VPORT
 70
     1
  0
VPORT
  2
*ACTIVE
 70
     0
 10
0.0
 20
0.0
 11
1.0
 21
1.0
 12
-21.20956057198627
 22
-20.227204384828031
 13
0.0
 23
0.0
 14
1.0
 24
1.0
 15
0.0
 25
0.0
 16
-0.0000000000000924
 26
0.0
 36
419.86435522522061
 17
28.098414371299999
 27
23.97948612115
 37
0.0
 40
73.799342335764095
 41
2.0329087048832268
 42
50.0
 43
0.0
 44
0.0
 50
0.0
 51
0.0
 71
     0
 72
   100
 73
     1
 74
     1
 75
     0
 76
     0
 77
     0
 78
     0
  0
ENDTAB
  0
TABLE
  2
LTYPE
 70
     2
  0
LTYPE
  2
CONTINUOUS
 70
     0
  3
Solid line
 72
    65
 73
     0
 40
0.0
  0
LTYPE
  2
PHANTOM2
 70
     0
  3
___ _ _ ___ _ _ ___ _ _ ___ _ _
 72
    65
 73
     6
 40
1.25
 49
0.625
 49
-0.125
 49
0.125
 49
-0.125
 49
0.125
 49
-0.125
  0
ENDTAB
  0
TABLE
  2
LAYER
 70
     2
  0
LAYER
  2
0
 70
     0
 62
     7
  6
CONTINUOUS
  0
LAYER
  2
DEFPOINTS
 70
     0
 62
     7
  6
CONTINUOUS
  0
ENDTAB
  0
TABLE
  2
STYLE
 70
     1
  0
STYLE
  2
STANDARD
 70
     0
 40
0.0
 41
0.8
 50
0.0
 71
     0
 42
0.2
  3
txt
  4

  0
ENDTAB
  0
TABLE
  2
VIEW
 70
     0
  0
ENDTAB
  0
TABLE
  2
UCS
 70
     0
  0
ENDTAB
  0
TABLE
  2
APPID
 70
     7
  0
APPID
  2
ACAD
 70
     0
  0
APPID
  2
ACAD_MLEADERVER
 70
     0
  0
APPID
  2
ACAD_EXEMPT_FROM_CAD_STANDARDS
 70
     0
  0
APPID
  2
ACAD_NAV_VCDISPLAY
 70
     0
  0
APPID
  2
ACAD_DSTYLE_DIMJAG
 70
     0
  0
APPID
  2
ACAD_DSTYLE_DIMTALN
 70
     0
  0
APPID
  2
AcDbAttr
 70
     0
  0
ENDTAB
  0
TABLE
  2
DIMSTYLE
 70
     2
  0
DIMSTYLE
  2
STANDARD
 70
     0
  3

  4

  5

  6

  7

 40
1.0
 41
0.1875
 42
0.0625
 43
0.38
 44
0.125
 45
0.0
 46
0.0
 47
1.5
 48
1.5
140
0.15625
141
0.09
142
0.0
143
25.399999999999999
144
1.0
145
0.0
146
1.0
147
0.09
 71
     0
 72
     0
 73
     1
 74
     1
 75
     0
 76
     0
 77
     0
 78
     4
170
     0
171
     2
172
     0
173
     0
174
     0
175
     0
176
     0
177
     0
178
     0
  0
ENDTAB
  0
ENDSEC
  0
SECTION
  2
BLOCKS
  0
BLOCK
  8
0
  2
$MODEL_SPACE
 70
     0
 10
0.0
 20
0.0
 30
0.0
  3
$MODEL_SPACE
  1

  0
ENDBLK
  5
21
  8
0
  0
BLOCK
 67
     1
  8
0
  2
$PAPER_SPACE
 70
     0
 10
0.0
 20
0.0
 30
0.0
  3
$PAPER_SPACE
  1

  0
ENDBLK
  5
1D
 67
     1
  8
0
  0
ENDSEC
  0
SECTION
  2
ENTITIES
  0
LINE
  5
8FC2
  8
0
 10
36.4479704317
 20
40.351405216499991
 30
0.0
 11
-22.6675560758
 21
40.351405216499991
 31
0.0
  0
ARC
  5
8FC3
  8
0
 10
-22.6672156009441
 20
39.37042319304733
 30
0.0
 40
0.9809820825379119
 50
90.019885962253838
 51
98.586730487362459
  0
LINE
  5
8FC4
  8
0
 10
-22.8136824519
 20
40.340409434099989
 30
0.0
 11
-22.999414891800001
 21
40.06167175329999
 31
0.0
  0
LINE
  5
8FC5
  8
0
 10
-22.999414891800001
 20
40.406082749399999
 30
0.0
 11
-23.1094148918
 21
40.409924100300003
 31
0.0
  0
LINE
  5
8FC6
  8
0
 10
-23.1094148918
 20
40.409924100300003
 30
0.0
 11
-23.1094148918
 21
-15.8176991967
 31
0.0
  0
LINE
  5
8FC7
  8
0
 10
-23.1094148918
 20
-15.8176991967
 30
0.0
 11
-23.088491756900002
 21
-15.8176991967
 31
0.0
  0
LINE
  5
8FC8
  8
0
 10
-23.088491756900002
 20
-15.8176991967
 30
0.0
 11
-23.088491751599999
 21
-32.897699196700003
 31
0.0
  0
LINE
  5
8FC9
  8
0
 10
-23.088491751599999
 20
-32.897699196700003
 30
0.0
 11
36.869661968000003
 21
-32.897699196700003
 31
0.0
  0
LINE
  5
8FCA
  8
0
 10
-22.999414891800001
 20
40.406082749399999
 30
0.0
 11
-22.999414891800001
 21
-14.516008710277269
 31
0.0
  0
LINE
  5
8FCB
  8
0
 10
-23.1094148918
 20
-14.5121707359
 30
0.0
 11
-22.549132710199999
 21
-14.531732910500001
 31
0.0
  0
ARC
  5
8FCC
  8
0
 10
-22.558377799107351
 20
-14.79652241821127
 30
0.0
 40
0.2649508540519992
 50
359.74610756688861
 51
88.000338108289071
  0
LINE
  5
8FCD
  8
0
 10
-22.29342954634593
 20
-14.797696480200001
 30
0.0
 11
-22.263877157500001
 21
-15.6439649877
 31
0.0
  0
LINE
  5
8FCE
  8
0
 10
-22.263877157500001
 20
-15.6439649877
 30
0.0
 11
-21.493051439820981
 21
-15.65556402162874
 31
0.0
  0
ARC
  5
8FCF
  8
0
 10
-21.522748637000021
 20
-15.707699196700011
 30
0.0
 40
0.0600000000000239
 50
1.002441400409712
 51
60.333329968184259
  0
LINE
  5
8FD0
  8
0
 10
-21.462757819964398
 20
-15.706649496075579
 30
0.0
 11
-21.432954498965941
 21
-17.4099213959006
 31
0.0
  0
ARC
  5
8FD1
  8
0
 10
-20.933004471053561
 20
-17.407423792436141
 30
0.0
 40
0.4999562665200416
 50
180.28623050098699
 51
269.28152454333377
  0
LINE
  5
8FD2
  8
0
 10
-20.939273639500001
 20
-17.907340751500001
 30
0.0
 11
34.720443853600003
 21
-17.907340740199999
 31
0.0
  0
LINE
  5
9014
  8
0
 10
-21.459414891793841
 20
-15.8976991967
 30
0.0
 11
35.24058510822924
 21
-15.8976991967
 31
0.0
  0
LINE
  5
9015
  8
0
 10
-11.253284081335771
 20
-17.90734074953356
 30
0.0
 11
-11.253284081335771
 21
-32.897699196700003
 31
0.0
  0
LINE
  5
9057
  8
0
 10
-22.999414886912149
 20
39.742630686530042
 30
0.0
 11
-22.9745950085
 21
39.933837841699997
 31
0.0
  0
LINE
  5
9058
  8
0
 10
-22.9745950085
 20
39.933837841699997
 30
0.0
 11
-22.69910457806883
 21
40.350886827966207
 31
0.0
  0
LINE
  5
9059
  8
0
 10
-22.704268251429671
 20
40.343069842319267
 30
0.0
 11
-22.703815486500002
 21
39.613269278399997
 31
0.0
  0
LINE
  5
905A
  8
0
 10
-22.703815486500002
 20
39.613269278399997
 30
0.0
 11
-22.999414960900001
 21
39.169644696100001
 31
0.0
  0
LINE
  5
905B
  8
0
 10
-22.999414960900001
 20
39.169644696100001
 30
0.0
 11
-21.69808756957104
 21
39.110621861302867
 31
0.0
  0
ARC
  5
905C
  8
0
 10
-21.709414891800002
 20
38.860878609599993
 30
0.0
 40
0.2500000000000148
 50
359.99997873180979
 51
87.40307990508515
  0
LINE
  5
905D
  8
0
 10
-22.703815486500002
 20
39.613269278399997
 30
0.0
 11
-22.089934851900001
 21
39.619591716800002
 31
0.0
  0
ARC
  5
905E
  8
0
 10
-22.018921263870311
 20
32.7268012746772
 30
0.0
 40
6.8931562443269909
 50
81.997929240625893
 51
90.590273992453675
  0
ARC
  5
905F
  8
0
 10
-11.639175592177841
 20
159.27190614119061
 30
0.0
 40
120.089110110392
 50
265.50092173117429
 51
270.31239477552799
  0
LINE
  5
9060
  8
0
 10
-10.9844148918
 20
39.184581016800003
 30
0.0
 11
24.765585107
 21
39.184581151063732
 31
0.0
  0
LINE
  5
90A3
  8
0
 10
-21.459414891800002
 20
38.8608786096
 30
0.0
 11
35.240585108200001
 21
38.860878487299999
 31
0.0
  0
LINE
  5
90A4
  8
0
 10
-21.459414891800002
 20
38.8608785168
 30
0.0
 11
-21.459414891800002
 21
-15.6466991967
 31
0.0
  0
ARC
  5
90A5
  8
0
 10
-21.719901099896479
 20
-15.6466991967
 30
0.0
 40
0.2604862080964807
 50
349.21621954708331
 51
0.0000000000003562
  0
LINE
  5
90A6
  8
0
 10
-21.459414891800058
 20
-15.62326175340004
 30
0.0
 11
35.240585108200072
 21
-15.62326175340004
 31
0.0
  0
ARC
  5
90AA
  8
0
 10
-18.593637002200001
 20
28.167300803300002
 30
0.0
 40
0.0600000000000058
 50
0.0000000000034373
 51
89.999999999996646
  0
LINE
  5
90AB
  8
0
 10
-18.533637002199999
 20
28.167300803300002
 30
0.0
 11
-18.533637002198571
 21
4.0373008032999991
 31
0.0
  0
ARC
  5
90AC
  8
0
 10
-18.593637002299431
 20
4.0373008032999946
 30
0.0
 40
0.0600000001008603
 50
269.99667779917883
 51
0.000000000005954
  0
LINE
  5
90AD
  8
0
 10
-18.5936404813
 20
3.977300803299999
 30
0.0
 11
-19.410294444199991
 21
3.9773008032999968
 31
0.0
  0
ARC
  5
90AE
  8
0
 10
-19.410297923299989
 20
28.167300803300002
 30
0.0
 40
0.0600000000000058
 50
90.000000000003254
 51
179.9999999999965
  0
LINE
  5
90AF
  8
0
 10
-19.470297923299992
 20
28.167300803300002
 30
0.0
 11
-19.47029792330143
 21
4.0373008032999991
 31
0.0
  0
ARC
  5
90B0
  8
0
 10
-19.41029792320057
 20
4.0373008032999946
 30
0.0
 40
0.0600000001008603
 50
179.999999999994
 51
270.0033222008214
  0
LINE
  5
90B1
  8
0
 10
-18.593637002200001
 20
28.2273008033
 30
0.0
 11
-19.410297923299989
 21
28.2273008033
 31
0.0
  0
LINE
  5
90C2
  8
0
 10
-21.459414891800002
 20
23.352299951794929
 30
0.0
 11
-21.314414891799998
 21
23.352299951794929
 31
0.0
  0
ARC
  5
90C3
  8
0
 10
-21.314414891799998
 20
23.342299951759429
 30
0.0
 40
0.0100000000355038
 50
359.99517188812302
 51
89.999999999989214
  0
LINE
  5
90C4
  8
0
 10
-21.3044148918
 20
23.342299109094942
 30
0.0
 11
-21.3044148918
 21
20.86230080329997
 31
0.0
  0
ARC
  5
90C5
  8
0
 10
-21.31478914475165
 20
20.862674172917728
 30
0.0
 40
0.0103809695682207
 50
272.06606543223711
 51
357.93881312451572
  0
LINE
  5
90C6
  8
0
 10
-21.314414891799998
 20
20.85229995179494
 30
0.0
 11
-21.459414891800002
 21
20.852299951794929
 31
0.0
  0
ARC
  5
90C7
  8
0
 10
-21.048308276795581
 20
22.83879995179668
 30
0.0
 40
0.2561066150044233
 50
180.0000000003896
 51
263.184489352669
  0
ARC
  5
90C8
  8
0
 10
-19.19441489127146
 20
38.350299962783993
 30
0.0
 40
15.878000010996759
 50
263.184489352669
 51
269.004425694975
  0
ARC
  5
90C9
  8
0
 10
-21.048308276840601
 20
21.365799951810349
 30
0.0
 40
0.2561066149593998
 50
96.815510647510052
 51
180.0000000034494
  0
ARC
  5
90CA
  8
0
 10
-19.19441489075362
 20
5.8542999365248916
 30
0.0
 40
15.878000015286309
 50
90.995574306625088
 51
96.815510647510052
  0
LINE
  5
910C
  8
0
 10
-21.459414891800002
 20
11.352299951794921
 30
0.0
 11
-21.314414891799998
 21
11.352299951794921
 31
0.0
  0
ARC
  5
910D
  8
0
 10
-21.314414891799998
 20
11.34229995175942
 30
0.0
 40
0.0100000000355038
 50
359.99517188812302
 51
89.999999999989214
  0
LINE
  5
910E
  8
0
 10
-21.3044148918
 20
11.342299109094929
 30
0.0
 11
-21.3044148918
 21
8.8623008032999664
 31
0.0
  0
ARC
  5
910F
  8
0
 10
-21.31478914475165
 20
8.8626741729177212
 30
0.0
 40
0.0103809695682207
 50
272.06606543223711
 51
357.93881312451572
  0
LINE
  5
9110
  8
0
 10
-21.314414891799998
 20
8.852299951794933
 30
0.0
 11
-21.459414891800002
 21
8.8522999517949295
 31
0.0
  0
ARC
  5
9111
  8
0
 10
-21.048308276795581
 20
10.83879995179667
 30
0.0
 40
0.2561066150044233
 50
180.0000000003896
 51
263.184489352669
  0
ARC
  5
9112
  8
0
 10
-19.19441489127146
 20
26.350299962783989
 30
0.0
 40
15.878000010996759
 50
263.184489352669
 51
269.004425694975
  0
ARC
  5
9113
  8
0
 10
-21.048308276840601
 20
9.3657999518103452
 30
0.0
 40
0.2561066149593998
 50
96.815510647510052
 51
180.0000000034494
  0
ARC
  5
9114
  8
0
 10
-19.19441489075362
 20
-6.1457000634751111
 30
0.0
 40
15.878000015286309
 50
90.995574306625088
 51
96.815510647510052
  0
LINE
  5
9197
  8
0
 10
-18.533637002199999
 20
28.167300803300002
 30
0.0
 11
-19.470297923299999
 21
28.167300803300002
 31
0.0
  0
LINE
  5
9198
  8
0
 10
-19.47029792330143
 20
4.0373008033000009
 30
0.0
 11
-18.533637002198571
 21
4.0373008033000559
 31
0.0
  0
LINE
  5
91DA
  8
0
 10
-9.2349305569000002
 20
0.7523008032999999
 30
0.0
 11
-9.2349625399999997
 21
2.4506927048999998
 31
0.0
  0
ARC
  5
91DB
  8
0
 10
-9.1733349420184638
 20
2.4506938654340482
 30
0.0
 40
0.0616275979924632
 50
91.483640334433645
 51
180.00107895983521
  0
LINE
  5
91DC
  8
0
 10
-9.1749305738999993
 20
2.5123008033000001
 30
0.0
 11
22.9557711185
 21
2.5123008033000001
 31
0.0
  0
ARC
  5
91DD
  8
0
 10
-9.1733029589075379
 20
0.7523068471
 30
0.0
 40
0.0616275979924632
 50
179.9989210401647
 51
268.51635966556643
  0
LINE
  5
91DE
  8
0
 10
-9.1748985907890734
 20
0.6906999092340486
 30
0.0
 11
22.955803101610918
 21
0.6906999092340486
 31
0.0
  0
ARC
  5
91DF
  8
0
 10
-7.2216674382999999
 20
1.6023008032999999
 30
0.0
 40
1.25
 50
46.718987997582872
 51
133.2810120024171
  0
ARC
  5
91E0
  8
0
 10
-7.2216674382999999
 20
1.6023008032999999
 30
0.0
 40
1.25
 50
226.82612772552031
 51
313.17387227447961
  0
LINE
  5
92A5
  8
0
 10
5.5297781177412011
 20
38.860878551385213
 30
0.0
 11
5.5297781177412011
 21
2.5123008033000001
 31
0.0
  0
LINE
  5
92A6
  8
0
 10
4.139927477862094
 20
38.860878551385213
 30
0.0
 11
4.139927477862094
 21
2.5123008033000001
 31
0.0
  0
LINE
  5
92A7
  8
0
 10
2.7720063952641492
 20
38.860878551385213
 30
0.0
 11
2.7720063952641492
 21
2.5123008033000001
 31
0.0
  0
LINE
  5
92A8
  8
0
 10
1.4039480140065661
 20
38.836441108085261
 30
0.0
 11
1.4039480140065661
 21
2.5123008033000001
 31
0.0
  0
LINE
  5
92A9
  8
0
 10
0.0139913041900783
 20
38.860878551385213
 30
0.0
 11
0.0139913041900783
 21
2.5123008033000001
 31
0.0
  0
LINE
  5
92AA
  8
0
 10
-1.3662010480150071
 20
38.860878551385213
 30
0.0
 11
-1.3662010480150071
 21
2.5123008033000001
 31
0.0
  0
LINE
  5
92AB
  8
0
 10
-2.7314547676348999
 20
38.860878551385213
 30
0.0
 11
-2.7314547676348928
 21
2.5123008033000001
 31
0.0
  0
LINE
  5
92AC
  8
0
 10
-4.0967892511721473
 20
38.860878551385213
 30
0.0
 11
-4.0967892511721473
 21
2.5123008033000001
 31
0.0
  0
LINE
  5
92AD
  8
0
 10
-5.479507360286795
 20
38.860878551385213
 30
0.0
 11
-5.479507360286795
 21
2.5123008033000001
 31
0.0
  0
LINE
  5
92AE
  8
0
 10
-6.8549297955312412
 20
38.860878551385213
 30
0.0
 11
-6.8549297955312412
 21
2.79729180802615
 31
0.0
  0
LINE
  5
92AF
  8
0
 10
-8.2266812415175679
 20
38.860878551385213
 30
0.0
 11
-8.2266812415175679
 21
2.5123008033000001
 31
0.0
  0
LINE
  5
92B0
  8
0
 10
-9.603220372526394
 20
38.860878551385213
 30
0.0
 11
-9.603220372526394
 21
-15.62326175340004
 31
0.0
  0
LINE
  5
92B1
  8
0
 10
-10.984414903599999
 20
38.860878551385213
 30
0.0
 11
-10.984414903599999
 21
-15.62326175340004
 31
0.0
  0
LINE
  5
92B2
  8
0
 10
-12.272434459586529
 20
38.860878551385213
 30
0.0
 11
-12.272434459586529
 21
26.6023008033
 31
0.0
  0
LINE
  5
92B3
  8
0
 10
-13.542770490627079
 20
38.860878551385213
 30
0.0
 11
-13.542770490627079
 21
26.6023008033
 31
0.0
  0
LINE
  5
92B4
  8
0
 10
-14.76116497360688
 20
38.860878551385213
 30
0.0
 11
-14.76116497360688
 21
26.60230080329999
 31
0.0
  0
LINE
  5
92B6
  8
0
 10
-15.92249508357679
 20
38.860878551385213
 30
0.0
 11
-15.92249508357679
 21
26.60230080329999
 31
0.0
  0
LINE
  5
92B7
  8
0
 10
-17.017766228176701
 20
38.860878551385213
 30
0.0
 11
-17.017766228176701
 21
26.60230080329999
 31
0.0
  0
LINE
  5
92B8
  8
0
 10
-18.037721478700011
 20
38.860878551385213
 30
0.0
 11
-18.037721478699989
 21
26.60230080329999
 31
0.0
  0
LINE
  5
92B9
  8
0
 10
-18.97191220061411
 20
38.860878551385213
 30
0.0
 11
-18.97191220061411
 21
28.2273008033
 31
0.0
  0
LINE
  5
92BA
  8
0
 10
-19.804609831299999
 20
38.860878551385213
 30
0.0
 11
-19.804609831299999
 21
26.59531540482006
 31
0.0
  0
LINE
  5
92BB
  8
0
 10
-20.517398653800001
 20
38.860878551385213
 30
0.0
 11
-20.517398653800001
 21
26.59531540482006
 31
0.0
  0
LINE
  5
92BC
  8
0
 10
-21.081364257899988
 20
38.860878551385213
 30
0.0
 11
-21.081364257899988
 21
26.59531540482006
 31
0.0
  0
LINE
  5
92BD
  8
0
 10
35.240585108000012
 20
37.499643707342699
 30
0.0
 11
-21.459414891800009
 21
37.499643707342678
 31
0.0
  0
LINE
  5
92BE
  8
0
 10
35.240585108000012
 20
36.137452920418767
 30
0.0
 11
-21.459414891800009
 21
36.137452920418767
 31
0.0
  0
LINE
  5
92BF
  8
0
 10
35.240585108000012
 20
34.767354356572433
 30
0.0
 11
-21.459414891800009
 21
34.767354356572433
 31
0.0
  0
LINE
  5
92C0
  8
0
 10
35.240585108000012
 20
33.404916724751473
 30
0.0
 11
-21.459414891800009
 21
33.404916724751459
 31
0.0
  0
LINE
  5
92C1
  8
0
 10
35.240585108000012
 20
32.049904303970457
 30
0.0
 11
-21.459414891800009
 21
32.04990430397045
 31
0.0
  0
LINE
  5
92C2
  8
0
 10
35.240585108000012
 20
30.690042387411282
 30
0.0
 11
-21.459414891800009
 21
30.690042387411282
 31
0.0
  0
LINE
  5
92C3
  8
0
 10
35.240585108000012
 20
29.327851600487381
 30
0.0
 11
-21.459414891800009
 21
29.32785160048736
 31
0.0
  0
LINE
  5
92C4
  8
0
 10
32.314807218399991
 20
27.95775303664103
 30
0.0
 11
-18.533637002199981
 21
27.957753036641019
 31
0.0
  0
LINE
  5
92C5
  8
0
 10
32.314807218399913
 20
26.595315404820049
 30
0.0
 11
-10.984414903599991
 21
26.59531540482006
 31
0.0
  0
LINE
  5
92C6
  8
0
 10
24.765585119800001
 20
25.24030298403904
 30
0.0
 11
-10.984414903599991
 21
25.240302984039051
 31
0.0
  0
LINE
  5
92C7
  8
0
 10
24.765585119800001
 20
23.86365190650886
 30
0.0
 11
-10.984414903599991
 21
23.863651906508839
 31
0.0
  0
LINE
  5
92C8
  8
0
 10
24.765585119800001
 20
22.501461119584931
 30
0.0
 11
-10.984414903599991
 21
22.501461119584931
 31
0.0
  0
LINE
  5
92C9
  8
0
 10
24.765585119800001
 20
21.13136255573859
 30
0.0
 11
-10.984414903599991
 21
21.13136255573859
 31
0.0
  0
LINE
  5
92CA
  8
0
 10
24.765585119800001
 20
19.76892492391762
 30
0.0
 11
-10.984414903599991
 21
19.76892492391762
 31
0.0
  0
LINE
  5
92CB
  8
0
 10
24.765585119800001
 20
18.413912503136601
 30
0.0
 11
-10.984414903599991
 21
18.413912503136618
 31
0.0
  0
LINE
  5
92CC
  8
0
 10
24.765585119800001
 20
17.066153137619729
 30
0.0
 11
-10.984414903599991
 21
17.06615313761974
 31
0.0
  0
LINE
  5
92CD
  8
0
 10
24.765585119800001
 20
15.703962350695811
 30
0.0
 11
-10.984414903599991
 21
15.70396235069582
 31
0.0
  0
LINE
  5
92CE
  8
0
 10
24.765585119800001
 20
14.333863786849481
 30
0.0
 11
-10.984414903599991
 21
14.33386378684947
 31
0.0
  0
LINE
  5
92CF
  8
0
 10
24.765585119800001
 20
12.97142615502851
 30
0.0
 11
-10.984414903599991
 21
12.97142615502851
 31
0.0
  0
LINE
  5
92D0
  8
0
 10
24.765585119800001
 20
11.6164137342475
 30
0.0
 11
-10.984414903599991
 21
11.6164137342475
 31
0.0
  0
LINE
  5
92D1
  8
0
 10
24.765585119800001
 20
10.23680528534323
 30
0.0
 11
-10.984414903599991
 21
10.236805285343239
 31
0.0
  0
LINE
  5
92D2
  8
0
 10
24.765585119800001
 20
8.8746144984193194
 30
0.0
 11
-10.984414903599991
 21
8.8746144984193212
 31
0.0
  0
LINE
  5
92D3
  8
0
 10
24.765585119800001
 20
7.5045159345729768
 30
0.0
 11
-10.984414903599991
 21
7.5045159345729786
 31
0.0
  0
LINE
  5
92D4
  8
0
 10
24.765585119800001
 20
6.1420783027520107
 30
0.0
 11
-10.984414903599991
 21
6.1420783027520107
 31
0.0
  0
LINE
  5
92D5
  8
0
 10
24.765585119800001
 20
4.7870658819710021
 30
0.0
 11
-10.984414903599991
 21
4.787065881971003
 31
0.0
  0
LINE
  5
92D6
  8
0
 10
24.765585119800001
 20
3.4371288783170959
 30
0.0
 11
-10.984414903599991
 21
3.4371288783170959
 31
0.0
  0
LINE
  5
92D9
  8
0
 10
24.765585119800001
 20
-0.6575981042741291
 30
0.0
 11
-10.984414903599991
 21
-0.657598104274129
 31
0.0
  0
LINE
  5
92DA
  8
0
 10
24.765585119800001
 20
-2.0126105250551372
 30
0.0
 11
-10.984414903599991
 21
-2.0126105250551372
 31
0.0
  0
LINE
  5
92DB
  8
0
 10
35.240585108000012
 20
-3.3855123146423551
 30
0.0
 11
-21.459414891800009
 21
-3.3855123146423551
 31
0.0
  0
LINE
  5
92DC
  8
0
 10
35.240585108000012
 20
-4.7477031015662732
 30
0.0
 11
-21.459414891800009
 21
-4.7477031015662732
 31
0.0
  0
LINE
  5
92DD
  8
0
 10
35.240585108000012
 20
-6.1178016654126131
 30
0.0
 11
-21.459414891800009
 21
-6.1178016654126131
 31
0.0
  0
LINE
  5
92DE
  8
0
 10
35.240585108000012
 20
-7.4802392972335809
 30
0.0
 11
-21.459414891800009
 21
-7.4802392972335801
 31
0.0
  0
LINE
  5
92DF
  8
0
 10
35.240585108000012
 20
-8.8352517180145895
 30
0.0
 11
-21.459414891800009
 21
-8.8352517180145895
 31
0.0
  0
LINE
  5
92E0
  8
0
 10
35.240585108000012
 20
-10.196508626068219
 30
0.0
 11
-21.459414891800009
 21
-10.196508626068219
 31
0.0
  0
LINE
  5
92E1
  8
0
 10
35.240585108000012
 20
-11.558699412992141
 30
0.0
 11
-21.459414891800009
 21
-11.558699412992141
 31
0.0
  0
LINE
  5
92E2
  8
0
 10
35.240585108000012
 20
-12.92879797683848
 30
0.0
 11
-21.459414891800009
 21
-12.92879797683848
 31
0.0
  0
LINE
  5
92E3
  8
0
 10
35.240585108000012
 20
-14.29123560865945
 30
0.0
 11
-21.459414891800009
 21
-14.29123560865945
 31
0.0
  0
LINE
  5
92E5
  8
0
 10
5.5297781177412011
 20
0.6906999092340485
 30
0.0
 11
5.5297781177412011
 21
-15.62326175340004
 31
0.0
  0
LINE
  5
92E6
  8
0
 10
4.139927477862094
 20
0.6906999092340485
 30
0.0
 11
4.139927477862094
 21
-15.62326175340004
 31
0.0
  0
LINE
  5
92E7
  8
0
 10
2.7720063952641492
 20
0.6906999092340485
 30
0.0
 11
2.7720063952641492
 21
-15.623261753400049
 31
0.0
  0
LINE
  5
92E8
  8
0
 10
1.4039480140065661
 20
0.6906999092340486
 30
0.0
 11
1.4039480140065661
 21
-15.6476991967
 31
0.0
  0
LINE
  5
92E9
  8
0
 10
0.0139913041900783
 20
0.6906999092340485
 30
0.0
 11
0.0139913041900783
 21
-15.62326175340004
 31
0.0
  0
LINE
  5
92EA
  8
0
 10
-1.3662010480150071
 20
0.6906999092340485
 30
0.0
 11
-1.3662010480150071
 21
-15.62326175340004
 31
0.0
  0
LINE
  5
92EB
  8
0
 10
-2.7314547676348928
 20
0.6906999092340485
 30
0.0
 11
-2.7314547676348928
 21
-15.62326175340004
 31
0.0
  0
LINE
  5
92EC
  8
0
 10
-4.0967892511721473
 20
0.6906999092340485
 30
0.0
 11
-4.0967892511721473
 21
-15.623261753400049
 31
0.0
  0
LINE
  5
92ED
  8
0
 10
-5.479507360286795
 20
0.6906999092340485
 30
0.0
 11
-5.479507360286795
 21
-15.62326175340004
 31
0.0
  0
LINE
  5
92EE
  8
0
 10
-6.8549297955312412
 20
0.4073097985738508
 30
0.0
 11
-6.8549297955312412
 21
-15.623261753400049
 31
0.0
  0
LINE
  5
92EF
  8
0
 10
-8.2266812415175607
 20
0.6906999092340485
 30
0.0
 11
-8.2266812415175679
 21
-15.62326175340004
 31
0.0
  0
LINE
  5
92F0
  8
0
 10
-9.2349554640139644
 20
2.0749380913931779
 30
0.0
 11
-10.984414903599991
 21
2.0749380913931779
 31
0.0
  0
LINE
  5
92F1
  8
0
 10
-9.2126070860287257
 20
0.704839527546838
 30
0.0
 11
-10.984414903599991
 21
0.704839527546838
 31
0.0
  0
LINE
  5
9304
  8
0
 10
-10.984414903599991
 20
26.59531540482006
 30
0.0
 11
-18.53363700219991
 21
26.59531540482006
 31
0.0
  0
LINE
  5
9305
  8
0
 10
-19.470297923300009
 20
27.95775303664103
 30
0.0
 11
-21.459414891800009
 21
27.95775303664103
 31
0.0
  0
LINE
  5
9311
  8
0
 10
-12.272434459586529
 20
-3.3851977665129831
 30
0.0
 11
-12.272434459586529
 21
-15.62326175340004
 31
0.0
  0
LINE
  5
9312
  8
0
 10
-13.542770490627079
 20
-3.385197964273075
 30
0.0
 11
-13.542770490627079
 21
-15.62326175340004
 31
0.0
  0
LINE
  5
9313
  8
0
 10
-14.76116497360688
 20
-3.3851981539471461
 30
0.0
 11
-14.76116497360688
 21
-15.62326175340004
 31
0.0
  0
LINE
  5
9314
  8
0
 10
-15.92249508357679
 20
-3.3851983347376948
 30
0.0
 11
-15.92249508357679
 21
-15.62326175340004
 31
0.0
  0
LINE
  5
9315
  8
0
 10
-17.017766228176701
 20
-3.385198505244488
 30
0.0
 11
-17.017766228176701
 21
-15.62326175340004
 31
0.0
  0
LINE
  5
9316
  8
0
 10
-18.037721478700011
 20
-3.385198664026448
 30
0.0
 11
-18.037721478700011
 21
-15.62326175340004
 31
0.0
  0
LINE
  5
9317
  8
0
 10
-18.97191220061411
 20
-3.3851988094569792
 30
0.0
 11
-18.97191220061411
 21
-15.62326175340004
 31
0.0
  0
LINE
  5
9318
  8
0
 10
-19.804609831300009
 20
-3.3851989390875299
 30
0.0
 11
-19.804609831299999
 21
-15.62326175340004
 31
0.0
  0
LINE
  5
9319
  8
0
 10
-20.517398653800001
 20
-3.3851990500512281
 30
0.0
 11
-20.517398653800001
 21
-15.62326175340004
 31
0.0
  0
LINE
  5
931A
  8
0
 10
-21.081364257899988
 20
-3.3851991378468091
 30
0.0
 11
-21.081364257899988
 21
-15.62326175340004
 31
0.0
  0
LINE
  5
9346
  8
0
 10
-19.47029792330008
 20
26.59531540482006
 30
0.0
 11
-21.459414891800009
 21
26.59531540482006
 31
0.0
  0
ARC
  5
93C9
  8
0
 10
36.44838524570482
 20
39.370418134443248
 30
0.0
 40
0.9809871697595619
 50
81.413280624290763
 51
90.024227730188557
  0
LINE
  5
93CA
  8
0
 10
36.594852668100003
 20
40.340409434099989
 30
0.0
 11
36.780585107999997
 21
40.06167175329999
 31
0.0
  0
LINE
  5
93CB
  8
0
 10
36.780585107999997
 20
40.406082749399999
 30
0.0
 11
36.890585108000003
 21
40.409924100300003
 31
0.0
  0
LINE
  5
93CC
  8
0
 10
36.890585108000003
 20
40.409924100300003
 30
0.0
 11
36.890585108000003
 21
-15.8176991967
 31
0.0
  0
LINE
  5
93CD
  8
0
 10
36.890585108000003
 20
-15.8176991967
 30
0.0
 11
36.869661973100001
 21
-15.8176991967
 31
0.0
  0
LINE
  5
93CE
  8
0
 10
36.869661973100001
 20
-15.8176991967
 30
0.0
 11
36.869661967799999
 21
-32.897699196700003
 31
0.0
  0
LINE
  5
93CF
  8
0
 10
36.780585107999997
 20
40.406082749399999
 30
0.0
 11
36.780585107999997
 21
-14.516008710277269
 31
0.0
  0
LINE
  5
93D0
  8
0
 10
36.890585108000003
 20
-14.5121707359
 30
0.0
 11
36.330302926399987
 21
-14.531732910500001
 31
0.0
  0
ARC
  5
93D1
  8
0
 10
36.339548015307336
 20
-14.79652241821127
 30
0.0
 40
0.2649508540519992
 50
91.999661891710915
 51
180.25389243311139
  0
LINE
  5
93D2
  8
0
 10
36.07459976254593
 20
-14.797696480200001
 30
0.0
 11
36.045047373700001
 21
-15.6439649877
 31
0.0
  0
LINE
  5
93D3
  8
0
 10
36.045047373700001
 20
-15.6439649877
 30
0.0
 11
35.274221656020977
 21
-15.65556402162874
 31
0.0
  0
ARC
  5
93D4
  8
0
 10
35.303918853200017
 20
-15.707699196700011
 30
0.0
 40
0.0600000000000239
 50
119.6666700318157
 51
178.99755859959029
  0
LINE
  5
93D5
  8
0
 10
35.243928036164398
 20
-15.706649496075579
 30
0.0
 11
35.214124715165937
 21
-17.4099213959006
 31
0.0
  0
ARC
  5
93D6
  8
0
 10
34.714174706962901
 20
-17.407423800614151
 30
0.0
 40
0.4999562467700965
 50
270.71847298546942
 51
359.71377042492952
  0
LINE
  5
93D7
  8
0
 10
25.034454297535781
 20
-17.90734074953356
 30
0.0
 11
25.034454297535781
 21
-32.897699196700003
 31
0.0
  0
LINE
  5
93D8
  8
0
 10
36.780585103112152
 20
39.742630686530042
 30
0.0
 11
36.755765224699999
 21
39.933837841699997
 31
0.0
  0
LINE
  5
93D9
  8
0
 10
36.755765224699999
 20
39.933837841699997
 30
0.0
 11
36.480274785680663
 21
40.350886840967327
 31
0.0
  0
LINE
  5
93DA
  8
0
 10
36.485438467629677
 20
40.343069842319267
 30
0.0
 11
36.484985702700001
 21
39.613269278399997
 31
0.0
  0
LINE
  5
93DB
  8
0
 10
36.484985702700001
 20
39.613269278399997
 30
0.0
 11
36.780585177100001
 21
39.169644696100001
 31
0.0
  0
LINE
  5
93DC
  8
0
 10
36.780585177100001
 20
39.169644696100001
 30
0.0
 11
35.47925778577104
 21
39.110621861302867
 31
0.0
  0
ARC
  5
93DD
  8
0
 10
35.490585107999998
 20
38.860878609599993
 30
0.0
 40
0.2500000000000148
 50
92.596920094914793
 51
180.0000212681903
  0
LINE
  5
93DE
  8
0
 10
36.484985702700001
 20
39.613269278399997
 30
0.0
 11
35.8711050681
 21
39.619591716800002
 31
0.0
  0
ARC
  5
93DF
  8
0
 10
35.800091480070307
 20
32.7268012746772
 30
0.0
 40
6.8931562443269909
 50
89.409726007546368
 51
98.002070759374092
  0
ARC
  5
93E0
  8
0
 10
25.420350188595929
 20
159.27183008684599
 30
0.0
 40
120.08903394680389
 50
269.68760293598342
 51
274.49907903182822
  0
LINE
  5
93E1
  8
0
 10
35.240585108000012
 20
38.8608785168
 30
0.0
 11
35.240585108000012
 21
-15.6466991967
 31
0.0
  0
ARC
  5
93E2
  8
0
 10
35.501071316096493
 20
-15.6466991967
 30
0.0
 40
0.2604862080964807
 50
179.9999999999996
 51
190.7837804529166
  0
ARC
  5
93E3
  8
0
 10
32.374807218400008
 20
28.167300803300002
 30
0.0
 40
0.0600000000000058
 50
90.000000000003354
 51
179.9999999999965
  0
LINE
  5
93E4
  8
0
 10
32.314807218400013
 20
28.167300803300002
 30
0.0
 11
32.31480721839857
 21
4.0373008032999991
 31
0.0
  0
ARC
  5
93E5
  8
0
 10
32.374807218499427
 20
4.0373008032999946
 30
0.0
 40
0.0600000001008603
 50
179.999999999994
 51
270.00332220082117
  0
LINE
  5
93E6
  8
0
 10
32.374810697500003
 20
3.977300803299999
 30
0.0
 11
33.191464660400001
 21
3.9773008032999968
 31
0.0
  0
ARC
  5
93E7
  8
0
 10
33.191468139499989
 20
28.167300803300002
 30
0.0
 40
0.0600000000000058
 50
0.000000000003442
 51
89.999999999996746
  0
LINE
  5
93E8
  8
0
 10
33.251468139499991
 20
28.167300803300002
 30
0.0
 11
33.251468139501434
 21
4.0373008032999991
 31
0.0
  0
ARC
  5
93E9
  8
0
 10
33.19146813940057
 20
4.0373008032999946
 30
0.0
 40
0.0600000001008603
 50
269.9966777991786
 51
0.000000000005961
  0
LINE
  5
93EA
  8
0
 10
32.374807218400001
 20
28.2273008033
 30
0.0
 11
33.191468139500003
 21
28.2273008033
 31
0.0
  0
LINE
  5
93EB
  8
0
 10
35.240585108000012
 20
23.352299951794929
 30
0.0
 11
35.095585108000002
 21
23.352299951794929
 31
0.0
  0
ARC
  5
93EC
  8
0
 10
35.095585108000002
 20
23.342299951759429
 30
0.0
 40
0.0100000000355038
 50
90.000000000010786
 51
180.004828111877
  0
LINE
  5
93ED
  8
0
 10
35.085585107999997
 20
23.342299109094942
 30
0.0
 11
35.085585107999997
 21
20.86230080329997
 31
0.0
  0
ARC
  5
93EE
  8
0
 10
35.095959360951653
 20
20.862674172917728
 30
0.0
 40
0.0103809695682207
 50
182.06118687548431
 51
267.93393456776289
  0
LINE
  5
93EF
  8
0
 10
35.095585108000002
 20
20.85229995179494
 30
0.0
 11
35.240585108000012
 21
20.852299951794929
 31
0.0
  0
ARC
  5
93F0
  8
0
 10
34.829478492995577
 20
22.83879995179668
 30
0.0
 40
0.2561066150044233
 50
276.81551064733111
 51
359.9999999996104
  0
ARC
  5
93F1
  8
0
 10
32.97558510747146
 20
38.350299962783993
 30
0.0
 40
15.878000010996759
 50
270.995574305025
 51
276.81551064733111
  0
ARC
  5
93F2
  8
0
 10
34.829478493040597
 20
21.365799951810349
 30
0.0
 40
0.2561066149593998
 50
359.99999999655063
 51
83.184489352489962
  0
ARC
  5
93F3
  8
0
 10
32.975585106953623
 20
5.8542999365248916
 30
0.0
 40
15.878000015286309
 50
83.184489352489962
 51
89.004425693374884
  0
LINE
  5
93F4
  8
0
 10
35.240585108000012
 20
11.352299951794921
 30
0.0
 11
35.095585108000002
 21
11.352299951794921
 31
0.0
  0
ARC
  5
93F5
  8
0
 10
35.095585108000002
 20
11.34229995175942
 30
0.0
 40
0.0100000000355038
 50
90.000000000010786
 51
180.004828111877
  0
LINE
  5
93F6
  8
0
 10
35.085585107999997
 20
11.342299109094929
 30
0.0
 11
35.085585107999997
 21
8.8623008032999664
 31
0.0
  0
ARC
  5
93F7
  8
0
 10
35.095959360951653
 20
8.8626741729177212
 30
0.0
 40
0.0103809695682207
 50
182.06118687548431
 51
267.93393456776289
  0
LINE
  5
93F8
  8
0
 10
35.095585108000002
 20
8.852299951794933
 30
0.0
 11
35.240585108000012
 21
8.8522999517949295
 31
0.0
  0
ARC
  5
93F9
  8
0
 10
34.829478492995577
 20
10.83879995179667
 30
0.0
 40
0.2561066150044233
 50
276.81551064733111
 51
359.9999999996104
  0
ARC
  5
93FA
  8
0
 10
32.97558510747146
 20
26.350299962783989
 30
0.0
 40
15.878000010996759
 50
270.995574305025
 51
276.81551064733111
  0
ARC
  5
93FB
  8
0
 10
34.829478493040597
 20
9.3657999518103452
 30
0.0
 40
0.2561066149593998
 50
359.99999999655063
 51
83.184489352489962
  0
ARC
  5
93FC
  8
0
 10
32.975585106953623
 20
-6.1457000634751111
 30
0.0
 40
15.878000015286309
 50
83.184489352489962
 51
89.004425693374884
  0
LINE
  5
93FD
  8
0
 10
32.314807218399999
 20
28.167300803300002
 30
0.0
 11
33.251468139499998
 21
28.167300803300002
 31
0.0
  0
LINE
  5
93FE
  8
0
 10
33.251468139501434
 20
4.0373008033000009
 30
0.0
 11
32.31480721839857
 21
4.0373008033000559
 31
0.0
  0
LINE
  5
93FF
  8
0
 10
23.0161007731
 20
0.7523008032999999
 30
0.0
 11
23.016132756200001
 21
2.4506927048999998
 31
0.0
  0
ARC
  5
9400
  8
0
 10
22.954518516930872
 20
2.4506992975271329
 30
0.0
 40
0.0616142396218263
 50
359.99386944132249
 51
88.835111358408582
  0
ARC
  5
9401
  8
0
 10
22.95448420247665
 20
0.7523023630079915
 30
0.0
 40
0.0616165708709691
 50
271.22650651582308
 51
0.0052488031367185
  0
ARC
  5
9402
  8
0
 10
21.002837654499999
 20
1.6023008032999999
 30
0.0
 40
1.25
 50
46.718987997582872
 51
133.2810120024171
  0
ARC
  5
9403
  8
0
 10
21.002837654499999
 20
1.6023008032999999
 30
0.0
 40
1.25
 50
226.82612772552039
 51
313.17387227447972
  0
LINE
  5
9404
  8
0
 10
22.955803101610918
 20
0.6906999092340486
 30
0.0
 11
22.9557711185
 21
2.5123008033000001
 31
0.0
  0
LINE
  5
9405
  8
0
 10
-9.1749305738999993
 20
2.5123008033000001
 30
0.0
 11
-9.1748985907890734
 21
0.6906999092340486
 31
0.0
  0
LINE
  5
9488
  8
0
 10
6.890585108099998
 20
38.860878548450003
 30
0.0
 11
6.8905851080999971
 21
2.5123008033000001
 31
0.0
  0
LINE
  5
9489
  8
0
 10
6.8905851080999971
 20
0.6906999092340486
 30
0.0
 11
6.890585108099998
 21
-15.62326175340004
 31
0.0
  0
LINE
  5
948A
  8
0
 10
24.765585119800001
 20
38.860878551385213
 30
0.0
 11
24.765585119800001
 21
-15.62326175340004
 31
0.0
  0
LINE
  5
948B
  8
0
 10
8.2513920984587976
 20
0.6906999092340485
 30
0.0
 11
8.2513920984587976
 21
-15.62326175340004
 31
0.0
  0
LINE
  5
948C
  8
0
 10
9.6412427383379047
 20
0.6906999092340485
 30
0.0
 11
9.6412427383379047
 21
-15.62326175340004
 31
0.0
  0
LINE
  5
948D
  8
0
 10
11.00916382093585
 20
0.6906999092340485
 30
0.0
 11
11.00916382093585
 21
-15.623261753400049
 31
0.0
  0
LINE
  5
948E
  8
0
 10
12.37722220219343
 20
0.6906999092340486
 30
0.0
 11
12.37722220219343
 21
-15.6476991967
 31
0.0
  0
LINE
  5
948F
  8
0
 10
13.76717891200992
 20
0.6906999092340485
 30
0.0
 11
13.76717891200992
 21
-15.62326175340004
 31
0.0
  0
LINE
  5
9490
  8
0
 10
15.14737126421501
 20
0.6906999092340485
 30
0.0
 11
15.14737126421501
 21
-15.62326175340004
 31
0.0
  0
LINE
  5
9491
  8
0
 10
16.51262498383489
 20
0.6906999092340485
 30
0.0
 11
16.51262498383489
 21
-15.62326175340004
 31
0.0
  0
LINE
  5
9492
  8
0
 10
17.87795946737215
 20
0.6906999092340485
 30
0.0
 11
17.87795946737215
 21
-15.623261753400049
 31
0.0
  0
LINE
  5
9493
  8
0
 10
19.260677576486788
 20
0.6906999092340485
 30
0.0
 11
19.260677576486788
 21
-15.62326175340004
 31
0.0
  0
LINE
  5
9494
  8
0
 10
20.636100011731241
 20
0.4073097985738508
 30
0.0
 11
20.636100011731241
 21
-15.623261753400049
 31
0.0
  0
LINE
  5
9495
  8
0
 10
22.00785145771756
 20
0.6906999092340485
 30
0.0
 11
22.007851457717571
 21
-15.62326175340004
 31
0.0
  0
LINE
  5
9496
  8
0
 10
26.053604675786541
 20
-3.3851977665129831
 30
0.0
 11
26.053604675786541
 21
-15.62326175340004
 31
0.0
  0
LINE
  5
9497
  8
0
 10
27.323940706827081
 20
-3.385197964273075
 30
0.0
 11
27.323940706827081
 21
-15.62326175340004
 31
0.0
  0
LINE
  5
9498
  8
0
 10
28.542335189806881
 20
-3.3851981539471461
 30
0.0
 11
28.542335189806881
 21
-15.62326175340004
 31
0.0
  0
LINE
  5
9499
  8
0
 10
29.703665299776791
 20
-3.3851983347376948
 30
0.0
 11
29.703665299776791
 21
-15.62326175340004
 31
0.0
  0
LINE
  5
949A
  8
0
 10
30.7989364443767
 20
-3.385198505244488
 30
0.0
 11
30.7989364443767
 21
-15.62326175340004
 31
0.0
  0
LINE
  5
949B
  8
0
 10
31.81889169490001
 20
-3.385198664026448
 30
0.0
 11
31.81889169490001
 21
-15.62326175340004
 31
0.0
  0
LINE
  5
949C
  8
0
 10
32.753082416814109
 20
-3.3851988094569792
 30
0.0
 11
32.753082416814109
 21
-15.62326175340004
 31
0.0
  0
LINE
  5
949D
  8
0
 10
33.585780047500009
 20
-3.3851989390875299
 30
0.0
 11
33.585780047500002
 21
-15.62326175340004
 31
0.0
  0
LINE
  5
949E
  8
0
 10
34.298568869999997
 20
-3.3851990500512281
 30
0.0
 11
34.298568869999997
 21
-15.62326175340004
 31
0.0
  0
LINE
  5
949F
  8
0
 10
34.862534474099988
 20
-3.3851991378468091
 30
0.0
 11
34.862534474099988
 21
-15.62326175340004
 31
0.0
  0
LINE
  5
94A0
  8
0
 10
33.251468139500012
 20
27.95775303664103
 30
0.0
 11
35.240585108000012
 21
27.95775303664103
 31
0.0
  0
LINE
  5
94A1
  8
0
 10
33.251468139500084
 20
26.59531540482006
 30
0.0
 11
35.240585108000012
 21
26.59531540482006
 31
0.0
  0
LINE
  5
94A2
  8
0
 10
23.01612568021396
 20
2.0749380913931779
 30
0.0
 11
24.76558511979999
 21
2.0749380913931779
 31
0.0
  0
LINE
  5
94A3
  8
0
 10
22.993777302228722
 20
0.704839527546838
 30
0.0
 11
24.76558511979999
 21
0.704839527546838
 31
0.0
  0
LINE
  5
94A4
  8
0
 10
8.2513920984587728
 20
38.860878551385213
 30
0.0
 11
8.2513920984588012
 21
2.5123008033000009
 31
0.0
  0
LINE
  5
94A5
  8
0
 10
9.6412427383378798
 20
38.86087855138522
 30
0.0
 11
9.64124273833791
 21
2.5123008033000018
 31
0.0
  0
LINE
  5
94A6
  8
0
 10
11.00916382093582
 20
38.86087855138522
 30
0.0
 11
11.00916382093585
 21
2.5123008033000032
 31
0.0
  0
LINE
  5
94A7
  8
0
 10
12.37722220219341
 20
38.836441108085268
 30
0.0
 11
12.37722220219344
 21
2.512300803300004
 31
0.0
  0
LINE
  5
94A8
  8
0
 10
13.7671789120099
 20
38.86087855138522
 30
0.0
 11
13.76717891200992
 21
2.5123008033000049
 31
0.0
  0
LINE
  5
94A9
  8
0
 10
15.14737126421498
 20
38.86087855138522
 30
0.0
 11
15.14737126421501
 21
2.5123008033000058
 31
0.0
  0
LINE
  5
94AA
  8
0
 10
16.512624983834868
 20
38.86087855138522
 30
0.0
 11
16.5126249838349
 21
2.512300803300008
 31
0.0
  0
LINE
  5
94AB
  8
0
 10
17.877959467372118
 20
38.86087855138522
 30
0.0
 11
17.87795946737215
 21
2.512300803300008
 31
0.0
  0
LINE
  5
94AC
  8
0
 10
19.260677576486771
 20
38.860878551385227
 30
0.0
 11
19.260677576486799
 21
2.5123008033000098
 31
0.0
  0
LINE
  5
94AD
  8
0
 10
20.636100011731219
 20
38.860878551385227
 30
0.0
 11
20.636100011731241
 21
2.7972918080261611
 31
0.0
  0
LINE
  5
94AE
  8
0
 10
22.007851457717539
 20
38.860878551385227
 30
0.0
 11
22.007851457717571
 21
2.512300803300012
 31
0.0
  0
LINE
  5
94AF
  8
0
 10
23.384390588726369
 20
38.860878551385227
 30
0.0
 11
23.384390588726411
 21
-15.62326175340003
 31
0.0
  0
LINE
  5
94B0
  8
0
 10
26.053604675786509
 20
38.860878551385227
 30
0.0
 11
26.05360467578652
 21
26.602300803300011
 31
0.0
  0
LINE
  5
94B1
  8
0
 10
27.323940706827049
 20
38.860878551385227
 30
0.0
 11
27.32394070682707
 21
26.602300803300011
 31
0.0
  0
LINE
  5
94B2
  8
0
 10
28.54233518980686
 20
38.860878551385227
 30
0.0
 11
28.54233518980687
 21
26.602300803300011
 31
0.0
  0
LINE
  5
94B3
  8
0
 10
29.70366529977677
 20
38.860878551385227
 30
0.0
 11
29.70366529977678
 21
26.602300803300011
 31
0.0
  0
LINE
  5
94B4
  8
0
 10
30.798936444376672
 20
38.860878551385227
 30
0.0
 11
30.798936444376679
 21
26.602300803300011
 31
0.0
  0
LINE
  5
94B5
  8
0
 10
31.818891694899978
 20
38.860878551385227
 30
0.0
 11
31.818891694899978
 21
26.602300803300011
 31
0.0
  0
LINE
  5
94B6
  8
0
 10
32.753082416814088
 20
38.860878551385227
 30
0.0
 11
32.753082416814102
 21
28.227300803300022
 31
0.0
  0
LINE
  5
94B7
  8
0
 10
33.585780047499973
 20
38.860878551385227
 30
0.0
 11
33.585780047499981
 21
26.595315404820081
 31
0.0
  0
LINE
  5
94B8
  8
0
 10
34.298568869999983
 20
38.860878551385227
 30
0.0
 11
34.298568869999983
 21
26.595315404820081
 31
0.0
  0
LINE
  5
94B9
  8
0
 10
34.862534474099967
 20
38.860878551385227
 30
0.0
 11
34.862534474099967
 21
26.595315404820081
 31
0.0
  0
CIRCLE
  5
96FC
  8
0
 10
-21.703891633200001
 20
39.952300803299998
 30
0.0
 40
0.0939999999999981
  0
CIRCLE
  5
96FD
  8
0
 10
-20.953891633200001
 20
39.952300803299998
 30
0.0
 40
0.0939999999999981
  0
CIRCLE
  5
96FE
  8
0
 10
-20.203891633200001
 20
39.952300803299998
 30
0.0
 40
0.0939999999999981
  0
CIRCLE
  5
96FF
  8
0
 10
-19.453891633200001
 20
39.952300803299998
 30
0.0
 40
0.0939999999999981
  0
CIRCLE
  5
9700
  8
0
 10
-18.703891633200001
 20
39.952300803299998
 30
0.0
 40
0.0939999999999981
  0
CIRCLE
  5
9701
  8
0
 10
-17.953891633200001
 20
39.952300803299998
 30
0.0
 40
0.0939999999999981
  0
CIRCLE
  5
9702
  8
0
 10
-17.203891633200001
 20
39.952300803299998
 30
0.0
 40
0.0939999999999981
  0
CIRCLE
  5
9703
  8
0
 10
-16.453891633200001
 20
39.952300803299998
 30
0.0
 40
0.0939999999999981
  0
CIRCLE
  5
9704
  8
0
 10
-15.7038916332
 20
39.952300803299998
 30
0.0
 40
0.0939999999999981
  0
CIRCLE
  5
9705
  8
0
 10
-14.9538916332
 20
39.952300803299998
 30
0.0
 40
0.0939999999999981
  0
CIRCLE
  5
9706
  8
0
 10
-14.2038916332
 20
39.952300803299998
 30
0.0
 40
0.0939999999999981
  0
CIRCLE
  5
9707
  8
0
 10
-13.4538916332
 20
39.952300803299998
 30
0.0
 40
0.0939999999999981
  0
CIRCLE
  5
9708
  8
0
 10
-12.7038916332
 20
39.952300803299998
 30
0.0
 40
0.0939999999999981
  0
CIRCLE
  5
9709
  8
0
 10
-11.9538916332
 20
39.952300803299998
 30
0.0
 40
0.0939999999999981
  0
CIRCLE
  5
970A
  8
0
 10
-11.2038916332
 20
39.952300803299998
 30
0.0
 40
0.0939999999999981
  0
CIRCLE
  5
970B
  8
0
 10
-10.4538916332
 20
39.952300803299998
 30
0.0
 40
0.0939999999999981
  0
CIRCLE
  5
970C
  8
0
 10
-9.7038916332000014
 20
39.952300803299998
 30
0.0
 40
0.0939999999999981
  0
CIRCLE
  5
970D
  8
0
 10
-8.9538916332000014
 20
39.952300803299998
 30
0.0
 40
0.0939999999999981
  0
CIRCLE
  5
970E
  8
0
 10
-8.2038916332000014
 20
39.952300803299998
 30
0.0
 40
0.0939999999999981
  0
CIRCLE
  5
970F
  8
0
 10
-7.4538916332000014
 20
39.952300803299998
 30
0.0
 40
0.0939999999999981
  0
CIRCLE
  5
9710
  8
0
 10
-6.7038916332000014
 20
39.952300803299998
 30
0.0
 40
0.0939999999999981
  0
CIRCLE
  5
9711
  8
0
 10
-5.9538916332000014
 20
39.952300803299998
 30
0.0
 40
0.0939999999999981
  0
CIRCLE
  5
9712
  8
0
 10
-5.2038916332000014
 20
39.952300803299998
 30
0.0
 40
0.0939999999999981
  0
CIRCLE
  5
9713
  8
0
 10
-4.4538916332000014
 20
39.952300803299998
 30
0.0
 40
0.0939999999999981
  0
CIRCLE
  5
9714
  8
0
 10
-3.7038916332000009
 20
39.952300803299998
 30
0.0
 40
0.0939999999999981
  0
CIRCLE
  5
9715
  8
0
 10
-2.9538916332000009
 20
39.952300803299998
 30
0.0
 40
0.0939999999999981
  0
CIRCLE
  5
9716
  8
0
 10
-2.2038916332000009
 20
39.952300803299998
 30
0.0
 40
0.0939999999999981
  0
CIRCLE
  5
9717
  8
0
 10
-1.4538916332000009
 20
39.952300803299998
 30
0.0
 40
0.0939999999999981
  0
CIRCLE
  5
9718
  8
0
 10
-0.7038916332000014
 20
39.952300803299998
 30
0.0
 40
0.0939999999999981
  0
CIRCLE
  5
9719
  8
0
 10
0.0461083667999986
 20
39.952300803299998
 30
0.0
 40
0.0939999999999981
  0
CIRCLE
  5
971A
  8
0
 10
0.7961083667999988
 20
39.952300803299998
 30
0.0
 40
0.0939999999999981
  0
CIRCLE
  5
971B
  8
0
 10
1.546108366799998
 20
39.952300803299998
 30
0.0
 40
0.0939999999999981
  0
CIRCLE
  5
971C
  8
0
 10
2.2961083667999982
 20
39.952300803299998
 30
0.0
 40
0.0939999999999981
  0
CIRCLE
  5
971D
  8
0
 10
3.0461083667999982
 20
39.952300803299998
 30
0.0
 40
0.0939999999999981
  0
CIRCLE
  5
971E
  8
0
 10
3.7961083667999982
 20
39.952300803299998
 30
0.0
 40
0.0939999999999981
  0
CIRCLE
  5
971F
  8
0
 10
4.5461083667999977
 20
39.952300803299998
 30
0.0
 40
0.0939999999999981
  0
CIRCLE
  5
9720
  8
0
 10
5.2961083667999977
 20
39.952300803299998
 30
0.0
 40
0.0939999999999981
  0
CIRCLE
  5
9721
  8
0
 10
6.0461083667999977
 20
39.952300803299998
 30
0.0
 40
0.0939999999999981
  0
CIRCLE
  5
9722
  8
0
 10
6.7961083667999977
 20
39.952300803299998
 30
0.0
 40
0.0939999999999981
  0
CIRCLE
  5
9723
  8
0
 10
7.5461083667999977
 20
39.952300803299998
 30
0.0
 40
0.0939999999999981
  0
CIRCLE
  5
9724
  8
0
 10
8.2961083667999986
 20
39.952300803299998
 30
0.0
 40
0.0939999999999981
  0
CIRCLE
  5
9725
  8
0
 10
9.0461083667999986
 20
39.952300803299998
 30
0.0
 40
0.0939999999999981
  0
CIRCLE
  5
9726
  8
0
 10
9.7961083667999986
 20
39.952300803299998
 30
0.0
 40
0.0939999999999981
  0
CIRCLE
  5
9727
  8
0
 10
10.5461083668
 20
39.952300803299998
 30
0.0
 40
0.0939999999999981
  0
CIRCLE
  5
9728
  8
0
 10
11.2961083668
 20
39.952300803299998
 30
0.0
 40
0.0939999999999981
  0
CIRCLE
  5
9729
  8
0
 10
12.0461083668
 20
39.952300803299998
 30
0.0
 40
0.0939999999999981
  0
CIRCLE
  5
972A
  8
0
 10
12.7961083668
 20
39.952300803299998
 30
0.0
 40
0.0939999999999981
  0
CIRCLE
  5
972B
  8
0
 10
13.5461083668
 20
39.952300803299998
 30
0.0
 40
0.0939999999999981
  0
CIRCLE
  5
972C
  8
0
 10
14.2961083668
 20
39.952300803299998
 30
0.0
 40
0.0939999999999981
  0
CIRCLE
  5
972D
  8
0
 10
15.0461083668
 20
39.952300803299998
 30
0.0
 40
0.0939999999999981
  0
CIRCLE
  5
972E
  8
0
 10
15.7961083668
 20
39.952300803299998
 30
0.0
 40
0.0939999999999981
  0
CIRCLE
  5
972F
  8
0
 10
16.546108366799999
 20
39.952300803299998
 30
0.0
 40
0.0939999999999981
  0
CIRCLE
  5
9730
  8
0
 10
17.296108366799999
 20
39.952300803299998
 30
0.0
 40
0.0939999999999981
  0
CIRCLE
  5
9731
  8
0
 10
18.046108366799999
 20
39.952300803299998
 30
0.0
 40
0.0939999999999981
  0
CIRCLE
  5
9732
  8
0
 10
18.796108366799999
 20
39.952300803299998
 30
0.0
 40
0.0939999999999981
  0
CIRCLE
  5
9733
  8
0
 10
19.546108366799999
 20
39.952300803299998
 30
0.0
 40
0.0939999999999981
  0
CIRCLE
  5
9734
  8
0
 10
20.296108366799999
 20
39.952300803299998
 30
0.0
 40
0.0939999999999981
  0
CIRCLE
  5
9735
  8
0
 10
21.046108366799999
 20
39.952300803299998
 30
0.0
 40
0.0939999999999981
  0
CIRCLE
  5
9736
  8
0
 10
21.796108366799999
 20
39.952300803299998
 30
0.0
 40
0.0939999999999981
  0
CIRCLE
  5
9737
  8
0
 10
22.546108366799999
 20
39.952300803299998
 30
0.0
 40
0.0939999999999981
  0
CIRCLE
  5
9738
  8
0
 10
23.296108366799999
 20
39.952300803299998
 30
0.0
 40
0.0939999999999981
  0
CIRCLE
  5
9739
  8
0
 10
24.046108366799999
 20
39.952300803299998
 30
0.0
 40
0.0939999999999981
  0
CIRCLE
  5
973A
  8
0
 10
24.796108366799999
 20
39.952300803299998
 30
0.0
 40
0.0939999999999981
  0
CIRCLE
  5
973B
  8
0
 10
25.546108366799999
 20
39.952300803299998
 30
0.0
 40
0.0939999999999981
  0
CIRCLE
  5
973C
  8
0
 10
26.296108366799999
 20
39.952300803299998
 30
0.0
 40
0.0939999999999981
  0
CIRCLE
  5
973D
  8
0
 10
27.046108366799999
 20
39.952300803299998
 30
0.0
 40
0.0939999999999981
  0
CIRCLE
  5
973E
  8
0
 10
27.796108366799999
 20
39.952300803299998
 30
0.0
 40
0.0939999999999981
  0
CIRCLE
  5
973F
  8
0
 10
28.546108366799999
 20
39.952300803299998
 30
0.0
 40
0.0939999999999981
  0
CIRCLE
  5
9740
  8
0
 10
29.296108366799999
 20
39.952300803299998
 30
0.0
 40
0.0939999999999981
  0
CIRCLE
  5
9741
  8
0
 10
30.046108366799999
 20
39.952300803299998
 30
0.0
 40
0.0939999999999981
  0
CIRCLE
  5
9742
  8
0
 10
30.796108366799999
 20
39.952300803299998
 30
0.0
 40
0.0939999999999981
  0
CIRCLE
  5
9743
  8
0
 10
31.546108366799999
 20
39.952300803299998
 30
0.0
 40
0.0939999999999981
  0
CIRCLE
  5
9744
  8
0
 10
32.296108366799999
 20
39.952300803299998
 30
0.0
 40
0.0939999999999981
  0
CIRCLE
  5
9745
  8
0
 10
33.046108366799999
 20
39.952300803299998
 30
0.0
 40
0.0939999999999981
  0
CIRCLE
  5
9746
  8
0
 10
33.796108366799999
 20
39.952300803299998
 30
0.0
 40
0.0939999999999981
  0
CIRCLE
  5
9747
  8
0
 10
34.546108366799999
 20
39.952300803299998
 30
0.0
 40
0.0939999999999981
  0
CIRCLE
  5
9748
  8
0
 10
35.296108366799999
 20
39.952300803299998
 30
0.0
 40
0.0939999999999981
  0
ATTDEF
  5
A508
  8
DEFPOINTS
 10
6.8870485535566033
 20
-32.903592573293778
 30
0.0
 40
0.001
  1
71140113-V
  3

  2
MODELNUMBER
 70
     0
1001
AcDbAttr
1070
     0
1070
     1
  0
ATTDEF
  5
A509
  8
DEFPOINTS
 10
6.8870485535566033
 20
-32.905259239960451
 30
0.0
 40
0.001
  1
ACCORD
  3

  2
TRADENAME
 70
     0
1001
AcDbAttr
1070
     0
1070
     1
  0
ATTDEF
  5
A50A
  8
DEFPOINTS
 10
6.8870485535566033
 20
-32.906925906627123
 30
0.0
 40
0.001
  1
BATH/SHOWER UNIT
  3

  2
PRODUCT
 70
     0
1001
AcDbAttr
1070
     0
1070
     1
  0
ATTDEF
  5
A50B
  8
DEFPOINTS
 10
6.8870485535566033
 20
-32.908592573293788
 30
0.0
 40
0.001
  1
VIKRELL
  3

  2
MATERIAL
 70
     0
1001
AcDbAttr
1070
     0
1070
     1
  0
ENDSEC
  0
EOF
