  0
SECTION
  2
HEADER
  9
$ACADVER
  1
AC1009
  9
$INSBASE
 10
60.010085522449998
 20
-4.6323829982999989
 30
0.0
  9
$EXTMIN
 10
43.960085541199987
 20
-4.6459323644686616
 30
0.0
  9
$EXTMAX
 10
76.060085503699995
 20
16.367617001700001
 30
0.0
  9
$LIMMIN
 10
0.0
 20
0.0
  9
$LIMMAX
 10
11.692913385800001
 20
8.2677165353999982
  9
$ORTHOMODE
 70
     0
  9
$REGENMODE
 70
     1
  9
$FILLMODE
 70
     1
  9
$QTEXTMODE
 70
     0
  9
$MIRRTEXT
 70
     0
  9
$DRAGMODE
 70
     2
  9
$LTSCALE
 40
0.6431102362
  9
$OSMODE
 70
    47
  9
$ATTMODE
 70
     1
  9
$TEXTSIZE
 40
0.2
  9
$TRACEWID
 40
0.05
  9
$TEXTSTYLE
  7
STANDARD
  9
$CLAYER
  8
0
  9
$CELTYPE
  6
BYLAYER
  9
$CECOLOR
 62
     1
  9
$DIMSCALE
 40
1.0
  9
$DIMASZ
 40
0.1875
  9
$DIMEXO
 40
0.0625
  9
$DIMDLI
 40
0.4443307087
  9
$DIMRND
 40
0.0
  9
$DIMDLE
 40
0.0
  9
$DIMEXE
 40
0.125
  9
$DIMTP
 40
0.0
  9
$DIMTM
 40
0.0
  9
$DIMTXT
 40
0.15625
  9
$DIMCEN
 40
0.1052362205
  9
$DIMTSZ
 40
0.0
  9
$DIMTOL
 70
     0
  9
$DIMLIM
 70
     0
  9
$DIMTIH
 70
     1
  9
$DIMTOH
 70
     1
  9
$DIMSE1
 70
     0
  9
$DIMSE2
 70
     0
  9
$DIMTAD
 70
     0
  9
$DIMZIN
 70
     0
  9
$DIMBLK
  1

  9
$DIMASO
 70
     1
  9
$DIMSHO
 70
     1
  9
$DIMPOST
  1

  9
$DIMAPOST
  1

  9
$DIMALT
 70
     0
  9
$DIMALTD
 70
     2
  9
$DIMALTF
 40
25.399999999999999
  9
$DIMLFAC
 40
1.0
  9
$DIMTOFL
 70
     0
  9
$DIMTVP
 40
0.0
  9
$DIMTIX
 70
     0
  9
$DIMSOXD
 70
     0
  9
$DIMSAH
 70
     0
  9
$DIMBLK1
  1

  9
$DIMBLK2
  1

  9
$DIMSTYLE
  2
STANDARD
  9
$DIMCLRD
 70
     0
  9
$DIMCLRE
 70
     0
  9
$DIMCLRT
 70
     0
  9
$DIMTFAC
 40
1.0
  9
$DIMGAP
 40
0.09
  9
$LUNITS
 70
     2
  9
$LUPREC
 70
     4
  9
$SKETCHINC
 40
0.1
  9
$FILLETRAD
 40
0.0
  9
$AUNITS
 70
     0
  9
$AUPREC
 70
     0
  9
$MENU
  1
.
  9
$ELEVATION
 40
0.0
  9
$PELEVATION
 40
0.0
  9
$THICKNESS
 40
0.0
  9
$LIMCHECK
 70
     0
  9
$BLIPMODE
 70
     0
  9
$CHAMFERA
 40
0.0
  9
$CHAMFERB
 40
0.0
  9
$SKPOLY
 70
     0
  9
$TDCREATE
 40
2457445.627867627
  9
$TDUPDATE
 40
2457448.597302835
  9
$TDINDWG
 40
2.8670901505000002
  9
$TDUSRTIMER
 40
2.8670901505000002
  9
$USRTIMER
 70
     1
  9
$ANGBASE
 50
0.0
  9
$ANGDIR
 70
     0
  9
$PDMODE
 70
     0
  9
$PDSIZE
 40
0.3125
  9
$PLINEWID
 40
0.0
  9
$COORDS
 70
     0
  9
$SPLFRAME
 70
     0
  9
$SPLINETYPE
 70
     6
  9
$SPLINESEGS
 70
     8
  9
$ATTDIA
 70
     1
  9
$ATTREQ
 70
     1
  9
$HANDLING
 70
     1
  9
$HANDSEED
  5
E62
  9
$SURFTAB1
 70
     6
  9
$SURFTAB2
 70
     6
  9
$SURFTYPE
 70
     6
  9
$SURFU
 70
     6
  9
$SURFV
 70
     6
  9
$UCSNAME
  2

  9
$UCSORG
 10
0.0
 20
0.0
 30
0.0
  9
$UCSXDIR
 10
1.0
 20
0.0
 30
0.0
  9
$UCSYDIR
 10
0.0
 20
1.0
 30
0.0
  9
$PUCSNAME
  2

  9
$PUCSORG
 10
0.0
 20
0.0
 30
0.0
  9
$PUCSXDIR
 10
1.0
 20
0.0
 30
0.0
  9
$PUCSYDIR
 10
0.0
 20
1.0
 30
0.0
  9
$USERI1
 70
     0
  9
$USERI2
 70
     0
  9
$USERI3
 70
     0
  9
$USERI4
 70
     0
  9
$USERI5
 70
     0
  9
$USERR1
 40
0.0
  9
$USERR2
 40
0.0
  9
$USERR3
 40
0.0
  9
$USERR4
 40
0.0
  9
$USERR5
 40
0.0
  9
$WORLDVIEW
 70
     1
  9
$SHADEDGE
 70
     3
  9
$SHADEDIF
 70
    70
  9
$TILEMODE
 70
     1
  9
$MAXACTVP
 70
    48
  9
$PLIMCHECK
 70
     0
  9
$PEXTMIN
 10
1.0000000000000000E+020
 20
1.0000000000000000E+020
 30
1.0000000000000000E+020
  9
$PEXTMAX
 10
-1.0000000000000000E+020
 20
-1.0000000000000000E+020
 30
-1.0000000000000000E+020
  9
$PLIMMIN
 10
0.0
 20
0.0
  9
$PLIMMAX
 10
12.0
 20
9.0
  9
$UNITMODE
 70
     0
  9
$VISRETAIN
 70
     1
  9
$PLINEGEN
 70
     0
  9
$PSLTSCALE
 70
     1
  0
ENDSEC
  0
SECTION
  2
TABLES
  0
TABLE
  2
VPORT
 70
     1
  0
VPORT
  2
*ACTIVE
 70
     0
 10
0.0
 20
0.0
 11
1.0
 21
1.0
 12
13.03062582470641
 22
-17.822251852205529
 13
0.0
 23
0.0
 14
1.0
 24
1.0
 15
0.0
 25
0.0
 16
-0.0000000000000213
 26
0.0
 36
105.2351184247271
 17
60.013354401771593
 27
5.8676163082072943
 37
0.0
 40
57.993727309957841
 41
2.0148619957537148
 42
50.0
 43
0.0
 44
0.0
 50
0.0
 51
0.0
 71
     0
 72
   100
 73
     1
 74
     1
 75
     0
 76
     0
 77
     0
 78
     0
  0
ENDTAB
  0
TABLE
  2
LTYPE
 70
     1
  0
LTYPE
  2
CONTINUOUS
 70
     0
  3
Solid line
 72
    65
 73
     0
 40
0.0
  0
ENDTAB
  0
TABLE
  2
LAYER
 70
     2
  0
LAYER
  2
0
 70
     0
 62
     7
  6
CONTINUOUS
  0
LAYER
  2
DEFPOINTS
 70
     0
 62
     7
  6
CONTINUOUS
  0
ENDTAB
  0
TABLE
  2
STYLE
 70
     1
  0
STYLE
  2
STANDARD
 70
     0
 40
0.0
 41
0.8
 50
0.0
 71
     0
 42
0.2
  3
txt
  4

  0
ENDTAB
  0
TABLE
  2
VIEW
 70
     8
  0
ENDTAB
  0
TABLE
  2
UCS
 70
     0
  0
ENDTAB
  0
TABLE
  2
APPID
 70
     5
  0
APPID
  2
ACAD
 70
     0
  0
APPID
  2
ACAD_MLEADERVER
 70
     0
  0
APPID
  2
ACAD_NAV_VCDISPLAY
 70
     0
  0
APPID
  2
ACAD_EXEMPT_FROM_CAD_STANDARDS
 70
     0
  0
APPID
  2
ACDBATTR
 70
     0
  0
ENDTAB
  0
TABLE
  2
DIMSTYLE
 70
     1
  0
DIMSTYLE
  2
STANDARD
 70
     0
  3

  4

  5

  6

  7

 40
1.0
 41
0.1875
 42
0.0625
 43
0.38
 44
0.125
 45
0.0
 46
0.0
 47
1.5
 48
1.5
140
0.15625
141
0.09
142
0.0
143
25.399999999999999
144
1.0
145
0.0
146
1.0
147
0.09
 71
     0
 72
     0
 73
     1
 74
     1
 75
     0
 76
     0
 77
     0
 78
     4
170
     0
171
     2
172
     0
173
     0
174
     0
175
     0
176
     0
177
     0
178
     0
  0
ENDTAB
  0
ENDSEC
  0
SECTION
  2
BLOCKS
  0
BLOCK
  8
0
  2
$MODEL_SPACE
 70
     0
 10
0.0
 20
0.0
 30
0.0
  3
$MODEL_SPACE
  1

  0
ENDBLK
  5
21
  8
0
  0
BLOCK
 67
     1
  8
0
  2
$PAPER_SPACE
 70
     0
 10
0.0
 20
0.0
 30
0.0
  3
$PAPER_SPACE
  1

  0
ENDBLK
  5
1D
 67
     1
  8
0
  0
ENDSEC
  0
SECTION
  2
ENTITIES
  0
LINE
  5
4BF
  8
0
 10
44.360056891799999
 20
-4.4277829982999988
 30
0.0
 11
44.331854244699997
 21
-4.1269137941
 31
0.0
  0
LINE
  5
4C1
  8
0
 10
44.716865178799999
 20
-4.4068652678999989
 30
0.0
 11
44.260084720794751
 21
11.81669469248126
 31
0.0
  0
LINE
  5
4C4
  8
0
 10
43.960085541200002
 20
-4.6323829982999989
 30
0.0
 11
43.960085541200002
 21
-4.5617614656000001
 31
0.0
  0
LINE
  5
4C5
  8
0
 10
44.060085541199989
 20
15.867617001699999
 30
0.0
 11
44.060085541199989
 21
-4.4131994580000002
 31
0.0
  0
LINE
  5
4C6
  8
0
 10
44.260084518753139
 20
15.867617001699999
 30
0.0
 11
44.260085541199999
 21
-4.6323829982999989
 31
0.0
  0
LINE
  5
520
  8
0
 10
44.260085541199999
 20
-4.6323829982999989
 30
0.0
 11
43.960085541200002
 21
-4.6323829982999989
 31
0.0
  0
LINE
  5
521
  8
0
 10
51.897690362600002
 20
-4.6323829982999989
 30
0.0
 11
52.398911360134598
 21
-4.6323843852854134
 31
0.0
  0
LINE
  5
522
  8
0
 10
54.337802170899991
 20
-4.6323829982999989
 30
0.0
 11
54.9595306724
 21
-4.6323829982999989
 31
0.0
  0
LINE
  5
523
  8
0
 10
59.768695794799989
 20
-4.6323829982999989
 30
0.0
 11
60.95441661209999
 21
-4.6323829982999989
 31
0.0
  0
LINE
  5
524
  8
0
 10
66.332776735300001
 20
-4.6323829982999989
 30
0.0
 11
66.988344304500004
 21
-4.6323829982999989
 31
0.0
  0
LINE
  5
546
  8
0
 10
51.872554724695291
 20
-4.3932333780799064
 30
0.0
 11
51.897690362600002
 21
-4.6323829982999989
 31
0.0
  0
LINE
  5
563
  8
0
 10
44.331854244699997
 20
-4.1269137941
 30
0.0
 11
44.260085540799999
 21
-4.1319321034999996
 31
0.0
  0
LINE
  5
565
  8
0
 10
44.360056891799999
 20
-4.4277829982999988
 30
0.0
 11
44.716865178799999
 21
-4.4068652678999989
 31
0.0
  0
LINE
  5
5D4
  8
0
 10
49.913098412399989
 20
11.9974370847
 30
0.0
 11
49.854839746099998
 21
12.5016170017
 31
0.0
  0
LINE
  5
5D7
  8
0
 10
52.398911311699997
 20
-4.6323829982999989
 30
0.0
 11
52.39111913179498
 21
-4.408946294647559
 31
0.0
  0
LINE
  5
5F7
  8
0
 10
51.579263241799993
 20
11.998574877999999
 30
0.0
 11
51.466314594799996
 21
12.938761879199999
 31
0.0
  0
LINE
  5
5F8
  8
0
 10
54.320541024631538
 20
-4.4681541622035184
 30
0.0
 11
54.337802170899991
 21
-4.6323829982999989
 31
0.0
  0
LINE
  5
619
  8
0
 10
54.9595306724
 20
-4.6323829982999989
 30
0.0
 11
54.95448719780871
 21
-4.4879567828183724
 31
0.0
  0
LINE
  5
676
  8
0
 10
59.762636935374537
 20
-4.5771287352869194
 30
0.0
 11
59.768695794799989
 21
-4.6323829982999989
 31
0.0
  0
LINE
  5
6CD
  8
0
 10
60.95441661209999
 20
-4.6323829982999989
 30
0.0
 11
60.952572172820233
 21
-4.579565167261733
 31
0.0
  0
LINE
  5
715
  8
0
 10
66.24019360086163
 20
-3.7922744551343608
 30
0.0
 11
66.332776735300001
 21
-4.6323829982999989
 31
0.0
  0
LINE
  5
72A
  8
0
 10
66.875178473448912
 20
-3.7733625112343532
 30
0.0
 11
66.901896598800008
 21
-4.4150825059000001
 31
0.0
  0
LINE
  5
72C
  8
0
 10
66.914193036200004
 20
-4.6323829982999989
 30
0.0
 11
66.908344073400002
 21
-4.4648906188000002
 31
0.0
  0
LINE
  5
745
  8
0
 10
49.913098412399989
 20
11.9974370847
 30
0.0
 11
49.823471469399998
 21
11.997445317
 31
0.0
  0
LINE
  5
746
  8
0
 10
51.57927566539999
 20
11.998543998200001
 30
0.0
 11
51.48599697689999
 21
11.998551344599999
 31
0.0
  0
LINE
  5
751
  8
0
 10
66.988344304500004
 20
-4.6323829982999989
 30
0.0
 11
66.982415295486632
 21
-4.4625983956912023
 31
0.0
  0
LINE
  5
782
  8
0
 10
45.007253661643993
 20
12.50161080459362
 30
0.0
 11
50.849886404229743
 21
12.5016168684659
 31
0.0
  0
LINE
  5
787
  8
0
 10
44.260084653759549
 20
13.16074649249423
 30
0.0
 11
74.285556853172267
 21
13.18181245679412
 31
0.0
  0
LINE
  5
7AC
  8
0
 10
75.862851033294262
 20
14.86761504990001
 30
0.0
 11
75.749012730499999
 21
14.867617001699999
 31
0.0
  0
LINE
  5
7D3
  8
0
 10
75.944007883699996
 20
15.117617001699999
 30
0.0
 11
44.260084556159732
 21
15.117617001699999
 31
0.0
  0
LINE
  5
7D9
  8
0
 10
44.060085541199989
 20
15.867617001699999
 30
0.0
 11
44.435085541200003
 21
15.867617001699999
 31
0.0
  0
LINE
  5
7F5
  8
0
 10
44.935085541199989
 20
16.367617001700001
 30
0.0
 11
76.060085503699995
 21
16.367617001700001
 31
0.0
  0
LINE
  5
7FA
  8
0
 10
72.926417823599991
 20
5.8355616033000004
 30
0.0
 11
73.669032676599997
 21
12.9939278628
 31
0.0
  0
LINE
  5
815
  8
0
 10
75.048655753600002
 20
13.848487459299999
 30
0.0
 11
75.070758215300003
 21
15.117617001699999
 31
0.0
  0
LINE
  5
818
  8
0
 10
75.587676064999997
 20
15.117617001699999
 30
0.0
 11
75.599834446199992
 21
15.0019377322
 31
0.0
  0
LINE
  5
81E
  8
0
 10
76.012759657299995
 20
15.0123820772
 30
0.0
 11
76.060085503699995
 21
16.367617001700001
 31
0.0
  0
ARC
  5
82A
  8
0
 10
43.95943677490385
 20
-4.413001086686732
 30
0.0
 40
0.1006489617835966
 50
292.29254905136253
 51
359.88707438026393
  0
ARC
  5
82B
  8
0
 10
44.020085541199997
 20
-4.5617614656000001
 30
0.0
 40
0.06
 50
111.9923914858
 51
180.0
  0
ARC
  5
82C
  8
0
 10
45.007261911679841
 20
11.751603747544371
 30
0.0
 40
0.7500070570946186
 50
90.000630250383409
 51
175.0212014392458
  0
ARC
  5
82E
  8
0
 10
44.935085541199989
 20
15.867617001699999
 30
0.0
 40
0.5
 50
90.0
 51
180.0
  0
ARC
  5
836
  8
0
 10
74.373756525700003
 20
13.860151090900001
 30
0.0
 40
0.67496055
 50
271.16520962829998
 51
359.0099110159
  0
ARC
  5
838
  8
0
 10
75.749012730499999
 20
15.0176170017
 30
0.0
 40
0.15
 50
186.0
 51
270.0
  0
ARC
  5
839
  8
0
 10
75.8628509654
 20
15.017615042999999
 30
0.0
 40
0.1499999931
 50
270.00002593369999
 51
358.00074836419998
  0
ARC
  5
B0C
  8
0
 10
75.944007883681081
 20
15.192617001750319
 30
0.0
 40
0.0750000000503217
 50
270.00000001444971
 51
357.99999939484229
  0
ARC
  5
B0D
  8
0
 10
73.862434929085495
 20
12.950762460749569
 30
0.0
 40
0.198160750908547
 50
96.340176895901976
 51
167.41837611602111
  0
ARC
  5
B0E
  8
0
 10
74.56177655094065
 20
6.6566730009909634
 30
0.0
 40
6.5309832520926268
 50
91.529252638436915
 51
96.340176895902047
  0
ARC
  5
B0F
  8
0
 10
72.505259501808609
 20
5.8931707298626854
 30
0.0
 40
0.425080161237205
 50
273.72789321300371
 51
352.21100208410559
  0
ARC
  5
B10
  8
0
 10
71.697885566687475
 20
32.501099225132641
 30
0.0
 40
27.045002750993529
 50
268.35323021138731
 51
271.7692828275446
  0
ARC
  5
B11
  8
0
 10
-534.60517229282027
 20
113.2886222396212
 30
0.0
 40
616.43913612220911
 50
349.15148573977081
 51
349.9193724057701
  0
ARC
  5
B12
  8
0
 10
69.68053939152793
 20
-2.5154164705272959
 30
0.0
 40
1.1572521637741939
 50
265.82852372743679
 51
349.15148573977109
  0
ARC
  5
B13
  8
0
 10
72.406910805268808
 20
5.3756632170233773
 30
0.0
 40
0.0905698281508696
 50
99.439448500802783
 51
170.3078908208864
  0
LINE
  5
B14
  8
0
 10
70.692114728623025
 20
-3.0775089077126712
 30
0.0
 11
70.705921046172762
 21
-3.4728699683019029
 31
0.0
  0
ARC
  5
B15
  8
0
 10
69.631237501738681
 20
-3.2915646061030088
 30
0.0
 40
1.089869879866141
 50
270.73264320842082
 51
350.42403867031271
  0
ARC
  5
B21
  8
0
 10
165.1540183135385
 20
-3177.9915988708758
 30
0.0
 40
3175.047083193595
 50
91.723778954338997
 51
91.773189816824086
  0
ARC
  5
B22
  8
0
 10
59.971601652971557
 20
193.98136515333701
 30
0.0
 40
198.5633526006751
 50
270.17029181461157
 51
271.83101258344692
  0
LINE
  5
B24
  8
0
 10
48.197105014908558
 20
5.8355616033000004
 30
0.0
 11
47.557866381922501
 21
11.99744248091862
 31
0.0
  0
ARC
  5
B2D
  8
0
 10
48.61826333669994
 20
5.8931707298626854
 30
0.0
 40
0.425080161237205
 50
187.78899791589441
 51
266.27210678699589
  0
ARC
  5
B2E
  8
0
 10
49.42563727182106
 20
32.501099225132641
 30
0.0
 40
27.045002750993529
 50
268.23071717245512
 51
271.64676978861257
  0
ARC
  5
B2F
  8
0
 10
655.72869513132878
 20
113.2886222396212
 30
0.0
 40
616.43913612220911
 50
190.0806275942299
 51
190.84851426022919
  0
ARC
  5
B30
  8
0
 10
51.44298344698062
 20
-2.5154164705272959
 30
0.0
 40
1.1572521637741939
 50
190.8485142602288
 51
274.17147627256332
  0
ARC
  5
B31
  8
0
 10
48.716612033239741
 20
5.3756632170233773
 30
0.0
 40
0.0905698281508696
 50
9.692109179113622
 51
80.560551499197075
  0
LINE
  5
B32
  8
0
 10
50.431408109885503
 20
-3.077508907712641
 30
0.0
 11
50.417601792335788
 21
-3.4728699683019029
 31
0.0
  0
ARC
  5
B33
  8
0
 10
51.492285336769861
 20
-3.2915646061030088
 30
0.0
 40
1.089869879866141
 50
189.57596132968729
 51
269.26735679157957
  0
ARC
  5
B34
  8
0
 10
-44.030495475029973
 20
-3177.9915988708758
 30
0.0
 40
3175.047083193595
 50
88.224907941143897
 51
88.276221045661217
  0
ARC
  5
B35
  8
0
 10
61.305153408670783
 20
208.9747242862297
 30
0.0
 40
213.5571285874295
 50
268.12574651925348
 51
269.80055308938131
  0
LINE
  5
B36
  8
0
 10
50.202845685389143
 20
5.4672663321977844
 30
0.0
 11
70.920677153119328
 21
5.467266332197787
 31
0.0
  0
ARC
  5
B37
  8
0
 10
60.561761419254204
 20
197.53553618552769
 30
0.0
 40
201.40787454666071
 50
267.42900786526502
 51
272.57099213473498
  0
ARC
  5
B3A
  8
0
 10
63.92033997271092
 20
12.69314458210417
 30
0.0
 40
0.1813422685008367
 50
352.53401745794952
 51
71.006625909664322
  0
ARC
  5
B3B
  8
0
 10
63.2892812856714
 20
10.859728339747759
 30
0.0
 40
2.12032400751345
 50
71.006625909664365
 51
87.222660263708391
  0
ARC
  5
B3C
  8
0
 10
61.1807803514263
 20
-32.604010411153908
 30
0.0
 40
45.635176212207242
 50
87.222660263708363
 51
90.779567255758366
  0
ARC
  5
B3D
  8
0
 10
55.061205250086523
 20
12.94025405452593
 30
0.0
 40
9.0429913662382777
 50
323.93691090555672
 51
358.28478035064171
  0
ARC
  5
B3E
  8
0
 10
59.376319461620312
 20
9.6899840080420052
 30
0.0
 40
3.6424748240361922
 50
300.87484400049732
 51
325.30893405308569
  0
ARC
  5
B3F
  8
0
 10
60.536447575625409
 20
7.8690077298225169
 30
0.0
 40
1.485475993638941
 50
270.91177028428189
 51
298.51108905015002
  0
ARC
  5
B40
  8
0
 10
57.19945322672995
 20
12.69294331503535
 30
0.0
 40
0.1813422685008367
 50
108.99680570703499
 51
187.4694141587496
  0
ARC
  5
B41
  8
0
 10
57.830621721455003
 20
10.859564871971591
 30
0.0
 40
2.12032400751345
 50
92.780771352990357
 51
108.99680570703499
  0
ARC
  5
B42
  8
0
 10
59.941725826059269
 20
-32.604047516506498
 30
0.0
 40
45.635176212207227
 50
89.223864360940723
 51
92.780771352990357
  0
ARC
  5
B43
  8
0
 10
66.058573133334619
 20
12.940583387258689
 30
0.0
 40
9.0429913662382742
 50
181.71865126605741
 51
216.0665207111426
  0
ARC
  5
B44
  8
0
 10
61.74365359799684
 20
9.6900549014256594
 30
0.0
 40
3.6424748240361922
 50
214.69449756361351
 51
239.12858761620171
  0
ARC
  5
B45
  8
0
 10
60.583634549823017
 20
7.869009142907478
 30
0.0
 40
1.485475993638941
 50
241.4923425665493
 51
269.09166133241729
  0
ARC
  5
B51
  8
0
 10
50.792803496316971
 20
11.775733628806471
 30
0.0
 40
0.7281242586222758
 50
17.819302863709481
 51
85.503556943544964
  0
ARC
  5
B52
  8
0
 10
51.096847108505507
 20
12.82495431558854
 30
0.0
 40
0.3865984802918125
 50
17.120472206506289
 51
61.802026405202561
  0
ARC
  5
B53
  8
0
 10
49.119903270409338
 20
11.792120910978319
 30
0.0
 40
0.7329163133258236
 50
16.26898643091566
 51
75.47602591876921
  0
LINE
  5
B54
  8
0
 10
48.482131785905551
 20
11.99743443358819
 30
0.0
 11
48.423873119605553
 21
12.5016143505882
 31
0.0
  0
LINE
  5
B55
  8
0
 10
48.482131785905551
 20
11.99743443358819
 30
0.0
 11
48.392504842905552
 21
11.997442665888199
 31
0.0
  0
ARC
  5
B56
  8
0
 10
47.688936643914893
 20
11.792118259866511
 30
0.0
 40
0.7329163133258236
 50
16.26898643091566
 51
75.47602591876921
  0
LINE
  5
B5A
  8
0
 10
47.642275397416149
 20
11.99743472788907
 30
0.0
 11
47.584016731116158
 21
12.50161464488907
 31
0.0
  0
LINE
  5
B5B
  8
0
 10
47.642275397416149
 20
11.99743472788907
 30
0.0
 11
47.552648454416151
 21
11.997442960189071
 31
0.0
  0
ARC
  5
B5C
  8
0
 10
46.849080255425498
 20
11.792118554167381
 30
0.0
 40
0.7329163133258236
 50
16.26898643091565
 51
75.47602591876921
  0
ARC
  5
BA4
  8
0
 10
66.460910146974953
 20
-4.4974879159405363
 30
0.0
 40
0.4486197747504978
 50
4.1668580668023738
 51
10.584563909166411
  0
ATTDEF
  5
D62
  8
DEFPOINTS
 10
60.002979245257237
 20
-4.6411131284522948
 30
0.0
 40
0.001
  1
71121110
  3

  2
MODELNUMBER
 70
     0
1001
ACDBATTR
1070
     0
1070
     1
  0
ATTDEF
  5
D63
  8
DEFPOINTS
 10
60.002979245257237
 20
-4.6427195404577528
 30
0.0
 40
0.001
  1
ENSEMBLE
  3

  2
TRADENAME
 70
     0
1001
ACDBATTR
1070
     0
1070
     1
  0
ATTDEF
  5
D64
  8
DEFPOINTS
 10
60.002979245257237
 20
-4.6443259524632108
 30
0.0
 40
0.001
  1
BATH
  3

  2
PRODUCT
 70
     0
1001
ACDBATTR
1070
     0
1070
     1
  0
ATTDEF
  5
D65
  8
DEFPOINTS
 10
60.002979245257237
 20
-4.6459323644686616
 30
0.0
 40
0.001
  1
VIKRELL
  3

  2
MATERIAL
 70
     0
1001
ACDBATTR
1070
     0
1070
     1
  0
ENDSEC
  0
EOF
