  0
SECTION
  2
HEADER
  9
$ACADVER
  1
AC1009
  9
$INSBASE
 10
273.80184857381141
 20
94.844879192112174
 30
0.0
  9
$EXTMIN
 10
243.801848756325
 20
61.579876193300002
 30
0.0
  9
$EXTMAX
 10
303.80184863498317
 20
94.851470961403265
 30
0.0
  9
$LIMMIN
 10
0.0
 20
0.0
  9
$LIMMAX
 10
11.692913385800001
 20
8.2677165353999982
  9
$ORTHOMODE
 70
     1
  9
$REGENMODE
 70
     1
  9
$FILLMODE
 70
     1
  9
$QTEXTMODE
 70
     0
  9
$MIRRTEXT
 70
     0
  9
$DRAGMODE
 70
     2
  9
$LTSCALE
 40
0.6431102362
  9
$OSMODE
 70
  3071
  9
$ATTMODE
 70
     1
  9
$TEXTSIZE
 40
0.2
  9
$TRACEWID
 40
0.05
  9
$TEXTSTYLE
  7
STANDARD
  9
$CLAYER
  8
0
  9
$CELTYPE
  6
BYLAYER
  9
$CECOLOR
 62
   256
  9
$DIMSCALE
 40
1.0
  9
$DIMASZ
 40
0.1875
  9
$DIMEXO
 40
0.0625
  9
$DIMDLI
 40
0.4443307087
  9
$DIMRND
 40
0.0
  9
$DIMDLE
 40
0.0
  9
$DIMEXE
 40
0.125
  9
$DIMTP
 40
0.01
  9
$DIMTM
 40
0.01
  9
$DIMTXT
 40
2.0
  9
$DIMCEN
 40
0.1052362205
  9
$DIMTSZ
 40
0.0
  9
$DIMTOL
 70
     1
  9
$DIMLIM
 70
     0
  9
$DIMTIH
 70
     1
  9
$DIMTOH
 70
     1
  9
$DIMSE1
 70
     0
  9
$DIMSE2
 70
     0
  9
$DIMTAD
 70
     0
  9
$DIMZIN
 70
     0
  9
$DIMBLK
  1

  9
$DIMASO
 70
     1
  9
$DIMSHO
 70
     1
  9
$DIMPOST
  1
\X
  9
$DIMAPOST
  1

  9
$DIMALT
 70
     1
  9
$DIMALTD
 70
     2
  9
$DIMALTF
 40
25.399999999999999
  9
$DIMLFAC
 40
1.0
  9
$DIMTOFL
 70
     0
  9
$DIMTVP
 40
0.0
  9
$DIMTIX
 70
     0
  9
$DIMSOXD
 70
     0
  9
$DIMSAH
 70
     0
  9
$DIMBLK1
  1

  9
$DIMBLK2
  1

  9
$DIMSTYLE
  2
STANDARD
  9
$DIMCLRD
 70
     0
  9
$DIMCLRE
 70
     0
  9
$DIMCLRT
 70
     0
  9
$DIMTFAC
 40
1.0
  9
$DIMGAP
 40
0.09
  9
$LUNITS
 70
     2
  9
$LUPREC
 70
     4
  9
$SKETCHINC
 40
0.1
  9
$FILLETRAD
 40
0.0
  9
$AUNITS
 70
     0
  9
$AUPREC
 70
     0
  9
$MENU
  1
.
  9
$ELEVATION
 40
0.0
  9
$PELEVATION
 40
0.0
  9
$THICKNESS
 40
0.0
  9
$LIMCHECK
 70
     0
  9
$BLIPMODE
 70
     0
  9
$CHAMFERA
 40
0.0
  9
$CHAMFERB
 40
0.0
  9
$SKPOLY
 70
     0
  9
$TDCREATE
 40
2458094.7005450348
  9
$TDUPDATE
 40
2458099.6471418398
  9
$TDINDWG
 40
0.0546744907
  9
$TDUSRTIMER
 40
0.0546744907
  9
$USRTIMER
 70
     1
  9
$ANGBASE
 50
0.0
  9
$ANGDIR
 70
     0
  9
$PDMODE
 70
     0
  9
$PDSIZE
 40
0.3125
  9
$PLINEWID
 40
0.0
  9
$COORDS
 70
     1
  9
$SPLFRAME
 70
     0
  9
$SPLINETYPE
 70
     6
  9
$SPLINESEGS
 70
     8
  9
$ATTDIA
 70
     1
  9
$ATTREQ
 70
     1
  9
$HANDLING
 70
     1
  9
$HANDSEED
  5
41E3
  9
$SURFTAB1
 70
     6
  9
$SURFTAB2
 70
     6
  9
$SURFTYPE
 70
     6
  9
$SURFU
 70
     6
  9
$SURFV
 70
     6
  9
$UCSNAME
  2

  9
$UCSORG
 10
0.0
 20
0.0
 30
0.0
  9
$UCSXDIR
 10
1.0
 20
0.0
 30
0.0
  9
$UCSYDIR
 10
0.0
 20
1.0
 30
0.0
  9
$PUCSNAME
  2

  9
$PUCSORG
 10
0.0
 20
0.0
 30
0.0
  9
$PUCSXDIR
 10
1.0
 20
0.0
 30
0.0
  9
$PUCSYDIR
 10
0.0
 20
1.0
 30
0.0
  9
$USERI1
 70
     0
  9
$USERI2
 70
     0
  9
$USERI3
 70
     0
  9
$USERI4
 70
     0
  9
$USERI5
 70
     0
  9
$USERR1
 40
0.0
  9
$USERR2
 40
0.0
  9
$USERR3
 40
0.0
  9
$USERR4
 40
0.0
  9
$USERR5
 40
0.0
  9
$WORLDVIEW
 70
     1
  9
$SHADEDGE
 70
     3
  9
$SHADEDIF
 70
    70
  9
$TILEMODE
 70
     1
  9
$MAXACTVP
 70
    64
  9
$PLIMCHECK
 70
     0
  9
$PEXTMIN
 10
1.0000000000000000E+020
 20
1.0000000000000000E+020
 30
1.0000000000000000E+020
  9
$PEXTMAX
 10
-1.0000000000000000E+020
 20
-1.0000000000000000E+020
 30
-1.0000000000000000E+020
  9
$PLIMMIN
 10
0.0
 20
0.0
  9
$PLIMMAX
 10
12.0
 20
9.0
  9
$UNITMODE
 70
     0
  9
$VISRETAIN
 70
     1
  9
$PLINEGEN
 70
     0
  9
$PSLTSCALE
 70
     1
  0
ENDSEC
  0
SECTION
  2
TABLES
  0
TABLE
  2
VPORT
 70
     1
  0
VPORT
  2
*ACTIVE
 70
     0
 10
0.0
 20
0.0
 11
1.0
 21
1.0
 12
0.0
 22
0.0
 13
0.0
 23
0.0
 14
1.0
 24
1.0
 15
0.0
 25
0.0
 16
-0.0000000000000568
 26
0.0
 36
192.92348723268239
 17
273.8018486956542
 27
78.215673577351623
 37
0.0
 40
68.607572496422449
 41
2.0983240223463682
 42
50.0
 43
0.0
 44
0.0
 50
0.0
 51
0.0
 71
     0
 72
   100
 73
     1
 74
     1
 75
     0
 76
     0
 77
     0
 78
     0
  0
ENDTAB
  0
TABLE
  2
LTYPE
 70
     2
  0
LTYPE
  2
CONTINUOUS
 70
     0
  3
Solid line
 72
    65
 73
     0
 40
0.0
  0
LTYPE
  2
PHANTOM2
 70
     0
  3
___ _ _ ___ _ _ ___ _ _ ___ _ _
 72
    65
 73
     6
 40
1.25
 49
0.625
 49
-0.125
 49
0.125
 49
-0.125
 49
0.125
 49
-0.125
  0
ENDTAB
  0
TABLE
  2
LAYER
 70
     2
  0
LAYER
  2
0
 70
     0
 62
   255
  6
CONTINUOUS
  0
LAYER
  2
DEFPOINTS
 70
     0
 62
     7
  6
CONTINUOUS
  0
ENDTAB
  0
TABLE
  2
STYLE
 70
     1
  0
STYLE
  2
STANDARD
 70
     0
 40
0.0
 41
0.8
 50
0.0
 71
     0
 42
0.2
  3
txt
  4

  0
ENDTAB
  0
TABLE
  2
VIEW
 70
     0
  0
ENDTAB
  0
TABLE
  2
UCS
 70
     0
  0
ENDTAB
  0
TABLE
  2
APPID
 70
     9
  0
APPID
  2
ACAD
 70
     0
  0
APPID
  2
ACAD_MLEADERVER
 70
     0
  0
APPID
  2
ACAD_EXEMPT_FROM_CAD_STANDARDS
 70
     0
  0
APPID
  2
ACAD_NAV_VCDISPLAY
 70
     0
  0
APPID
  2
ACAD_DSTYLE_DIMJAG
 70
     0
  0
APPID
  2
ACAD_DSTYLE_DIMTALN
 70
     0
  0
APPID
  2
ACAECLAYERSTANDARD
 70
     0
  0
APPID
  2
ACCMTRANSPARENCY
 70
     0
  0
APPID
  2
ACDBATTR
 70
     0
  0
ENDTAB
  0
TABLE
  2
DIMSTYLE
 70
     1
  0
DIMSTYLE
  2
STANDARD
 70
     0
  3

  4

  5

  6

  7

 40
1.0
 41
0.1875
 42
0.0625
 43
0.38
 44
0.125
 45
0.0
 46
0.0
 47
0.01
 48
0.01
140
0.15625
141
0.09
142
0.0
143
25.399999999999999
144
1.0
145
0.0
146
1.0
147
0.09
 71
     1
 72
     0
 73
     1
 74
     1
 75
     0
 76
     0
 77
     0
 78
     4
170
     0
171
     2
172
     0
173
     0
174
     0
175
     0
176
     0
177
     0
178
     0
  0
ENDTAB
  0
ENDSEC
  0
SECTION
  2
BLOCKS
  0
BLOCK
  8
0
  2
$MODEL_SPACE
 70
     0
 10
0.0
 20
0.0
 30
0.0
  3
$MODEL_SPACE
  1

  0
ENDBLK
  5
21
  8
0
  0
BLOCK
 67
     1
  8
0
  2
$PAPER_SPACE
 70
     0
 10
0.0
 20
0.0
 30
0.0
  3
$PAPER_SPACE
  1

  0
ENDBLK
  5
1D
 67
     1
  8
0
  0
ENDSEC
  0
SECTION
  2
ENTITIES
  0
LINE
  5
3B10
  8
0
 10
243.91184875632501
 20
61.579876193300002
 30
0.0
 11
243.801848756325
 21
61.579876193300002
 31
0.0
  0
LINE
  5
3B11
  8
0
 10
243.801848756325
 20
61.579876193300002
 30
0.0
 11
243.8018487938148
 21
94.679962793201156
 31
0.0
  0
ARC
  5
3B12
  8
0
 10
243.9517531523729
 20
94.679980840793164
 30
0.0
 40
0.1499043596445716
 50
113.43390364072209
 51
180.0068980705864
  0
LINE
  5
3B13
  8
0
 10
303.80184863498317
 20
61.579876193300002
 30
0.0
 11
303.80184542662408
 21
94.679962793742035
 31
0.0
  0
LINE
  5
3B14
  8
0
 10
303.80184863498312
 20
61.579876193300002
 30
0.0
 11
303.6918487563251
 21
61.579876193300002
 31
0.0
  0
LINE
  5
3B15
  8
0
 10
243.91184875632501
 20
61.579876193300002
 30
0.0
 11
243.91184875632501
 21
62.829876192112152
 31
0.0
  0
LINE
  5
3B16
  8
0
 10
303.6918487563251
 20
62.828428066312163
 30
0.0
 11
302.88970973723241
 21
62.829876192114106
 31
0.0
  0
ARC
  5
3B17
  8
0
 10
302.87128811475009
 20
63.08498669268711
 30
0.0
 40
0.2557747515863693
 50
181.14487206054719
 51
274.13017978964677
  0
LINE
  5
3B18
  8
0
 10
303.6918487563251
 20
62.828428066312163
 30
0.0
 11
303.6918487563251
 21
61.579876193300002
 31
0.0
  0
LINE
  5
3B19
  8
0
 10
302.61861944166981
 20
64.821913205311233
 30
0.0
 11
302.61556442328879
 21
63.079876196183811
 31
0.0
  0
LINE
  5
3B1A
  8
0
 10
302.61861944166981
 20
64.821913205311233
 30
0.0
 11
302.59527976303178
 21
66.650870477713994
 31
0.0
  0
LINE
  5
3B1B
  8
0
 10
302.5569418415094
 20
89.62318160230447
 30
0.0
 11
303.80184856276759
 21
89.64487914235869
 31
0.0
  0
LINE
  5
3B1C
  8
0
 10
303.01483114760191
 20
89.631174089847804
 30
0.0
 11
303.01484875632502
 21
90.029872802871424
 31
0.0
  0
LINE
  5
3B1D
  8
0
 10
303.01484875632502
 20
90.029872802871424
 30
0.0
 11
302.79084875632498
 21
90.025969257512145
 31
0.0
  0
LINE
  5
3B1E
  8
0
 10
302.79084875632498
 20
90.025969257512145
 30
0.0
 11
302.76431490200179
 21
89.626801312504284
 31
0.0
  0
LINE
  5
3B1F
  8
0
 10
303.80184856276759
 20
89.64487914235869
 30
0.0
 11
303.10450773890182
 21
89.644911225904337
 31
0.0
  0
ARC
  5
3B20
  8
0
 10
303.10450795763973
 20
89.674911774178454
 30
0.0
 40
0.0300005482749794
 50
183.00145669601201
 51
269.99958224889099
  0
LINE
  5
3B21
  8
0
 10
303.07454856400182
 20
89.673340905104325
 30
0.0
 11
303.05133464484828
 21
90.116449330052333
 31
0.0
  0
ARC
  5
3B22
  8
0
 10
303.02135397971148
 20
90.114890040125175
 30
0.0
 40
0.0300211869705168
 50
2.977262367450459
 51
89.983858210084989
  0
LINE
  5
3B23
  8
0
 10
303.02136243750181
 20
90.144911225904323
 30
0.0
 11
302.77829985760371
 21
90.144911225904323
 31
0.0
  0
ARC
  5
3B24
  8
0
 10
302.7782999462159
 20
90.114911003791036
 30
0.0
 40
0.0300002221133989
 50
90.000169235527792
 51
176.99940751503431
  0
LINE
  5
3B25
  8
0
 10
302.74834085460179
 20
90.116481403904316
 30
0.0
 11
302.72511342990191
 21
89.673340908704319
 31
0.0
  0
ARC
  5
3B26
  8
0
 10
302.69516250844691
 20
89.674906836261215
 30
0.0
 40
0.0299918293059489
 50
270.82700274484131
 51
357.00712305506772
  0
ARC
  5
3B27
  8
0
 10
299.77403182172822
 20
37153.09964349628
 30
0.0
 40
37063.454840512728
 50
269.9963257680642
 51
270.00451639662509
  0
ARC
  5
3B28
  8
0
 10
302.31477925671101
 20
89.770031795426775
 30
0.0
 40
0.1251418129055294
 50
181.0687474887032
 51
269.93634021402062
  0
LINE
  5
3B29
  8
0
 10
302.18965921412507
 20
89.767697640212134
 30
0.0
 11
302.17209861569472
 21
90.773745930168474
 31
0.0
  0
ARC
  5
3B2A
  8
0
 10
299.37258888710443
 20
90.724889008905166
 30
0.0
 40
2.7999360205596471
 50
0.9998219392501057
 51
42.434962995755619
  0
ARC
  5
3B2B
  8
0
 10
299.37400617766542
 20
90.726824585047197
 30
0.0
 40
2.797584002420848
 50
42.425291739142402
 51
88.178288039888855
  0
ARC
  5
3B2C
  8
0
 10
-6.8132692551483842
 20
-9457.9334042061892
 30
0.0
 40
9550.8914858180815
 50
88.225199255140907
 51
88.446440199694962
  0
ARC
  5
3B2D
  8
0
 10
-6.8753931642357884
 20
9618.7899595973176
 30
0.0
 40
9553.0891656831882
 50
271.5535750503613
 51
271.77471389777008
  0
ARC
  5
3B2E
  8
0
 10
252.09218142179651
 20
87.452772618632167
 30
0.0
 40
1.9948424256862309
 50
89.060854794687216
 51
165.77877762667961
  0
ARC
  5
3B2F
  8
0
 10
288.822825639896
 20
86.409131487968494
 30
0.0
 40
1.9741836257405061
 50
14.8978645916264
 51
85.172981657077443
  0
ARC
  5
3B30
  8
0
 10
252.09218140638029
 20
71.206979367986463
 30
0.0
 40
1.9948421239030441
 50
194.22122192685021
 51
270.93914706854531
  0
ARC
  5
3B31
  8
0
 10
288.5405876291216
 20
72.5895711344929
 30
0.0
 40
2.3479659712092178
 50
280.79661213678691
 51
338.86738091888378
  0
ARC
  5
3B32
  8
0
 10
286.0189115782353
 20
79.426869948506265
 30
0.0
 40
36.857737855911999
 50
166.64112134521949
 51
180.15077773469321
  0
ARC
  5
3B33
  8
0
 10
289.4658840213271
 20
79.631958611021247
 30
0.0
 40
40.305714711053923
 50
180.4294228934688
 51
192.778680452185
  0
ARC
  5
3B34
  8
0
 10
254.3030633917374
 20
79.330025192178908
 30
0.0
 40
37.209224626685973
 50
359.99977056285832
 51
11.76464439493032
  0
ARC
  5
3B35
  8
0
 10
254.30292209285059
 20
79.329737073013135
 30
0.0
 40
37.209365925534577
 50
348.23538422447638
 51
0.0002142158020925
  0
ARC
  5
3B36
  8
0
 10
360.77660721358262
 20
3533.0050669258121
 30
0.0
 40
3443.5818157706249
 50
268.19217404315458
 51
268.86372907405013
  0
ARC
  5
3B37
  8
0
 10
361.29908405860039
 20
-3396.072540762274
 30
0.0
 40
3465.3152866043361
 50
91.137784030230009
 51
91.822007100741615
  0
ARC
  5
3B38
  8
0
 10
292.37556965161002
 20
84.663203764791746
 30
0.0
 40
5.4383824466112056
 50
52.691085440461208
 51
88.803721600675118
  0
ARC
  5
3B39
  8
0
 10
295.98212521878219
 20
89.396502825045346
 30
0.0
 40
0.5123623987827001
 50
232.72808682196421
 51
266.72531832651617
  0
ARC
  5
3B3A
  8
0
 10
295.99757279804032
 20
88.256079996525074
 30
0.0
 40
0.6304846801733338
 50
66.430263676759964
 51
94.06694130765824
  0
ARC
  5
3B3B
  8
0
 10
258.7515347255499
 20
79.398979764154291
 30
0.0
 40
38.666908755127473
 50
12.05363744745036
 51
16.104619629144089
  0
ARC
  5
3B3C
  8
0
 10
261.95265850673292
 20
79.708832521633013
 30
0.0
 40
35.473538525746577
 50
359.38790972865303
 51
12.64392892301257
  0
ARC
  5
3B3D
  8
0
 10
258.80738457420159
 20
79.246518520031628
 30
0.0
 40
38.609296700891882
 50
343.89271208335163
 51
347.9497085083089
  0
ARC
  5
3B3E
  8
0
 10
258.37176802388558
 20
79.328374001367052
 30
0.0
 40
39.052404825116582
 50
347.96568867855262
 51
0.0022040295395634
  0
ARC
  5
3B3F
  8
0
 10
294.17039961516321
 20
69.010068689518235
 30
0.0
 40
1.7946833956771091
 50
298.4217143013143
 51
344.64625303575349
  0
ARC
  5
3B40
  8
0
 10
293.58085952129812
 20
70.241500135483903
 30
0.0
 40
3.1590082761571061
 50
269.0723950622538
 51
297.19504620881258
  0
ARC
  5
3B41
  8
0
 10
386.24569432948903
 20
129897.6147383791
 30
0.0
 40
129830.5649381885
 50
269.94032972109392
 51
269.95908332847659
  0
ARC
  5
3B42
  8
0
 10
251.03540090117801
 20
69.601911879802373
 30
0.0
 40
2.4817045010975041
 50
231.0488929368444
 51
269.98168196124283
  0
ARC
  5
3B43
  8
0
 10
251.02781512824069
 20
69.606067395698261
 30
0.0
 40
2.4801819304507871
 50
196.48576963104509
 51
231.2455262964464
  0
ARC
  5
3B44
  8
0
 10
284.46322429632249
 20
79.36345149173323
 30
0.0
 40
37.310226049294393
 50
164.00437467792801
 51
196.2831447582243
  0
ARC
  5
3B45
  8
0
 10
292.37633724210099
 20
73.995110088273492
 30
0.0
 40
5.4367732928188488
 50
271.18851843974733
 51
307.31205272073481
  0
ARC
  5
3B46
  8
0
 10
296.01514857638
 20
69.198423859950736
 30
0.0
 40
0.58409246494459
 50
93.918996632156436
 51
125.9950476369763
  0
ARC
  5
3B47
  8
0
 10
295.96397806228907
 20
70.559341574865385
 30
0.0
 40
0.7782723644129593
 50
270.82825118169319
 51
291.7522651234421
  0
ARC
  5
3B48
  8
0
 10
251.04756291067551
 20
69.689337632796224
 30
0.0
 40
2.1997905483218272
 50
231.87937181402191
 51
271.90137934298502
  0
ARC
  5
3B49
  8
0
 10
251.0366224041997
 20
69.685378210802952
 30
0.0
 40
2.1899305076424231
 50
196.0446657776736
 51
232.040611382224
  0
ARC
  5
3B4A
  8
0
 10
283.96958971859908
 20
79.329888463017909
 30
0.0
 40
36.506038231317973
 50
163.58730625797
 51
196.30612916881091
  0
ARC
  5
3B4B
  8
0
 10
283.08296455096468
 20
79.334737647476828
 30
0.0
 40
37.027104764002857
 50
163.83250396760809
 51
197.82642391530331
  0
ARC
  5
3B4C
  8
0
 10
250.5096798070779
 20
68.848520056463684
 30
0.0
 40
2.8075481359999008
 50
197.6028717541661
 51
270.22423015682182
  0
LINE
  5
3B4D
  8
0
 10
250.5206672717251
 20
66.040993420512194
 30
0.0
 11
288.3018487619251
 21
66.040723817212182
 31
0.0
  0
ARC
  5
3B4E
  8
0
 10
290.21917946115838
 20
-285.10949469842438
 30
0.0
 40
351.15545292731753
 50
89.013699348997093
 51
90.312840088133399
  0
ARC
  5
3B4F
  8
0
 10
296.42331280298419
 20
69.770916249372732
 30
0.0
 40
3.780354829880384
 50
267.58074914190348
 51
292.3350437802556
  0
ARC
  5
3B50
  8
0
 10
296.9379386278822
 20
68.537805873597193
 30
0.0
 40
2.4441976332291349
 50
292.161382587986
 51
340.629225470888
  0
ARC
  5
3B51
  8
0
 10
269.11939954341477
 20
79.274582348121299
 30
0.0
 40
32.261773244871073
 50
339.02685382949852
 51
18.75002558660773
  0
CIRCLE
  5
3B52
  8
0
 10
252.301848756325
 20
79.329876192112152
 30
0.0
 40
1.387500000000002
  0
CIRCLE
  5
3B53
  8
0
 10
252.301848756325
 20
79.329876192112152
 30
0.0
 40
1.920459774899995
  0
LINE
  5
3B54
  8
0
 10
243.91184875632501
 20
62.729876192112172
 30
0.0
 11
303.6918487563251
 21
62.729876192112172
 31
0.0
  0
LINE
  5
3B55
  8
0
 10
303.6918487563251
 20
62.828428066312163
 30
0.0
 11
243.91184875632501
 21
62.829876192112152
 31
0.0
  0
ARC
  5
3B56
  8
0
 10
303.65194469802498
 20
94.679985375812123
 30
0.0
 40
0.1499007303000201
 50
359.99136857230911
 51
66.565641138041201
  0
LINE
  5
3B57
  8
0
 10
303.8018459146698
 20
89.644879142480534
 30
0.0
 11
303.7110824186251
 21
94.844879192112174
 31
0.0
  0
LINE
  5
3B58
  8
0
 10
303.7110824186251
 20
94.844879192112174
 30
0.0
 11
243.892615093925
 21
94.844879192112174
 31
0.0
  0
LINE
  5
3B59
  8
0
 10
243.8018487881119
 20
89.644879191557294
 30
0.0
 11
243.892615093925
 21
94.844879192112174
 31
0.0
  0
ARC
  5
3B5A
  8
0
 10
297.7800782008984
 20
354.06643248374849
 30
0.0
 40
264.48639164045352
 50
270.9796728367549
 51
271.03486990794318
  0
ARC
  5
3B5B
  8
0
 10
299.3803672835337
 20
91.733668613177144
 30
0.0
 40
1.791230280105911
 50
87.357823625335683
 51
90.250848381899104
  0
LINE
  5
3B5C
  8
0
 10
299.37252506922499
 20
93.524881726138034
 30
0.0
 11
294.61637449172503
 21
93.524879192112124
 31
0.0
  0
ARC
  5
3B5D
  8
0
 10
294.61636134134062
 20
93.399900351068084
 30
0.0
 40
0.1249779251359085
 50
89.993971243122374
 51
152.6634115360248
  0
ARC
  5
3B5E
  8
0
 10
294.13716493295868
 20
93.650252880269505
 30
0.0
 40
0.4156758465487084
 50
268.4365890318515
 51
332.34099435630299
  0
ARC
  5
3B5F
  8
0
 10
294.24138860510658
 20
103.7891900047311
 30
0.0
 40
10.55509089358447
 50
267.34885820065648
 51
269.37267234951707
  0
LINE
  5
3B60
  8
0
 10
293.75316663489298
 20
93.245396423688746
 30
0.0
 11
253.840371833375
 21
93.245396423688746
 31
0.0
  0
LINE
  5
3B61
  8
0
 10
245.0365966267585
 20
89.62318160230447
 30
0.0
 11
243.80184879541159
 21
89.644879609753104
 31
0.0
  0
LINE
  5
3B62
  8
0
 10
244.58884875632501
 20
89.631049797235562
 30
0.0
 11
244.58884875632501
 21
90.029879192112162
 31
0.0
  0
LINE
  5
3B63
  8
0
 10
244.58884875632501
 20
90.029879192112162
 30
0.0
 11
244.812848756325
 21
90.025969257512145
 31
0.0
  0
LINE
  5
3B64
  8
0
 10
244.812848756325
 20
90.025969257512145
 30
0.0
 11
244.84077378350349
 21
89.62662276284243
 31
0.0
  0
LINE
  5
3B65
  8
0
 10
243.80184879541159
 20
89.644879609753104
 30
0.0
 11
244.48903072936619
 21
89.644911225904337
 31
0.0
  0
ARC
  5
3B66
  8
0
 10
244.49730358130631
 20
89.675741120410578
 30
0.0
 40
0.0319205650716601
 50
254.97918310010289
 51
355.63000177573451
  0
LINE
  5
3B67
  8
0
 10
244.52913134652511
 20
89.673308871312145
 30
0.0
 11
244.55235841386369
 21
90.116446095045944
 31
0.0
  0
ARC
  5
3B68
  8
0
 10
244.5823172857672
 20
90.114879275105565
 30
0.0
 40
0.0299998155071402
 50
89.999638924067085
 51
177.0062138436848
  0
LINE
  5
3B69
  8
0
 10
244.58231747482509
 20
90.144879090612136
 30
0.0
 11
244.82547436824461
 21
90.144879043834379
 31
0.0
  0
ARC
  5
3B6A
  8
0
 10
244.82538004622501
 20
90.114879192112184
 30
0.0
 40
0.0299999999999083
 50
3.3160881343169728
 51
89.819857915473207
  0
LINE
  5
3B6B
  8
0
 10
244.85532981463911
 20
90.116614522612167
 30
0.0
 11
244.87843456884579
 21
89.675825392334374
 31
0.0
  0
ARC
  5
3B6C
  8
0
 10
244.90853397806279
 20
89.675028097791525
 30
0.0
 40
0.0301099670176243
 50
178.4826634866684
 51
269.99130052577863
  0
ARC
  5
3B6D
  8
0
 10
247.8114811434325
 20
34646.347192316418
 30
0.0
 40
34556.702396117202
 50
269.99518684158608
 51
270.00397092720232
  0
ARC
  5
3B6E
  8
0
 10
245.28836543465479
 20
89.770220830609844
 30
0.0
 40
0.1256986630012936
 50
265.68059266647413
 51
358.76030462674288
  0
LINE
  5
3B6F
  8
0
 10
245.41403467591189
 20
89.767501330254277
 30
0.0
 11
245.4315989098026
 21
90.773746666458209
 31
0.0
  0
ARC
  5
3B70
  8
0
 10
248.2311074599603
 20
90.72488946697456
 30
0.0
 40
2.7999348471610608
 50
137.56625857564339
 51
179.00017194754039
  0
ARC
  5
3B71
  8
0
 10
248.2084645642517
 20
90.773790937666888
 30
0.0
 40
2.7503061964644999
 50
91.622363297177074
 51
137.9998731583463
  0
ARC
  5
3B72
  8
0
 10
246.4399644317333
 20
164.78803825180199
 30
0.0
 40
75.177956319226624
 50
268.93038163219489
 51
269.13231403490158
  0
ARC
  5
3B73
  8
0
 10
248.21317118473419
 20
91.733668613177144
 30
0.0
 40
1.791230280105911
 50
89.749151618100896
 51
92.642176374664302
  0
LINE
  5
3B74
  8
0
 10
248.2210133990429
 20
93.524881726138034
 30
0.0
 11
252.9771639765429
 21
93.524879192112124
 31
0.0
  0
ARC
  5
3B75
  8
0
 10
252.9771771269273
 20
93.399900351068084
 30
0.0
 40
0.1249779251359085
 50
27.33658846397514
 51
90.006028756877626
  0
ARC
  5
3B76
  8
0
 10
253.45637353530921
 20
93.650252880269505
 30
0.0
 40
0.4156758465487084
 50
207.65900564369699
 51
271.5634109681485
  0
ARC
  5
3B77
  8
0
 10
253.35214986316129
 20
103.7891900047311
 30
0.0
 40
10.55509089358447
 50
270.62732765048293
 51
272.65114179934352
  0
ARC
  5
3B78
  8
0
 10
297.40181511038452
 20
91.649536827463152
 30
0.0
 40
2.0046628397285109
 50
181.13046495042781
 51
269.86944261295059
  0
LINE
  5
3B79
  8
0
 10
295.39754245172509
 20
91.609986723312147
 30
0.0
 11
295.36411278782498
 21
93.524879192112124
 31
0.0
  0
ARC
  5
3B7A
  8
0
 10
250.20645945504319
 20
91.644879192066867
 30
0.0
 40
1.999999999954718
 50
270.00000008641501
 51
358.999847705219
  0
LINE
  5
3B7B
  8
0
 10
252.20615475252501
 20
91.609969063912132
 30
0.0
 11
252.23958472472501
 21
93.524879192112124
 31
0.0
  0
ARC
  5
3B7C
  8
0
 10
294.17208607517438
 20
89.650246701999777
 30
0.0
 40
1.792908131345833
 50
15.350693769200671
 51
60.435322485049319
  0
ARC
  5
3B7D
  8
0
 10
293.58401815777898
 20
88.445744654979791
 30
0.0
 40
3.131834144573856
 50
61.950426424616367
 51
91.177733801484933
  0
ARC
  5
3B7E
  8
0
 10
364.6029678787018
 20
-103416.38607234129
 30
0.0
 40
103507.98739749751
 50
90.039347442784688
 51
90.062217455517384
  0
ARC
  5
3B7F
  8
0
 10
302.4686638036502
 20
66.625787512247456
 30
0.0
 40
0.1290765521956354
 50
11.20536909764801
 51
81.335113677217194
  0
ARC
  5
3B80
  8
0
 10
302.52287764677232
 20
67.178979540992003
 30
0.0
 40
0.4270064946118398
 50
175.87871355976679
 51
265.32968044680189
  0
ARC
  5
3B81
  8
0
 10
324.83066651722578
 20
66.890408561854457
 30
0.0
 40
22.735932827328838
 50
178.34282716869731
 51
179.195423408897
  0
LINE
  5
3B82
  8
0
 10
302.104242865125
 20
67.547911044012125
 30
0.0
 11
301.83305277632508
 21
88.801594211912146
 31
0.0
  0
ARC
  5
3B83
  8
0
 10
303.41525435407328
 20
89.034732632631318
 30
0.0
 40
1.599285889340806
 50
169.1997867448701
 51
188.3822515536076
  0
ARC
  5
3B84
  8
0
 10
302.26704447055232
 20
89.164409196255335
 30
0.0
 40
0.4556501295562289
 50
85.577134988996704
 51
158.09272965410409
  0
LINE
  5
3B85
  8
0
 10
243.91184875632501
 20
62.829876192112152
 30
0.0
 11
244.71398777541771
 21
62.829876192114106
 31
0.0
  0
ARC
  5
3B86
  8
0
 10
244.7324107107558
 20
63.08498290483822
 30
0.0
 40
0.2557710681350528
 50
265.86946576563457
 51
358.85595970054823
  0
LINE
  5
3B87
  8
0
 10
244.98507807098019
 20
64.821913205311233
 30
0.0
 11
245.00841774961819
 21
66.650870477713994
 31
0.0
  0
ARC
  5
3B88
  8
0
 10
245.1350337089998
 20
66.625787512247456
 30
0.0
 40
0.1290765521956354
 50
98.664886322782834
 51
168.794630902352
  0
ARC
  5
3B89
  8
0
 10
245.08081986587769
 20
67.178979540992003
 30
0.0
 40
0.4270064946118398
 50
274.67031955319811
 51
4.1212864402331064
  0
ARC
  5
3B8A
  8
0
 10
222.77303099542419
 20
66.890408561854457
 30
0.0
 40
22.735932827328838
 50
0.8045765911030285
 51
1.6571728313026859
  0
LINE
  5
3B8B
  8
0
 10
245.499454647525
 20
67.547911044012125
 30
0.0
 11
245.77064473632501
 21
88.801594211912146
 31
0.0
  0
ARC
  5
3B8C
  8
0
 10
244.18844315857669
 20
89.034732632631318
 30
0.0
 40
1.599285889340806
 50
351.61774844639223
 51
10.800213255129901
  0
ARC
  5
3B8D
  8
0
 10
245.33665304209771
 20
89.164409196255335
 30
0.0
 40
0.4556501295562289
 50
21.90727034589591
 51
94.422865011003324
  0
LINE
  5
3B8E
  8
0
 10
244.98813079366201
 20
63.079876194212112
 30
0.0
 11
244.98507807098019
 21
64.821913205311233
 31
0.0
  0
ARC
  5
3B94
  8
0
 10
235.98543752940029
 20
79.450245531227054
 30
0.0
 40
10.86540427313949
 50
353.4861436032707
 51
4.3557618526108497
  0
ARC
  5
3B95
  8
0
 10
253.0907202554109
 20
79.354309501786901
 30
0.0
 40
6.5430692448959169
 50
171.90682862504849
 51
190.0042806574362
  0
ARC
  5
3B96
  8
0
 10
246.45454443972051
 20
80.273916311099867
 30
0.0
 40
0.3649179881823857
 50
0.2430146319070652
 51
44.657804498160111
  0
ARC
  5
3B97
  8
0
 10
247.23420234434471
 20
80.176157206332306
 30
0.0
 40
0.6292705967628219
 50
145.7397772945298
 51
170.92005100964079
  0
ARC
  5
3B98
  8
0
 10
246.47473347226659
 20
78.226501736197747
 30
0.0
 40
0.3060945833418205
 50
322.01443380253443
 51
358.34026724378538
  0
ARC
  5
3B99
  8
0
 10
246.86260374181191
 20
78.197302356535914
 30
0.0
 40
0.2164212372228786
 50
174.60887009530671
 51
227.35443462494149
  0
ATTDEF
  5
3F89
  8
DEFPOINTS
 10
273.79761175282113
 20
94.845470961403237
 30
0.0
 40
0.001
  1
VIKRELL
  3

  2
MATERIAL
 70
     0
1001
ACDBATTR
1070
     0
1070
     1
  0
ATTDEF
  5
3F8A
  8
DEFPOINTS
 10
273.79761175282113
 20
94.847137628069902
 30
0.0
 40
0.001
  1
BATH/SHOWER UNIT
  3

  2
PRODUCT
 70
     0
1001
ACDBATTR
1070
     0
1070
     1
  0
ATTDEF
  5
3F8B
  8
DEFPOINTS
 10
273.79761175282113
 20
94.848804294736567
 30
0.0
 40
0.001
  1
ENSEMBLE
  3

  2
TRADENAME
 70
     0
1001
ACDBATTR
1070
     0
1070
     1
  0
ATTDEF
  5
3F8C
  8
DEFPOINTS
 10
273.79761175282113
 20
94.850470961403232
 30
0.0
 40
0.001
  1
71120112
  3

  2
MODELNUMBER
 70
     0
1001
ACDBATTR
1070
     0
1070
     1
  0
ENDSEC
  0
EOF
