  0
SECTION
  2
HEADER
  9
$ACADVER
  1
AC1009
  9
$INSBASE
 10
613.10991393813083
 20
46.49579347672767
 30
0.0
  9
$EXTMIN
 10
569.37826770443075
 20
46.49579347672767
 30
0.0
  9
$EXTMAX
 10
613.1168664159909
 20
68.777638793945229
 30
0.0
  9
$LIMMIN
 10
0.0
 20
0.0
  9
$LIMMAX
 10
11.692913385800001
 20
8.2677165353999982
  9
$ORTHOMODE
 70
     1
  9
$REGENMODE
 70
     1
  9
$FILLMODE
 70
     1
  9
$QTEXTMODE
 70
     0
  9
$MIRRTEXT
 70
     0
  9
$DRAGMODE
 70
     2
  9
$LTSCALE
 40
0.6431102362
  9
$OSMODE
 70
  3071
  9
$ATTMODE
 70
     1
  9
$TEXTSIZE
 40
0.2
  9
$TRACEWID
 40
0.05
  9
$TEXTSTYLE
  7
STANDARD
  9
$CLAYER
  8
0
  9
$CELTYPE
  6
BYLAYER
  9
$CECOLOR
 62
   256
  9
$DIMSCALE
 40
1.0
  9
$DIMASZ
 40
0.1875
  9
$DIMEXO
 40
0.0625
  9
$DIMDLI
 40
0.4443307087
  9
$DIMRND
 40
0.0
  9
$DIMDLE
 40
0.0
  9
$DIMEXE
 40
0.125
  9
$DIMTP
 40
0.01
  9
$DIMTM
 40
0.01
  9
$DIMTXT
 40
1.0
  9
$DIMCEN
 40
0.1052362205
  9
$DIMTSZ
 40
0.0
  9
$DIMTOL
 70
     1
  9
$DIMLIM
 70
     0
  9
$DIMTIH
 70
     1
  9
$DIMTOH
 70
     1
  9
$DIMSE1
 70
     0
  9
$DIMSE2
 70
     0
  9
$DIMTAD
 70
     0
  9
$DIMZIN
 70
     0
  9
$DIMBLK
  1

  9
$DIMASO
 70
     1
  9
$DIMSHO
 70
     1
  9
$DIMPOST
  1
\X
  9
$DIMAPOST
  1

  9
$DIMALT
 70
     1
  9
$DIMALTD
 70
     2
  9
$DIMALTF
 40
25.399999999999999
  9
$DIMLFAC
 40
1.0
  9
$DIMTOFL
 70
     0
  9
$DIMTVP
 40
0.0
  9
$DIMTIX
 70
     0
  9
$DIMSOXD
 70
     0
  9
$DIMSAH
 70
     0
  9
$DIMBLK1
  1

  9
$DIMBLK2
  1

  9
$DIMSTYLE
  2
STANDARD
  9
$DIMCLRD
 70
     0
  9
$DIMCLRE
 70
     0
  9
$DIMCLRT
 70
     0
  9
$DIMTFAC
 40
1.0
  9
$DIMGAP
 40
0.09
  9
$LUNITS
 70
     2
  9
$LUPREC
 70
     4
  9
$SKETCHINC
 40
0.1
  9
$FILLETRAD
 40
0.0
  9
$AUNITS
 70
     0
  9
$AUPREC
 70
     0
  9
$MENU
  1
.
  9
$ELEVATION
 40
0.0
  9
$PELEVATION
 40
0.0
  9
$THICKNESS
 40
0.0
  9
$LIMCHECK
 70
     0
  9
$BLIPMODE
 70
     0
  9
$CHAMFERA
 40
0.0
  9
$CHAMFERB
 40
0.0
  9
$SKPOLY
 70
     0
  9
$TDCREATE
 40
2458306.609456806
  9
$TDUPDATE
 40
2458414.5874269102
  9
$TDINDWG
 40
0.0662402083
  9
$TDUSRTIMER
 40
0.0662402083
  9
$USRTIMER
 70
     1
  9
$ANGBASE
 50
0.0
  9
$ANGDIR
 70
     0
  9
$PDMODE
 70
     0
  9
$PDSIZE
 40
0.3125
  9
$PLINEWID
 40
0.0
  9
$COORDS
 70
     1
  9
$SPLFRAME
 70
     0
  9
$SPLINETYPE
 70
     6
  9
$SPLINESEGS
 70
     8
  9
$ATTDIA
 70
     1
  9
$ATTREQ
 70
     1
  9
$HANDLING
 70
     1
  9
$HANDSEED
  5
1CFD
  9
$SURFTAB1
 70
     6
  9
$SURFTAB2
 70
     6
  9
$SURFTYPE
 70
     6
  9
$SURFU
 70
     6
  9
$SURFV
 70
     6
  9
$UCSNAME
  2

  9
$UCSORG
 10
0.0
 20
0.0
 30
0.0
  9
$UCSXDIR
 10
1.0
 20
0.0
 30
0.0
  9
$UCSYDIR
 10
0.0
 20
1.0
 30
0.0
  9
$PUCSNAME
  2

  9
$PUCSORG
 10
0.0
 20
0.0
 30
0.0
  9
$PUCSXDIR
 10
1.0
 20
0.0
 30
0.0
  9
$PUCSYDIR
 10
0.0
 20
1.0
 30
0.0
  9
$USERI1
 70
     0
  9
$USERI2
 70
     0
  9
$USERI3
 70
     0
  9
$USERI4
 70
     0
  9
$USERI5
 70
     0
  9
$USERR1
 40
0.0
  9
$USERR2
 40
0.0
  9
$USERR3
 40
0.0
  9
$USERR4
 40
0.0
  9
$USERR5
 40
0.0
  9
$WORLDVIEW
 70
     1
  9
$SHADEDGE
 70
     3
  9
$SHADEDIF
 70
    70
  9
$TILEMODE
 70
     1
  9
$MAXACTVP
 70
    64
  9
$PLIMCHECK
 70
     0
  9
$PEXTMIN
 10
1.0000000000000000E+020
 20
1.0000000000000000E+020
 30
1.0000000000000000E+020
  9
$PEXTMAX
 10
-1.0000000000000000E+020
 20
-1.0000000000000000E+020
 30
-1.0000000000000000E+020
  9
$PLIMMIN
 10
0.0
 20
0.0
  9
$PLIMMAX
 10
12.0
 20
9.0
  9
$UNITMODE
 70
     0
  9
$VISRETAIN
 70
     1
  9
$PLINEGEN
 70
     0
  9
$PSLTSCALE
 70
     1
  0
ENDSEC
  0
SECTION
  2
TABLES
  0
TABLE
  2
VPORT
 70
     1
  0
VPORT
  2
*ACTIVE
 70
     0
 10
0.0
 20
0.0
 11
1.0
 21
1.0
 12
0.0
 22
0.0
 13
0.0
 23
0.0
 14
1.0
 24
1.0
 15
0.0
 25
0.0
 16
0.0
 26
0.0
 36
138.03797919358291
 17
591.24756706021094
 27
57.636716135336449
 37
0.0
 40
49.087123036406616
 41
2.0984340044742731
 42
50.0
 43
0.0
 44
0.0
 50
0.0
 51
0.0
 71
     0
 72
   100
 73
     1
 74
     1
 75
     0
 76
     0
 77
     0
 78
     0
  0
ENDTAB
  0
TABLE
  2
LTYPE
 70
     2
  0
LTYPE
  2
CONTINUOUS
 70
     0
  3
Solid line
 72
    65
 73
     0
 40
0.0
  0
LTYPE
  2
PHANTOM2
 70
     0
  3
___ _ _ ___ _ _ ___ _ _ ___ _ _
 72
    65
 73
     6
 40
1.25
 49
0.625
 49
-0.125
 49
0.125
 49
-0.125
 49
0.125
 49
-0.125
  0
ENDTAB
  0
TABLE
  2
LAYER
 70
     2
  0
LAYER
  2
0
 70
     0
 62
   255
  6
CONTINUOUS
  0
LAYER
  2
DEFPOINTS
 70
     0
 62
     7
  6
CONTINUOUS
  0
ENDTAB
  0
TABLE
  2
STYLE
 70
     1
  0
STYLE
  2
STANDARD
 70
     0
 40
0.0
 41
0.8
 50
0.0
 71
     0
 42
0.2
  3
txt
  4

  0
ENDTAB
  0
TABLE
  2
VIEW
 70
     0
  0
ENDTAB
  0
TABLE
  2
UCS
 70
     0
  0
ENDTAB
  0
TABLE
  2
APPID
 70
     9
  0
APPID
  2
ACAD
 70
     0
  0
APPID
  2
ACAD_MLEADERVER
 70
     0
  0
APPID
  2
ACAD_EXEMPT_FROM_CAD_STANDARDS
 70
     0
  0
APPID
  2
ACAD_DSTYLE_DIMJAG
 70
     0
  0
APPID
  2
ACAD_DSTYLE_DIMTALN
 70
     0
  0
APPID
  2
ACAD_NAV_VCDISPLAY
 70
     0
  0
APPID
  2
ACAECLAYERSTANDARD
 70
     0
  0
APPID
  2
ACCMTRANSPARENCY
 70
     0
  0
APPID
  2
ACDBATTR
 70
     0
  0
ENDTAB
  0
TABLE
  2
DIMSTYLE
 70
     1
  0
DIMSTYLE
  2
STANDARD
 70
     0
  3

  4

  5

  6

  7

 40
1.0
 41
0.1875
 42
0.0625
 43
0.38
 44
0.125
 45
0.0
 46
0.0
 47
0.01
 48
0.01
140
0.15625
141
0.09
142
0.0
143
25.399999999999999
144
1.0
145
0.0
146
1.0
147
0.09
 71
     1
 72
     0
 73
     1
 74
     1
 75
     0
 76
     0
 77
     0
 78
     4
170
     0
171
     2
172
     0
173
     0
174
     0
175
     0
176
     0
177
     0
178
     0
  0
ENDTAB
  0
ENDSEC
  0
SECTION
  2
BLOCKS
  0
BLOCK
  8
0
  2
$MODEL_SPACE
 70
     0
 10
0.0
 20
0.0
 30
0.0
  3
$MODEL_SPACE
  1

  0
ENDBLK
  5
21
  8
0
  0
BLOCK
 67
     1
  8
0
  2
$PAPER_SPACE
 70
     0
 10
0.0
 20
0.0
 30
0.0
  3
$PAPER_SPACE
  1

  0
ENDBLK
  5
1D
 67
     1
  8
0
  0
ENDSEC
  0
SECTION
  2
ENTITIES
  0
ATTDEF
  5
659
  8
DEFPOINTS
 10
613.10619974932445
 20
46.509867863294431
 30
0.0
 40
0.001
  1
71111112
  3

  2
MODELNUMBER
 70
     0
1001
ACDBATTR
1070
     0
1070
     1
  0
ATTDEF
  5
65A
  8
DEFPOINTS
 10
613.10619974932445
 20
46.508201196627773
 30
0.0
 40
0.001
  1
ENSEMBLE
  3

  2
TRADENAME
 70
     0
1001
ACDBATTR
1070
     0
1070
     1
  0
ATTDEF
  5
65B
  8
DEFPOINTS
 10
613.10619974932445
 20
46.506534529961101
 30
0.0
 40
0.001
  1
BATH
  3

  2
PRODUCT
 70
     0
1001
ACDBATTR
1070
     0
1070
     1
  0
ATTDEF
  5
65C
  8
DEFPOINTS
 10
613.10619974932445
 20
46.504867863294443
 30
0.0
 40
0.001
  1
VIKRELL
  3

  2
MATERIAL
 70
     0
1001
ACDBATTR
1070
     0
1070
     1
  0
LINE
  5
18FB
  8
0
 10
569.37826770443075
 20
48.792638793945208
 30
0.0
 11
569.37826770443075
 21
51.560476034745207
 31
0.0
  0
LINE
  5
18FC
  8
0
 10
569.40891693253081
 20
47.887062789545219
 30
0.0
 11
569.41585697454605
 21
48.284694655403641
 31
0.0
  0
LINE
  5
18FD
  8
0
 10
570.58500793323083
 20
46.564033010745213
 30
0.0
 11
569.47904457943082
 21
47.709063826745208
 31
0.0
  0
LINE
  5
18FE
  8
0
 10
570.57848234572543
 20
46.554252108001421
 30
0.0
 11
569.47552383673076
 21
47.697560283845213
 31
0.0
  0
LINE
  5
18FF
  8
0
 10
571.24117138491908
 20
48.775694259174472
 30
0.0
 11
571.1633847032308
 21
49.515775455345207
 31
0.0
  0
LINE
  5
1900
  8
0
 10
571.79749357153332
 20
49.422482590279891
 30
0.0
 11
571.59064948003083
 21
53.369302971945217
 31
0.0
  0
LINE
  5
1901
  8
0
 10
571.74021670543084
 20
53.801362680345207
 30
0.0
 11
571.27232736853068
 21
64.517790356145213
 31
0.0
  0
LINE
  5
1902
  8
0
 10
571.35991404175081
 20
68.577435206151762
 30
0.0
 11
571.35991393813083
 21
67.817638807445206
 31
0.0
  0
LINE
  5
1903
  8
0
 10
570.63309795897339
 20
48.76352267565899
 30
0.0
 11
570.63324561693082
 21
48.792638793945208
 31
0.0
  0
LINE
  5
1904
  8
0
 10
570.84808796423079
 20
52.792638793945208
 30
0.0
 11
571.10777013413076
 21
67.669820344745219
 31
0.0
  0
LINE
  5
1905
  8
0
 10
571.30446128993083
 20
67.478511414245219
 30
0.0
 11
570.97829817003083
 21
48.792638793945208
 31
0.0
  0
LINE
  5
1906
  8
0
 10
571.03567876163083
 20
49.51117472914521
 30
0.0
 11
571.01037025153073
 21
48.786414685945218
 31
0.0
  0
LINE
  5
1907
  8
0
 10
574.04556381373084
 20
46.680015368245222
 30
0.0
 11
573.24318163174644
 21
47.51090303790486
 31
0.0
  0
LINE
  5
1908
  8
0
 10
572.41602478863081
 20
48.894409641645218
 30
0.0
 11
572.37542197676237
 21
49.358615216465928
 31
0.0
  0
LINE
  5
1909
  8
0
 10
574.06673811453084
 20
46.706980219945208
 30
0.0
 11
573.84829689883065
 21
49.203702140945211
 31
0.0
  0
LINE
  5
190A
  8
0
 10
573.21793591333085
 20
47.571851432245211
 30
0.0
 11
573.1893214759308
 21
49.211070773145217
 31
0.0
  0
LINE
  5
190B
  8
0
 10
572.8711417497309
 20
48.915961780145217
 30
0.0
 11
572.88159820763065
 21
49.215395554745207
 31
0.0
  0
LINE
  5
190C
  8
0
 10
574.24444500153083
 20
46.59226513784521
 30
0.0
 11
574.24605329043084
 21
46.500129202245212
 31
0.0
  0
LINE
  5
190D
  8
0
 10
576.61335041144696
 20
53.317228072028932
 30
0.0
 11
575.10880365853075
 21
64.02263879394522
 31
0.0
  0
LINE
  5
190E
  8
0
 10
574.24605329043084
 20
46.500129202245212
 30
0.0
 11
574.24255424623084
 21
46.49579347672767
 31
0.0
  0
LINE
  5
190F
  8
0
 10
581.84188590133078
 20
49.605138793945223
 30
0.0
 11
581.66594215663065
 21
51.616184998745219
 31
0.0
  0
LINE
  5
1910
  8
0
 10
580.63304096704314
 20
50.133463191794831
 30
0.0
 11
580.63305852783083
 21
50.812794357145208
 31
0.0
  0
LINE
  5
1911
  8
0
 10
580.73258700683073
 20
50.822870784945209
 30
0.0
 11
580.73248419505285
 21
52.195587757205288
 31
0.0
  0
LINE
  5
1912
  8
0
 10
580.73264788704273
 20
50.143539268782142
 30
0.0
 11
580.73273661547728
 21
50.818938358753222
 31
0.0
  0
LINE
  5
1913
  8
0
 10
580.63305852783083
 20
50.812794357145208
 30
0.0
 11
580.63319563536311
 21
52.441664463200233
 31
0.0
  0
LINE
  5
1914
  8
0
 10
583.10503397743082
 20
46.592638793945213
 30
0.0
 11
602.25490227043088
 21
46.592638793945213
 31
0.0
  0
LINE
  5
1915
  8
0
 10
574.10873364043073
 20
46.652548706545211
 30
0.0
 11
574.18550123713089
 21
46.651208722445212
 31
0.0
  0
LINE
  5
1916
  8
0
 10
570.57848234572543
 20
46.554252108001421
 30
0.0
 11
574.24255424623084
 21
46.49579347672767
 31
0.0
  0
LINE
  5
1917
  8
0
 10
570.58500793323083
 20
46.564033010745213
 30
0.0
 11
574.24605329043084
 21
46.500129202245212
 31
0.0
  0
LINE
  5
1918
  8
0
 10
582.48433059743081
 20
49.605138793945223
 30
0.0
 11
582.3427143222309
 21
51.223820225545211
 31
0.0
  0
LINE
  5
1919
  8
0
 10
583.10503397743082
 20
46.592638793945213
 30
0.0
 11
583.08360951703082
 21
49.047638793945218
 31
0.0
  0
LINE
  5
191A
  8
0
 10
583.24949949123084
 20
48.672638793945211
 30
0.0
 11
583.2484522671308
 21
48.792638793945208
 31
0.0
  0
LINE
  5
191B
  8
0
 10
583.03192572683088
 20
49.172638793945211
 30
0.0
 11
583.03083486833089
 21
49.047638793945218
 31
0.0
  0
LINE
  5
191C
  8
0
 10
583.24949949123084
 20
48.672638793945211
 30
0.0
 11
584.30295434043069
 21
48.672638793945211
 31
0.0
  0
LINE
  5
191D
  8
0
 10
589.39668786223081
 20
48.672638794045213
 30
0.0
 11
590.26608276493084
 21
48.672638793745207
 31
0.0
  0
LINE
  5
191E
  8
0
 10
595.10733769993089
 20
48.672638793945211
 30
0.0
 11
596.16079254913075
 21
48.672638793945211
 31
0.0
  0
LINE
  5
191F
  8
0
 10
601.17503851493075
 20
48.672638794045213
 30
0.0
 11
602.34805415543087
 21
48.672638793945211
 31
0.0
  0
LINE
  5
1920
  8
0
 10
602.34910137953068
 20
48.792638793945208
 30
0.0
 11
583.2484522671308
 21
48.792638793945208
 31
0.0
  0
LINE
  5
1921
  8
0
 10
569.37826770443075
 20
48.792638793945208
 30
0.0
 11
570.97829817003083
 21
48.792638793945208
 31
0.0
  0
LINE
  5
1922
  8
0
 10
583.03083486833089
 20
49.047638793945218
 30
0.0
 11
583.41704616307743
 21
49.047638793945218
 31
0.0
  0
LINE
  5
1923
  8
0
 10
584.16078038782166
 20
49.047638793945218
 30
0.0
 11
584.60244614409055
 21
49.047638793945218
 31
0.0
  0
LINE
  5
1924
  8
0
 10
594.97798858833085
 20
49.047638793945218
 30
0.0
 11
595.49022368710303
 21
49.047638793945218
 31
0.0
  0
LINE
  5
1925
  8
0
 10
596.09068743906676
 20
49.047638793945218
 30
0.0
 11
596.65831236989959
 21
49.047638793945218
 31
0.0
  0
LINE
  5
1926
  8
0
 10
596.65722151143075
 20
49.172638793945211
 30
0.0
 11
596.08410625967679
 21
49.172638793945211
 31
0.0
  0
LINE
  5
1927
  8
0
 10
595.4748756169912
 20
49.172638793945211
 30
0.0
 11
594.97907944683084
 21
49.172638793945211
 31
0.0
  0
LINE
  5
1928
  8
0
 10
584.60135528558271
 20
49.172638793945211
 30
0.0
 11
584.18875602149956
 21
49.172638793945211
 31
0.0
  0
LINE
  5
1929
  8
0
 10
583.26655345033066
 20
49.172638793945211
 30
0.0
 11
583.03192572683088
 21
49.172638793945211
 31
0.0
  0
LINE
  5
192A
  8
0
 10
569.92450684473545
 20
48.775891523938618
 30
0.0
 11
570.97986514723084
 21
48.757469663345212
 31
0.0
  0
LINE
  5
192B
  8
0
 10
572.41279382995594
 20
48.931334955554263
 30
0.0
 11
572.81207838523073
 21
48.924364871645217
 31
0.0
  0
LINE
  5
192C
  8
0
 10
572.94260864843068
 20
49.273292015245211
 30
0.0
 11
573.78957236143071
 21
49.258463657945207
 31
0.0
  0
LINE
  5
192D
  8
0
 10
572.3166978747355
 20
49.413376068591113
 30
0.0
 11
571.17203728559662
 21
49.433452705893608
 31
0.0
  0
LINE
  5
192E
  8
0
 10
583.42452057203081
 20
49.025815588945207
 30
0.0
 11
583.45729143343078
 21
48.792638793945208
 31
0.0
  0
LINE
  5
192F
  8
0
 10
583.11611340021136
 20
50.397694603297467
 30
0.0
 11
583.27162316333067
 21
49.131349294845208
 31
0.0
  0
LINE
  5
1930
  8
0
 10
584.2945899645307
 20
49.220847293145219
 30
0.0
 11
584.23741612597712
 21
50.311789121857629
 31
0.0
  0
LINE
  5
1931
  8
0
 10
584.1592976011309
 20
49.090100249245218
 30
0.0
 11
584.16968518403087
 21
48.792638793945208
 31
0.0
  0
LINE
  5
1932
  8
0
 10
583.34265137623083
 20
46.592638793945213
 30
0.0
 11
583.324561436247
 21
48.672638793945211
 31
0.0
  0
LINE
  5
1933
  8
0
 10
584.60135528558271
 20
49.172638793945211
 30
0.0
 11
584.60415219544529
 21
48.852144678235263
 31
0.0
  0
LINE
  5
1934
  8
0
 10
584.54305095034192
 20
49.047638793945218
 30
0.0
 11
584.54075355674115
 21
48.792638793945208
 31
0.0
  0
LINE
  5
1935
  8
0
 10
584.20675186168864
 20
46.592638793945213
 30
0.0
 11
584.22807030435376
 21
48.672638793945211
 31
0.0
  0
LINE
  5
1936
  8
0
 10
584.30295434043069
 20
48.672638793945211
 30
0.0
 11
584.30413965052628
 21
48.792638793945208
 31
0.0
  0
LINE
  5
1937
  8
0
 10
584.2945899645307
 20
49.220847293145219
 30
0.0
 11
583.27162316333067
 21
49.131349294845208
 31
0.0
  0
LINE
  5
1938
  8
0
 10
571.24117138491908
 20
48.775694259174472
 30
0.0
 11
572.81432066133084
 21
48.858139251845209
 31
0.0
  0
LINE
  5
1939
  8
0
 10
571.10057323393085
 20
49.569421520345209
 30
0.0
 11
571.09250205343074
 21
49.568998527845217
 31
0.0
  0
LINE
  5
193A
  8
0
 10
582.48433059743081
 20
49.605138793945223
 30
0.0
 11
581.84188590133078
 21
49.605138793945223
 31
0.0
  0
LINE
  5
193B
  8
0
 10
569.77616403233083
 20
52.22268672934522
 30
0.0
 11
570.84808796423079
 21
52.792638793945208
 31
0.0
  0
LINE
  5
193C
  8
0
 10
571.03178293857331
 20
49.399610007387118
 30
0.0
 11
570.98882729353431
 21
49.395851875336781
 31
0.0
  0
LINE
  5
193D
  8
0
 10
586.56804112835619
 20
50.897591275267807
 30
0.0
 11
586.63304346593077
 21
50.367711328645207
 31
0.0
  0
LINE
  5
193E
  8
0
 10
586.73260205363079
 20
50.384597258045211
 30
0.0
 11
586.73235188662704
 21
51.467211203934767
 31
0.0
  0
LINE
  5
193F
  8
0
 10
586.63304346593077
 20
50.367711328645207
 30
0.0
 11
586.63329863763067
 21
51.462524731645217
 31
0.0
  0
LINE
  5
1940
  8
0
 10
590.01415784415644
 20
48.792638793945208
 30
0.0
 11
589.94155924404015
 21
50.171008312017911
 31
0.0
  0
LINE
  5
1941
  8
0
 10
590.07684668633078
 20
48.792638793945208
 30
0.0
 11
590.01932888704152
 21
49.890143783219173
 31
0.0
  0
LINE
  5
1942
  8
0
 10
589.49899976533084
 20
46.592638793945213
 30
0.0
 11
589.49314725183069
 21
48.672638793945211
 31
0.0
  0
LINE
  5
1943
  8
0
 10
589.39715272213084
 20
48.792638793945208
 30
0.0
 11
589.39668786223081
 21
48.672638794045213
 31
0.0
  0
LINE
  5
1944
  8
0
 10
589.26213568300182
 20
50.172660348945577
 30
0.0
 11
589.43158102373081
 21
48.792638793945208
 31
0.0
  0
LINE
  5
1945
  8
0
 10
590.26608276493084
 20
48.672638793745207
 30
0.0
 11
590.2655911549308
 21
48.792638793945208
 31
0.0
  0
LINE
  5
1946
  8
0
 10
590.16958911293091
 20
48.672638793945211
 30
0.0
 11
590.16435008763074
 21
46.592638793945213
 31
0.0
  0
LINE
  5
1947
  8
0
 10
578.4243384697894
 20
57.315798565935467
 30
0.0
 11
579.19414286119775
 21
57.24170698457052
 31
0.0
  0
LINE
  5
1948
  8
0
 10
595.33715979072235
 20
50.294244191778752
 30
0.0
 11
595.52153375013086
 21
48.792638793945208
 31
0.0
  0
LINE
  5
1949
  8
0
 10
596.10411304502225
 20
48.792638793945208
 30
0.0
 11
596.02485450171571
 21
50.298040383284871
 31
0.0
  0
LINE
  5
194A
  8
0
 10
595.10733769993089
 20
48.672638793945211
 30
0.0
 11
595.10629047583075
 21
48.792638793945208
 31
0.0
  0
LINE
  5
194B
  8
0
 10
595.2022355620353
 20
46.592638793945213
 30
0.0
 11
595.18233769993083
 21
48.672638793945211
 31
0.0
  0
LINE
  5
194C
  8
0
 10
595.00522366883081
 20
49.047638793945218
 30
0.0
 11
595.0038925619308
 21
48.852115201745221
 31
0.0
  0
LINE
  5
194D
  8
0
 10
594.97907944683084
 20
49.172638793945211
 30
0.0
 11
594.97798858833085
 21
49.047638793945218
 31
0.0
  0
LINE
  5
194E
  8
0
 10
596.06764066413075
 20
46.592638793945213
 30
0.0
 11
596.08579254913082
 21
48.672638793945211
 31
0.0
  0
LINE
  5
194F
  8
0
 10
596.16079254913075
 20
48.672638793945211
 30
0.0
 11
596.16183977323078
 21
48.792638793945208
 31
0.0
  0
LINE
  5
1950
  8
0
 10
595.05096685453066
 20
48.852115201745221
 30
0.0
 11
595.05327530215095
 21
49.047638793945218
 31
0.0
  0
LINE
  5
1951
  8
0
 10
607.47206330036806
 20
64.612774827371538
 30
0.0
 11
601.21941786213074
 21
63.55615963454521
 31
0.0
  0
LINE
  5
1952
  8
0
 10
611.78327052585701
 20
64.617676269824585
 30
0.0
 11
610.30585646896463
 21
64.383882269481688
 31
0.0
  0
LINE
  5
1953
  8
0
 10
611.78327052585701
 20
64.617676269824585
 30
0.0
 11
606.49686022883088
 21
63.906538898345211
 31
0.0
  0
LINE
  5
1954
  8
0
 10
578.18921999424742
 20
63.745987879765067
 30
0.0
 11
571.40366306769249
 21
64.620187598347854
 31
0.0
  0
LINE
  5
1955
  8
0
 10
581.5925879831309
 20
63.779016878445212
 30
0.0
 11
575.77476840054601
 21
64.612779887457322
 31
0.0
  0
LINE
  5
1956
  8
0
 10
596.55225595628838
 20
49.172638793945211
 30
0.0
 11
596.55524419433073
 21
48.852115201745221
 31
0.0
  0
LINE
  5
1957
  8
0
 10
596.65722151143075
 20
49.172638793945211
 30
0.0
 11
596.66001867843067
 21
48.852115201745221
 31
0.0
  0
LINE
  5
1958
  8
0
 10
607.4720633001682
 20
64.612774827371538
 30
0.0
 11
603.05652166933066
 21
64.428862174845221
 31
0.0
  0
LINE
  5
1959
  8
0
 10
579.31945738003083
 20
64.02263879394522
 30
0.0
 11
571.29394615261742
 21
64.02263879394522
 31
0.0
  0
LINE
  5
195A
  8
0
 10
581.14697154093074
 20
64.38761279514523
 30
0.0
 11
575.7747684000459
 21
64.612779887457322
 31
0.0
  0
LINE
  5
195B
  8
0
 10
575.70379902513082
 20
64.612779898845204
 30
0.0
 11
607.4720594754308
 21
64.612774801245223
 31
0.0
  0
LINE
  5
195C
  8
0
 10
601.27755492535096
 20
46.592638793945213
 30
0.0
 11
601.27151323043063
 21
48.672638794036992
 31
0.0
  0
LINE
  5
195D
  8
0
 10
601.17567350002173
 20
48.792638793945208
 30
0.0
 11
601.17503851493075
 21
48.672638794045213
 31
0.0
  0
LINE
  5
195E
  8
0
 10
612.95991393813074
 20
67.27263879394522
 30
0.0
 11
612.87806952043081
 21
67.27263879394522
 31
0.0
  0
LINE
  5
195F
  8
0
 10
595.37407001963084
 20
67.297638793945225
 30
0.0
 11
594.84575785633069
 21
67.297638793945225
 31
0.0
  0
LINE
  5
1960
  8
0
 10
583.37407001963084
 20
67.297638793945225
 30
0.0
 11
582.84575785633081
 21
67.297638793945225
 31
0.0
  0
LINE
  5
1961
  8
0
 10
601.34840497722678
 20
50.222857400232009
 30
0.0
 11
601.52401374073088
 21
48.792638793945208
 31
0.0
  0
LINE
  5
1962
  8
0
 10
602.1062292465308
 20
48.792638793945208
 30
0.0
 11
602.03086247505007
 21
50.230722462592922
 31
0.0
  0
LINE
  5
1963
  8
0
 10
602.04560650713074
 20
46.592638793945213
 30
0.0
 11
602.06379653136457
 21
48.672638793945211
 31
0.0
  0
LINE
  5
1964
  8
0
 10
602.0979937492308
 20
46.592638793945213
 30
0.0
 11
602.11625265248722
 21
48.672638793945211
 31
0.0
  0
LINE
  5
1965
  8
0
 10
602.13875839213074
 20
48.672638793945211
 30
0.0
 11
602.13980561623089
 21
48.792638793945208
 31
0.0
  0
LINE
  5
1966
  8
0
 10
602.15055505766509
 20
46.592638793945213
 30
0.0
 11
602.16853287633069
 21
48.672638793945211
 31
0.0
  0
LINE
  5
1967
  8
0
 10
602.19114563423079
 20
48.672638793945211
 30
0.0
 11
602.19219285833083
 21
48.792638793945208
 31
0.0
  0
LINE
  5
1968
  8
0
 10
602.20226050479357
 20
46.592638793945213
 30
0.0
 11
602.22066691333089
 21
48.672638793945211
 31
0.0
  0
LINE
  5
1969
  8
0
 10
602.24353287633085
 20
48.672638793945211
 30
0.0
 11
602.24458010043065
 21
48.792638793945208
 31
0.0
  0
LINE
  5
196A
  8
0
 10
602.25490227043088
 20
46.592638793945213
 30
0.0
 11
602.27305415543083
 21
48.672638793945211
 31
0.0
  0
LINE
  5
196B
  8
0
 10
602.29566691333082
 20
48.672638793945211
 30
0.0
 11
602.2967141375309
 21
48.792638793945208
 31
0.0
  0
LINE
  5
196C
  8
0
 10
602.34805415543087
 20
48.672638793945211
 30
0.0
 11
602.34910137953068
 21
48.792638793945208
 31
0.0
  0
LINE
  5
196D
  8
0
 10
571.3544536746308
 20
67.527638793945215
 30
0.0
 11
582.50326711588104
 21
67.527638462851996
 31
0.0
  0
LINE
  5
196E
  8
0
 10
583.71656089562111
 20
67.527638793943709
 30
0.0
 11
594.50326698058029
 21
67.527638793846734
 31
0.0
  0
LINE
  5
196F
  8
0
 10
595.71656089562157
 20
67.527638793945215
 30
0.0
 11
613.10991393813083
 21
67.527638793945215
 31
0.0
  0
LINE
  5
1970
  8
0
 10
571.23275109603071
 20
67.792638793945216
 30
0.0
 11
571.32991393813074
 21
67.792638793945216
 31
0.0
  0
LINE
  5
1971
  8
0
 10
571.5598941597309
 20
68.777638793945215
 30
0.0
 11
613.10991393813083
 21
68.777638793945215
 31
0.0
  0
LINE
  5
1972
  8
0
 10
604.70335940713085
 20
53.150958813145223
 30
0.0
 11
604.74318698163074
 21
52.435097007045208
 31
0.0
  0
LINE
  5
1973
  8
0
 10
604.62652188513084
 20
50.888790426445219
 30
0.0
 11
604.62660389829739
 21
52.162933401808679
 31
0.0
  0
LINE
  5
1974
  8
0
 10
604.57512063765193
 20
51.311638242105808
 30
0.0
 11
604.62652188513084
 21
50.888790426445219
 31
0.0
  0
LINE
  5
1975
  8
0
 10
604.72605032173078
 20
50.897730832745218
 30
0.0
 11
604.72592435910406
 21
52.390094718518583
 31
0.0
  0
LINE
  5
1976
  8
0
 10
610.17578312803084
 20
64.099192418845206
 30
0.0
 11
608.66043374593073
 21
53.316916457445217
 31
0.0
  0
LINE
  5
1977
  8
0
 10
612.27191393813087
 20
65.127228916145214
 30
0.0
 11
612.27191393813087
 21
67.527638793945215
 31
0.0
  0
LINE
  5
1978
  8
0
 10
613.10991393813083
 20
67.422638793945225
 30
0.0
 11
613.10991393813083
 21
68.777638793945215
 31
0.0
  0
LINE
  5
1979
  8
0
 10
612.72918763453083
 20
67.404358091945227
 30
0.0
 11
612.71405066866441
 21
67.527638793945215
 31
0.0
  0
ARC
  5
197A
  8
0
 10
-856.03510970550519
 20
-55.979523760748037
 30
0.0
 40
1440.742069546734
 50
4.362674912385188
 51
4.4929628099963814
  0
ARC
  5
197B
  8
0
 10
569.91578080853083
 20
48.275967673445209
 30
0.0
 40
0.5
 50
89.000019141299262
 51
178.99991074939999
  0
CIRCLE
  5
197C
  8
0
 10
569.98350530643074
 20
48.144776957645213
 30
0.0
 40
0.094
  0
ARC
  5
197D
  8
0
 10
570.98038907625164
 20
48.787464642429008
 30
0.0
 40
0.0299995545276346
 50
268.99930354456291
 51
357.99429143485031
  0
ARC
  5
197E
  8
0
 10
570.12826770443075
 20
51.560476034745207
 30
0.0
 40
0.75
 50
118.0000000019989
 51
180.0
  0
ARC
  5
197F
  8
0
 10
572.31565034863081
 20
49.353385209345213
 30
0.0
 40
0.0600000042
 50
5.0006347604002492
 51
88.999635500201094
  0
ARC
  5
1980
  8
0
 10
571.1037133896308
 20
49.509503748245223
 30
0.0
 40
0.06
 50
5.9999994112998634
 51
93.000000044601407
  0
ARC
  5
1981
  8
0
 10
571.09564221113078
 20
49.50908075734521
 30
0.0
 40
0.06
 50
93.000000047497494
 51
177.99999948469991
  0
ARC
  5
1982
  8
0
 10
571.55991393979912
 20
68.577638793255687
 30
0.0
 40
0.200000001667662
 50
90.005666570288653
 51
180.05832341867651
  0
ARC
  5
1983
  8
0
 10
571.23275109603071
 20
67.667638793945216
 30
0.0
 40
0.125
 50
90.0
 51
178.9999999999998
  0
ARC
  5
1984
  8
0
 10
571.40084818831792
 20
64.488373146108216
 30
0.0
 40
0.1318445044934863
 50
88.776642502580543
 51
167.10761939253709
  0
ARC
  5
1985
  8
0
 10
571.3544536746308
 20
67.477638793945204
 30
0.0
 40
0.05
 50
90.000000044997165
 51
178.9999999999998
  0
ARC
  5
1986
  8
0
 10
571.33370087549554
 20
67.818594468591471
 30
0.0
 40
0.0262304773297598
 50
261.69910530734307
 51
357.91206730971339
  0
ARC
  5
1987
  8
0
 10
574.11030408390855
 20
46.742535138986639
 30
0.0
 40
0.0900001350901858
 50
224.00037485235171
 51
269.0001753892285
  0
ARC
  5
1988
  8
0
 10
573.30792260190594
 20
47.573422467322729
 30
0.0
 40
0.0900004015099037
 50
181.0001983305587
 51
223.99990899033841
  0
ARC
  5
1989
  8
0
 10
574.18445405565365
 20
46.591217774197069
 30
0.0
 40
0.0600000879819584
 50
1.0002079447803061
 51
88.999966054335687
  0
ARC
  5
198A
  8
0
 10
574.12644022305028
 20
46.712176545028377
 30
0.0
 40
0.0599278195501839
 50
184.97434826813259
 51
269.06623510207038
  0
ARC
  5
198B
  8
0
 10
573.78852521703084
 20
49.198472796945218
 30
0.0
 40
0.06
 50
4.9999994059000992
 51
89.000000000004746
  0
ARC
  5
198C
  8
0
 10
572.94156140973359
 20
49.213301396830197
 30
0.0
 40
0.0599997591977434
 50
88.999905919987995
 51
177.99981222518099
  0
ARC
  5
198D
  8
0
 10
573.12934807514046
 20
49.210031042223811
 30
0.0
 40
0.0599824128188992
 50
0.9932119056986229
 51
89.016133404492876
  0
ARC
  5
198E
  8
0
 10
572.81117896733804
 20
48.918056294681733
 30
0.0
 40
0.0599993521916464
 50
273.00150181325318
 51
357.99945789159108
  0
ARC
  5
198F
  8
0
 10
572.81211371225527
 20
48.987348485446248
 30
0.0
 40
0.0629836237083693
 50
269.96786324142897
 51
345.46968618017951
  0
ARC
  5
1990
  8
0
 10
572.46424351309338
 20
48.985457864607731
 30
0.0
 40
0.0570531998550493
 50
196.17505882657781
 51
253.6299311476948
  0
ARC
  5
1991
  8
0
 10
579.73255548233715
 20
53.810343974360393
 30
0.0
 40
3.157942932891479
 50
188.9835557536488
 51
269.13295475418022
  0
ARC
  5
1992
  8
0
 10
579.77304889753646
 20
53.235384332010511
 30
0.0
 40
3.1341601567834938
 50
202.2159131224785
 51
269.25610961541321
  0
ARC
  5
1993
  8
0
 10
584.28881557755278
 20
49.090400835524932
 30
0.0
 40
0.129518325200458
 50
96.9042596572382
 51
180.13297222568769
  0
ARC
  5
1994
  8
0
 10
583.28673477089649
 20
48.990815785181532
 30
0.0
 40
0.142161574474598
 50
14.252604793336509
 51
88.746988922282725
  0
ARC
  5
1995
  8
0
 10
582.84575785633081
 20
67.667638793945216
 30
0.0
 40
0.37
 50
202.2333271873232
 51
270.0
  0
ARC
  5
1996
  8
0
 10
583.3740700198307
 20
67.667638793945216
 30
0.0
 40
0.37
 50
269.99999996909872
 51
337.76672820148258
  0
ARC
  5
1997
  8
0
 10
589.61385286473069
 20
65.386608001745216
 30
0.0
 40
13.699509132499999
 50
257.14776731829949
 51
257.74422914850129
  0
ARC
  5
1998
  8
0
 10
575.7554622560308
 20
263.72837257794521
 30
0.0
 40
199.11559938139999
 50
268.7425660212046
 51
269.98513383619479
  0
ARC
  5
1999
  8
0
 10
595.37407001983081
 20
67.667638793945216
 30
0.0
 40
0.37
 50
269.99999996909872
 51
337.76672820165749
  0
ARC
  5
199A
  8
0
 10
594.84575785633069
 20
67.667638793945216
 30
0.0
 40
0.37
 50
202.23327181481829
 51
270.0
  0
ARC
  5
199B
  8
0
 10
611.76191393530155
 20
65.127228917282523
 30
0.0
 40
0.5100000028291225
 50
272.40000054791261
 51
359.99999987222992
  0
ARC
  5
199C
  8
0
 10
612.87806952043081
 20
67.422638793945225
 30
0.0
 40
0.15
 50
187.0001156150995
 51
270.0
  0
ARC
  5
199D
  8
0
 10
612.95991393813074
 20
67.422638793945225
 30
0.0
 40
0.15
 50
270.0
 51
0.0
  0
ARC
  5
199E
  8
0
 10
609.92248302735584
 20
-194.69884240328361
 30
0.0
 40
259.32319485078312
 50
89.588867532246567
 51
90.541413262792503
  0
ARC
  5
199F
  8
0
 10
1948.3905523793489
 20
-48.835985700092387
 30
0.0
 40
1347.549510363116
 50
175.50034913692409
 51
175.6396459942992
  0
ARC
  5
19A0
  8
0
 10
1268.0400385601031
 20
123.2332151879958
 30
0.0
 40
700.51155526495836
 50
185.8068683011011
 51
186.04777166665809
  0
LINE
  5
19A1
  8
0
 10
576.88562219003074
 20
51.937258223045212
 30
0.0
 11
576.79761476099304
 21
52.644687867715362
 31
0.0
  0
LINE
  5
19A2
  8
0
 10
580.52274374433068
 20
53.327693074745213
 30
0.0
 11
580.61950012792431
 21
52.481203569312903
 31
0.0
  0
LINE
  5
19A3
  8
0
 10
586.56656990423085
 20
52.030312968045209
 30
0.0
 11
586.56804112835619
 21
50.897591275267807
 31
0.0
  0
LINE
  5
19A4
  8
0
 10
571.12309696863065
 20
52.358568222245218
 30
0.0
 11
571.12340263583076
 21
52.792245492645222
 31
0.0
  0
ARC
  5
19A5
  8
0
 10
569.65879219896499
 20
47.882694256476093
 30
0.0
 40
0.2499134507319274
 50
178.99840822780709
 51
224.00827412352891
  0
ARC
  5
19A6
  8
0
 10
569.65650313744175
 20
47.871913119403573
 30
0.0
 40
0.251301449463938
 50
176.8979622974299
 51
223.931634820797
  0
LINE
  5
19A7
  8
0
 10
569.40556990833079
 20
47.885512127845217
 30
0.0
 11
569.41251041022633
 21
48.283155364686863
 31
0.0
  0
ARC
  5
19A8
  8
0
 10
569.91243320931585
 20
48.274417825110348
 30
0.0
 40
0.4999991496467091
 50
114.64471131480239
 51
178.99869904784711
  0
ARC
  5
19A9
  8
0
 10
572.47627645954617
 20
48.90016765034536
 30
0.0
 40
0.0605261803874668
 50
185.45894779675189
 51
263.30981220985348
  0
ARC
  5
19AA
  8
0
 10
571.14443801528557
 20
53.785552047141252
 30
0.0
 40
0.5959884426340978
 50
319.98563343783758
 51
1.5201449834122469
  0
ARC
  5
19AB
  8
0
 10
571.64280955857203
 20
53.37123681566559
 30
0.0
 40
0.052195915021852
 50
143.41876254587169
 51
182.1232781940173
  0
ARC
  5
19AC
  8
0
 10
569.8581265804512
 20
54.66065887507402
 30
0.0
 40
2.1608414254899349
 50
312.09464246548077
 51
323.30057117877578
  0
ARC
  5
19AD
  8
0
 10
571.69163427896626
 20
52.595128738646054
 30
0.0
 40
0.6014500934970992
 50
129.7972689162722
 51
160.8685920793728
  0
LINE
  5
19AE
  8
0
 10
571.35991393813083
 20
67.817638807445206
 30
0.0
 11
571.35922269673074
 21
67.636347929245218
 31
0.0
  0
ARC
  5
19AF
  8
0
 10
571.43024898180283
 20
67.533118441363953
 30
0.0
 40
0.1253038720046822
 50
124.52962820021941
 51
195.52991224092449
  0
ARC
  5
19B0
  8
0
 10
610.72250971665903
 20
64.021998489610525
 30
0.0
 40
0.5521493144283303
 50
133.26412136038229
 51
171.96336463678159
  0
LINE
  5
19B1
  8
0
 10
601.21941786213074
 20
63.55615963454521
 30
0.0
 11
601.40311252833976
 21
64.216341750167516
 31
0.0
  0
LINE
  5
19B2
  8
0
 10
611.78327052369491
 20
64.617676271309705
 30
0.0
 11
606.78072073563931
 21
64.408075272315642
 31
0.0
  0
ARC
  5
19B3
  8
0
 10
607.40604729842403
 20
63.903194318002669
 30
0.0
 40
0.9091932213591237
 50
150.6078245541822
 51
179.78922987387861
  0
ARC
  5
19B4
  8
0
 10
606.79550442202105
 20
64.099459583728574
 30
0.0
 40
0.3089695788020383
 50
92.742556029943074
 51
126.0027502150916
  0
ARC
  5
19B5
  8
0
 10
577.09832766972875
 20
63.711843034236828
 30
0.0
 40
1.091426559219616
 50
1.792768178283646
 51
16.54456520198681
  0
LINE
  5
19B6
  8
0
 10
571.40366306769249
 20
64.620187598347854
 30
0.0
 11
577.4550274449814
 21
64.371975087414683
 31
0.0
  0
ARC
  5
19B7
  8
0
 10
580.9319309205473
 20
63.762720107830788
 30
0.0
 40
0.6608580324653605
 50
1.413058164769426
 51
71.010426245321582
  0
ARC
  5
19B8
  8
0
 10
571.37641347759245
 20
64.551675796657065
 30
0.0
 40
0.1094629671546234
 50
85.002104267982446
 51
198.0327625153642
  0
ARC
  5
19B9
  8
0
 10
578.86070511721948
 20
63.769529292555191
 30
0.0
 40
0.5239447092284025
 50
28.887041806393629
 51
41.09793031619752
  0
ARC
  5
19BA
  8
0
 10
603.08945484126332
 20
64.09143758470708
 30
0.0
 40
0.3390279455858649
 50
95.574502119233287
 51
158.26739541380351
  0
ARC
  5
19BB
  8
0
 10
602.42409362527076
 20
64.328739901761537
 30
0.0
 40
0.3678231792072025
 50
241.17109547522779
 51
342.31010585111659
  0
ARC
  5
19BC
  8
0
 10
599.06781273373849
 20
53.026947293402593
 30
0.0
 40
11.43049314070684
 50
73.852649164340491
 51
90.759987754374166
  0
ARC
  5
19BD
  8
0
 10
594.70517789779115
 20
-260.60778884349332
 30
0.0
 40
325.09149829549227
 50
89.257807317215466
 51
90.364530938361284
  0
ARC
  5
19BE
  8
0
 10
590.58862705486388
 20
-367.92336622037402
 30
0.0
 40
432.4053472624874
 50
89.72859651337167
 51
90.518360789194546
  0
ARC
  5
19BF
  8
0
 10
586.40348829973561
 20
51.243821882228438
 30
0.0
 40
13.223285123944271
 50
88.81625622217669
 51
103.7456763894935
  0
ARC
  5
19C0
  8
0
 10
580.24601071891493
 20
58.60488351246461
 30
0.0
 40
1.721823520660404
 50
232.3451460115873
 51
271.11465873506791
  0
ARC
  5
19C1
  8
0
 10
577.53737694518657
 20
60.02964341385119
 30
0.0
 40
4.1735125871920538
 50
311.07386149480323
 51
3.171677065845631
  0
ARC
  5
19C2
  8
0
 10
586.68562961752605
 20
60.465047321072269
 30
0.0
 40
4.9853286918612776
 50
133.3810737215901
 51
182.35086195364639
  0
ARC
  5
19C3
  8
0
 10
578.82482999762726
 20
59.32139712839934
 30
0.0
 40
2.045194136904164
 50
216.75053900332091
 51
258.70732426589149
  0
ARC
  5
19C4
  8
0
 10
581.24642425847492
 20
62.79616026609748
 30
0.0
 40
6.2098036673108368
 50
205.96046000337611
 51
229.1672207453108
  0
ARC
  5
19C5
  8
0
 10
577.96862458255873
 20
58.997025723549889
 30
0.0
 40
1.7418954912724089
 50
285.16618130192421
 51
1.333552375429607
  0
ARC
  5
19C6
  8
0
 10
588.23972278288045
 20
57.201010705322162
 30
0.0
 40
8.7251519625609752
 50
137.6188110486865
 51
167.84895427973581
  0
ARC
  5
19C7
  8
0
 10
584.16165353508245
 20
61.203710358117291
 30
0.0
 40
3.021873737083967
 50
107.3308825255131
 51
141.56260422404259
  0
ARC
  5
19C8
  8
0
 10
597.62897088620684
 20
60.111637617721847
 30
0.0
 40
5.9857043943547721
 50
358.23659151857657
 51
37.461545724948763
  0
ARC
  5
19C9
  8
0
 10
607.53487913853826
 20
59.873220001202831
 30
0.0
 40
3.9234132954944418
 50
179.2081266285071
 51
229.64612830814599
  0
ARC
  5
19CA
  8
0
 10
605.04269320307856
 20
58.559827300466701
 30
0.0
 40
1.6771772562158349
 50
268.35145449229873
 51
308.19711011405002
  0
LINE
  5
19CB
  8
0
 10
606.07980721911463
 20
57.241753680933428
 30
0.0
 11
606.84999104440249
 21
57.31584568185481
 31
0.0
  0
ARC
  5
19CC
  8
0
 10
606.31201712988104
 20
59.609053807191287
 30
0.0
 40
2.3554658644979032
 50
283.20252933844171
 51
329.66475089662163
  0
ARC
  5
19CD
  8
0
 10
596.27875975974359
 20
68.800857567911336
 30
0.0
 40
15.917547803749599
 50
319.29219034545758
 51
326.9143393050706
  0
ARC
  5
19CE
  8
0
 10
607.34860618293385
 20
59.014789756456267
 30
0.0
 40
1.7706010349585339
 50
181.7190957421347
 51
253.64381072780549
  0
ARC
  5
19CF
  8
0
 10
597.25550906703688
 20
57.316135338201271
 30
0.0
 40
8.4843974414961565
 50
11.183313588049669
 51
42.797253159336059
  0
ARC
  5
19D0
  8
0
 10
600.04822885026692
 20
60.034756638965689
 30
0.0
 40
4.5891909758776483
 50
41.580738230505197
 51
55.159061252474352
  0
LINE
  5
19D1
  8
0
 10
586.70577451953773
 20
51.999314368987719
 30
0.0
 11
586.73235188662704
 21
51.467211203934767
 31
0.0
  0
ARC
  5
19D2
  8
0
 10
586.68272954329268
 20
51.46689108051401
 30
0.0
 40
0.0496233759130308
 50
185.04796988551891
 51
0.3696211273439478
  0
LINE
  5
19D3
  8
0
 10
586.56656990423085
 20
52.030312968045209
 30
0.0
 11
586.63329863763067
 21
51.462524731645217
 31
0.0
  0
ARC
  5
19D4
  8
0
 10
586.68312820397387
 20
50.374353409794772
 30
0.0
 40
0.0505232444212571
 50
187.55430625027441
 51
11.698119422643209
  0
LINE
  5
19D5
  8
0
 10
589.56825929979914
 20
50.86948736892257
 30
0.0
 11
589.63326163737372
 21
50.33960742229997
 31
0.0
  0
LINE
  5
19D6
  8
0
 10
589.73282022507374
 20
50.356493351699982
 30
0.0
 11
589.73257005807
 21
51.43910729758953
 31
0.0
  0
LINE
  5
19D7
  8
0
 10
589.63326163737372
 20
50.33960742229997
 30
0.0
 11
589.63351680907363
 21
51.434420825299981
 31
0.0
  0
ARC
  5
19D8
  8
0
 10
592.61407103617375
 20
65.358504095399979
 30
0.0
 40
13.699509132499999
 50
257.14776731829949
 51
257.74422914850129
  0
LINE
  5
19D9
  8
0
 10
589.56678807567368
 20
52.002209061699979
 30
0.0
 11
589.56825929979914
 21
50.86948736892257
 31
0.0
  0
LINE
  5
19DA
  8
0
 10
589.70599269098045
 20
51.971210462642482
 30
0.0
 11
589.73257005807
 21
51.43910729758953
 31
0.0
  0
ARC
  5
19DB
  8
0
 10
589.68294771473575
 20
51.438787174168759
 30
0.0
 40
0.0496233759130308
 50
185.04796988551891
 51
0.3696211273439478
  0
LINE
  5
19DC
  8
0
 10
589.56678807567368
 20
52.002209061699979
 30
0.0
 11
589.63351680907363
 21
51.434420825299981
 31
0.0
  0
ARC
  5
19DD
  8
0
 10
589.68334637541693
 20
50.346249503449528
 30
0.0
 40
0.0505232444212571
 50
187.55430625027441
 51
11.698119422643209
  0
LINE
  5
19DE
  8
0
 10
592.56882337373349
 20
50.862154630030389
 30
0.0
 11
592.63382571130819
 21
50.332274683407803
 31
0.0
  0
LINE
  5
19DF
  8
0
 10
592.73338429900809
 20
50.3491606128078
 30
0.0
 11
592.73313413200435
 21
51.431774558697363
 31
0.0
  0
LINE
  5
19E0
  8
0
 10
592.63382571130819
 20
50.332274683407803
 30
0.0
 11
592.63408088300798
 21
51.427088086407792
 31
0.0
  0
ARC
  5
19E1
  8
0
 10
595.61463511010811
 20
65.351171356507791
 30
0.0
 40
13.699509132499999
 50
257.14776731829949
 51
257.74422914850129
  0
LINE
  5
19E2
  8
0
 10
592.56735214960804
 20
51.994876322807798
 30
0.0
 11
592.56882337373349
 21
50.862154630030389
 31
0.0
  0
LINE
  5
19E3
  8
0
 10
592.70655676491492
 20
51.963877723750308
 30
0.0
 11
592.73313413200435
 21
51.431774558697363
 31
0.0
  0
ARC
  5
19E4
  8
0
 10
592.68351178866999
 20
51.431454435276578
 30
0.0
 40
0.0496233759130308
 50
185.04796988551891
 51
0.3696211273439478
  0
LINE
  5
19E5
  8
0
 10
592.56735214960804
 20
51.994876322807798
 30
0.0
 11
592.63408088300798
 21
51.427088086407792
 31
0.0
  0
ARC
  5
19E6
  8
0
 10
592.68391044935117
 20
50.338916764557361
 30
0.0
 40
0.0505232444212571
 50
187.55430625027441
 51
11.698119422643209
  0
LINE
  5
19E7
  8
0
 10
595.5684165597703
 20
50.869439256835861
 30
0.0
 11
595.63341889734488
 21
50.339559310213268
 31
0.0
  0
LINE
  5
19E8
  8
0
 10
595.73297748504478
 20
50.356445239613272
 30
0.0
 11
595.73272731804116
 21
51.439059185502828
 31
0.0
  0
LINE
  5
19E9
  8
0
 10
595.63341889734488
 20
50.339559310213268
 30
0.0
 11
595.63367406904479
 21
51.434372713213271
 31
0.0
  0
ARC
  5
19EA
  8
0
 10
598.6142282961448
 20
65.358455983313263
 30
0.0
 40
13.699509132499999
 50
257.14776731829949
 51
257.74422914850129
  0
LINE
  5
19EB
  8
0
 10
595.56694533564485
 20
52.002160949613263
 30
0.0
 11
595.5684165597703
 21
50.869439256835861
 31
0.0
  0
LINE
  5
19EC
  8
0
 10
595.7061499509515
 20
51.971162350555772
 30
0.0
 11
595.73272731804116
 21
51.439059185502828
 31
0.0
  0
ARC
  5
19ED
  8
0
 10
595.68310497470679
 20
51.438739062082057
 30
0.0
 40
0.0496233759130308
 50
185.04796988551891
 51
0.3696211273439478
  0
LINE
  5
19EE
  8
0
 10
595.56694533564485
 20
52.002160949613263
 30
0.0
 11
595.63367406904479
 21
51.434372713213271
 31
0.0
  0
ARC
  5
19EF
  8
0
 10
595.68350363538786
 20
50.346201391362833
 30
0.0
 40
0.0505232444212571
 50
187.55430625027441
 51
11.698119422643209
  0
LINE
  5
19F0
  8
0
 10
598.56856698987895
 20
50.89742205099796
 30
0.0
 11
598.63356932745342
 21
50.367542104375381
 31
0.0
  0
LINE
  5
19F1
  8
0
 10
598.73312791515355
 20
50.384428033775379
 30
0.0
 11
598.7328777481498
 21
51.467041979664927
 31
0.0
  0
LINE
  5
19F2
  8
0
 10
598.63356932745342
 20
50.367542104375381
 30
0.0
 11
598.63382449915343
 21
51.462355507375378
 31
0.0
  0
ARC
  5
19F3
  8
0
 10
601.61437872625345
 20
65.386438777475377
 30
0.0
 40
13.699509132499999
 50
257.14776731829949
 51
257.74422914850129
  0
LINE
  5
19F4
  8
0
 10
598.56709576575349
 20
52.030143743775383
 30
0.0
 11
598.56856698987895
 21
50.89742205099796
 31
0.0
  0
LINE
  5
19F5
  8
0
 10
598.70630038106037
 20
51.999145144717893
 30
0.0
 11
598.7328777481498
 21
51.467041979664927
 31
0.0
  0
ARC
  5
19F6
  8
0
 10
598.68325540481555
 20
51.46672185624417
 30
0.0
 40
0.0496233759130308
 50
185.04796988551891
 51
0.3696211273439478
  0
LINE
  5
19F7
  8
0
 10
598.56709576575349
 20
52.030143743775383
 30
0.0
 11
598.63382449915343
 21
51.462355507375378
 31
0.0
  0
ARC
  5
19F8
  8
0
 10
598.68365406549674
 20
50.374184185524939
 30
0.0
 40
0.0505232444212571
 50
187.55430625027441
 51
11.698119422643209
  0
LINE
  5
19F9
  8
0
 10
601.56920565871042
 20
50.952988737824718
 30
0.0
 11
601.634207996285
 21
50.423108791202139
 31
0.0
  0
LINE
  5
19FA
  8
0
 10
601.73376658398502
 20
50.439994720602137
 30
0.0
 11
601.73351641698116
 21
51.522608666491699
 31
0.0
  0
LINE
  5
19FB
  8
0
 10
601.634207996285
 20
50.423108791202139
 30
0.0
 11
601.6344631679849
 21
51.517922194202129
 31
0.0
  0
ARC
  5
19FC
  8
0
 10
604.61501739508503
 20
65.442005464302142
 30
0.0
 40
13.699509132499999
 50
257.14776731829949
 51
257.74422914850129
  0
LINE
  5
19FD
  8
0
 10
601.56773443458485
 20
52.085710430602141
 30
0.0
 11
601.56920565871042
 21
50.952988737824718
 31
0.0
  0
LINE
  5
19FE
  8
0
 10
601.70693904989184
 20
52.054711831544651
 30
0.0
 11
601.73351641698116
 21
51.522608666491699
 31
0.0
  0
ARC
  5
19FF
  8
0
 10
601.68389407364691
 20
51.522288543070928
 30
0.0
 40
0.0496233759130308
 50
185.04796988551891
 51
0.3696211273439478
  0
LINE
  5
1A00
  8
0
 10
601.56773443458485
 20
52.085710430602141
 30
0.0
 11
601.6344631679849
 21
51.517922194202129
 31
0.0
  0
ARC
  5
1A01
  8
0
 10
601.68429273432821
 20
50.429750872351697
 30
0.0
 40
0.0505232444212571
 50
187.55430625027441
 51
11.698119422643209
  0
ARC
  5
1A02
  8
0
 10
584.6649033605861
 20
48.853402722795202
 30
0.0
 40
0.0607641896356834
 50
181.18632034158281
 51
269.83213668407387
  0
ARC
  5
1A03
  8
0
 10
579.79340077150778
 20
53.127188969620157
 30
0.0
 40
3.1418325003954011
 50
202.2555213223682
 51
242.62228895454049
  0
ARC
  5
1A04
  8
0
 10
580.28487519175007
 20
53.950709270814407
 30
0.0
 40
4.0995269912410377
 50
241.81545734128889
 51
264.55532418924821
  0
ARC
  5
1A05
  8
0
 10
594.94499153292168
 20
48.8511650806592
 30
0.0
 40
0.0589086916203377
 50
276.53198057249142
 51
0.9241469677457748
  0
ARC
  5
1A06
  8
0
 10
594.99239987327576
 20
48.851184567070973
 30
0.0
 40
0.0585743747231659
 50
271.79059190935152
 51
0.9103585474437895
  0
ARC
  5
1A07
  8
0
 10
596.7209632712636
 20
48.853416179412363
 30
0.0
 40
0.0609584771664513
 50
181.22290110976169
 51
265.58249122442737
  0
ARC
  5
1A08
  8
0
 10
596.61974488454211
 20
48.856819149481588
 30
0.0
 40
0.0646719890063929
 50
184.17111902375291
 51
262.93071077634028
  0
ARC
  5
1A09
  8
0
 10
594.01357082669369
 20
391.17926813644362
 30
0.0
 40
341.6882779355023
 50
267.85178689771459
 51
267.9570544299155
  0
ARC
  5
1A0A
  8
0
 10
594.01357082669369
 20
391.17926813644362
 30
0.0
 40
341.6882779355023
 50
268.06517580106441
 51
268.18751522387743
  0
ARC
  5
1A0B
  8
0
 10
594.01357082669369
 20
391.17926813644362
 30
0.0
 40
341.6882779355023
 50
268.36646331841501
 51
269.21661161659989
  0
ARC
  5
1A0C
  8
0
 10
594.01357082669369
 20
391.17926813644362
 30
0.0
 40
341.6882779355023
 50
269.33351767275309
 51
269.76915533597969
  0
ARC
  5
1A0D
  8
0
 10
589.67014402079542
 20
541.62325512200198
 30
0.0
 40
492.13843403851581
 50
270.3453994650406
 51
270.6708694151551
  0
ARC
  5
1A0E
  8
0
 10
589.67014402079542
 20
541.62325512200198
 30
0.0
 40
492.13843403851581
 50
270.74457951835029
 51
271.368281618791
  0
ARC
  5
1A0F
  8
0
 10
589.67014402079542
 20
541.62325512200198
 30
0.0
 40
492.13843403851581
 50
271.44281207264709
 51
271.56369166293553
  0
ARC
  5
1A10
  8
0
 10
584.03044605587593
 20
82.691911102586062
 30
0.0
 40
33.081618754127611
 50
262.8203782715953
 51
265.10139715263938
  0
ARC
  5
1A11
  8
0
 10
602.81982547043867
 20
66.679316072272883
 30
0.0
 40
17.013528950898571
 50
270.9425859455456
 51
281.31357567841479
  0
ARC
  5
1A12
  8
0
 10
605.47515900412338
 20
53.168837753823702
 30
0.0
 40
3.2450006671155629
 50
282.13869056730238
 51
339.47537469892109
  0
ARC
  5
1A13
  8
0
 10
605.39669441521073
 20
53.318167302587717
 30
0.0
 40
3.3727123240134609
 50
286.10394471133372
 51
337.56658696632928
  0
LINE
  5
1A14
  8
0
 10
608.34483993863068
 20
52.765440432245221
 30
0.0
 11
608.38047440183072
 21
52.09952674144521
 31
0.0
  0
LINE
  5
1A15
  8
0
 10
608.48004116401864
 20
52.67962043463249
 30
0.0
 11
608.51417217613084
 21
52.031108317645213
 31
0.0
  0
ARC
  5
1A16
  8
0
 10
605.12944717661287
 20
53.861459970891552
 30
0.0
 40
3.5727291795964451
 50
339.81380714484197
 51
351.23299733981651
  0
ARC
  5
1A17
  8
0
 10
606.22929797993299
 20
53.511537555664752
 30
0.0
 40
2.3995689148207409
 50
332.8044933775854
 51
339.71473699135151
  0
ARC
  5
1A18
  8
0
 10
605.42673473623086
 20
53.847948383257112
 30
0.0
 40
3.1124205108368659
 50
290.70062499900212
 51
339.64702882255568
  0
LINE
  5
1A19
  8
0
 10
607.48048946293068
 20
52.93566484044522
 30
0.0
 11
607.52092946843072
 21
52.215206797145207
 31
0.0
  0
ARC
  5
1A1A
  8
0
 10
604.36504487052525
 20
53.642659056211762
 30
0.0
 40
3.4637014229306429
 50
268.65484467129772
 51
335.66207234703199
  0
ARC
  5
1A1B
  8
0
 10
602.92949294027403
 20
53.645021887636858
 30
0.0
 40
3.4038314381613501
 50
269.35678068310528
 51
337.16941187074713
  0
LINE
  5
1A1C
  8
0
 10
606.06665508401318
 20
52.324309146990963
 30
0.0
 11
606.02617293920468
 21
53.047874026491968
 31
0.0
  0
ARC
  5
1A1D
  8
0
 10
602.93354345364685
 20
54.145357920605143
 30
0.0
 40
3.2815892541235701
 50
281.28869695278013
 51
300.03357044095071
  0
ARC
  5
1A1E
  8
0
 10
602.93354345364685
 20
54.145357920605143
 30
0.0
 40
3.2815892541235701
 50
303.10797114331058
 51
340.46171214435219
  0
ARC
  5
1A1F
  8
0
 10
604.36106859250719
 20
54.153881496709559
 30
0.0
 40
3.3488562806477771
 50
278.59409832001847
 51
338.66803510252242
  0
LINE
  5
1A20
  8
0
 10
583.56704091625579
 20
50.95380848256935
 30
0.0
 11
583.63204325383049
 21
50.423928535946771
 31
0.0
  0
LINE
  5
1A21
  8
0
 10
583.73160184153039
 20
50.440814465346762
 30
0.0
 11
583.73135167452676
 21
51.523428411236317
 31
0.0
  0
LINE
  5
1A22
  8
0
 10
583.63204325383049
 20
50.423928535946771
 30
0.0
 11
583.63229842553039
 21
51.518741938946761
 31
0.0
  0
ARC
  5
1A23
  8
0
 10
586.61285265263041
 20
65.442825209046759
 30
0.0
 40
13.699509132499999
 50
257.14776731829949
 51
257.74422914850129
  0
LINE
  5
1A24
  8
0
 10
583.56556969213034
 20
52.086530175346752
 30
0.0
 11
583.56704091625579
 21
50.95380848256935
 31
0.0
  0
LINE
  5
1A25
  8
0
 10
583.70477430743711
 20
52.055531576289262
 30
0.0
 11
583.73135167452676
 21
51.523428411236317
 31
0.0
  0
ARC
  5
1A26
  8
0
 10
583.6817293311924
 20
51.523108287815553
 30
0.0
 40
0.0496233759130308
 50
185.04796988551891
 51
0.3696211273439478
  0
LINE
  5
1A27
  8
0
 10
583.56556969213034
 20
52.086530175346752
 30
0.0
 11
583.63229842553039
 21
51.518741938946761
 31
0.0
  0
ARC
  5
1A28
  8
0
 10
583.68212799187347
 20
50.430570617096322
 30
0.0
 40
0.0505232444212571
 50
187.55430625027441
 51
11.698119422643209
  0
ARC
  5
1A29
  8
0
 10
601.72190998328597
 20
53.568229653990883
 30
0.0
 40
3.226779245052612
 50
275.30572555540891
 51
339.44139819211642
  0
ARC
  5
1A2A
  8
0
 10
601.66157649858064
 20
54.136103122466643
 30
0.0
 40
3.1973352299901432
 50
271.29167646164251
 51
342.05438133564741
  0
ARC
  5
1A2B
  8
0
 10
583.54148928134134
 20
53.96668855038827
 30
0.0
 40
3.0293049027070529
 50
186.62901156845129
 51
231.81120556692289
  0
ARC
  5
1A2C
  8
0
 10
583.54148928134134
 20
53.96668855038827
 30
0.0
 40
3.0293049027070529
 50
246.76201472321361
 51
270.52110534704838
  0
ARC
  5
1A2D
  8
0
 10
593.07217424373744
 20
1161.4975747075559
 30
0.0
 40
1110.600724488887
 50
269.51810922450022
 51
269.66444928302349
  0
ARC
  5
1A2E
  8
0
 10
593.07217424373744
 20
1161.4975747075559
 30
0.0
 40
1110.600724488887
 50
269.6729340105851
 51
269.81923087717848
  0
ARC
  5
1A2F
  8
0
 10
593.07217424373744
 20
1161.4975747075559
 30
0.0
 40
1110.600724488887
 50
269.82771630133652
 51
269.97402984593771
  0
ARC
  5
1A30
  8
0
 10
593.07217424373744
 20
1161.4975747075559
 30
0.0
 40
1110.600724488887
 50
269.98251533084891
 51
270.12877897338058
  0
ARC
  5
1A31
  8
0
 10
593.07217424373744
 20
1161.4975747075559
 30
0.0
 40
1110.600724488887
 50
270.13726422222669
 51
270.28355863264682
  0
ARC
  5
1A32
  8
0
 10
593.07217424373744
 20
1161.4975747075559
 30
0.0
 40
1110.600724488887
 50
270.29204301360011
 51
270.43851470442132
  0
ARC
  5
1A33
  8
0
 10
592.93496039461252
 20
542.57511791399872
 30
0.0
 40
492.87775123620838
 50
268.99217458131841
 51
269.57963445057601
  0
ARC
  5
1A34
  8
0
 10
592.93496039461252
 20
542.57511791399872
 30
0.0
 40
492.87775123620838
 50
269.66218558703582
 51
270.28768154088039
  0
ARC
  5
1A35
  8
0
 10
592.93496039461252
 20
542.57511791399872
 30
0.0
 40
492.87775123620838
 50
270.36281058378552
 51
270.9845518051539
  0
ARC
  5
1A36
  8
0
 10
592.93496039461252
 20
542.57511791399872
 30
0.0
 40
492.87775123620838
 50
271.06017120125881
 51
271.38477490499298
  0
ARC
  5
1A37
  8
0
 10
592.81478453617456
 20
860.07519012334603
 30
0.0
 40
810.18986903406756
 50
269.394819319188
 51
269.75118829927283
  0
ARC
  5
1A38
  8
0
 10
592.81478453617456
 20
860.07519012334603
 30
0.0
 40
810.18986903406756
 50
269.79785342997133
 51
270.18189535121729
  0
ARC
  5
1A39
  8
0
 10
592.81478453617456
 20
860.07519012334603
 30
0.0
 40
810.18986903406756
 50
270.22852608246689
 51
270.60603736253159
  0
ARC
  5
1A3A
  8
0
 10
592.81478453617456
 20
860.07519012334603
 30
0.0
 40
810.18986903406756
 50
270.6528507223461
 51
270.89817614163508
  0
ARC
  5
1A3B
  8
0
 10
592.01923723441155
 20
887.30772288998139
 30
0.0
 40
837.21764754634239
 50
269.46810043677232
 51
269.81197088582758
  0
ARC
  5
1A3C
  8
0
 10
592.01923723441155
 20
887.30772288998139
 30
0.0
 40
837.21764754634239
 50
269.85809447005857
 51
270.22872531782508
  0
ARC
  5
1A3D
  8
0
 10
592.01923723441155
 20
887.30772288998139
 30
0.0
 40
837.21764754634239
 50
270.27484386557461
 51
270.63914169758641
  0
ARC
  5
1A3E
  8
0
 10
592.01923723441155
 20
887.30772288998139
 30
0.0
 40
837.21764754634239
 50
270.68546092704281
 51
270.83936240625371
  0
ARC
  5
1A3F
  8
0
 10
591.70796776349812
 20
916.34360686424066
 30
0.0
 40
866.17439969198347
 50
269.50620804884602
 51
270.24101812385481
  0
ARC
  5
1A40
  8
0
 10
591.70796776349812
 20
916.34360686424066
 30
0.0
 40
866.17439969198347
 50
270.28596609637782
 51
270.73977535226959
  0
ARC
  5
1A41
  8
0
 10
591.09923464691519
 20
880.30187554920326
 30
0.0
 40
830.01845047028155
 50
269.52632653014263
 51
270.31602857392483
  0
ARC
  5
1A42
  8
0
 10
591.09923464691519
 20
880.30187554920326
 30
0.0
 40
830.01845047028155
 50
270.31691268365518
 51
270.7538970570464
  0
ARC
  5
1A43
  8
0
 10
605.73991367746271
 20
33.121174730930349
 30
0.0
 40
16.744011617768709
 50
91.18479127081595
 51
93.059949928996673
  0
ARC
  5
1A44
  8
0
 10
605.57767769597865
 20
53.073294560535743
 30
0.0
 40
3.0890648713255779
 50
268.83564987187748
 51
284.13824738328333
  0
ARC
  5
1A45
  8
0
 10
605.45693180031458
 20
53.270185351485182
 30
0.0
 40
3.149213064265548
 50
270.39351068366352
 51
338.1776174142488
  0
ARC
  5
1A46
  8
0
 10
592.23439540877371
 20
851.43726718717789
 30
0.0
 40
801.42566302163164
 50
269.42924374332529
 51
269.78887179416978
  0
ARC
  5
1A47
  8
0
 10
592.23439540877371
 20
851.43726718717789
 30
0.0
 40
801.42566302163164
 50
269.8366675768288
 51
270.22425156809641
  0
ARC
  5
1A48
  8
0
 10
592.23439540877371
 20
851.43726718717789
 30
0.0
 40
801.42566302163164
 50
270.27203388837222
 51
270.6529933508495
  0
ARC
  5
1A49
  8
0
 10
592.23439540877371
 20
851.43726718717789
 30
0.0
 40
801.42566302163164
 50
270.7009858952182
 51
270.94689919215767
  0
ARC
  5
1A4A
  8
0
 10
585.30569509208271
 20
212.99198627166751
 30
0.0
 40
163.2119889862193
 50
268.10053419994682
 51
268.77742097258442
  0
ARC
  5
1A4B
  8
0
 10
585.30569509208271
 20
212.99198627166751
 30
0.0
 40
163.2119889862193
 50
269.00337734894259
 51
269.25736558574488
  0
ARC
  5
1A4C
  8
0
 10
596.29354048239134
 20
1197.604350518852
 30
0.0
 40
1147.7371024319541
 50
269.17383697932348
 51
269.27700100807152
  0
ARC
  5
1A4D
  8
0
 10
596.29354048239134
 20
1197.604350518852
 30
0.0
 40
1147.7371024319541
 50
269.30910936731379
 51
269.34495274267601
  0
ARC
  5
1A4E
  8
0
 10
579.7885435135297
 20
53.11525554969009
 30
0.0
 40
3.1290022800691939
 50
242.60078395804931
 51
269.19510786715563
  0
ARC
  5
1A4F
  8
0
 10
596.62545604175079
 20
1362.641042346246
 30
0.0
 40
1312.648261193212
 50
269.26261287305152
 51
269.35289821655948
  0
ARC
  5
1A50
  8
0
 10
596.62545604175079
 20
1362.641042346246
 30
0.0
 40
1312.648261193212
 50
269.38096913144108
 51
269.41212119349149
  0
ARC
  5
1A51
  8
0
 10
581.90237002464164
 20
1.874761530664812
 30
0.0
 40
48.299073325985191
 50
88.525045203943165
 51
89.368342020895497
  0
ARC
  5
1A52
  8
0
 10
581.90237002464164
 20
1.874761530664812
 30
0.0
 40
48.299073325985191
 50
90.130759868051683
 51
91.387740361834375
  0
ARC
  5
1A53
  8
0
 10
581.65242846526803
 20
-5.0988985273399763
 30
0.0
 40
55.355135590492353
 50
88.464289753035956
 51
89.197375661892735
  0
ARC
  5
1A54
  8
0
 10
581.65242846526803
 20
-5.0988985273399763
 30
0.0
 40
55.355135590492353
 50
89.862846815115475
 51
90.952055831115246
  0
ARC
  5
1A55
  8
0
 10
584.03087092650105
 20
54.976800892846597
 30
0.0
 40
4.6695819666103171
 50
249.52012299326211
 51
272.53513709996571
  0
ARC
  5
1A56
  8
0
 10
583.45500962589631
 20
54.040424847989513
 30
0.0
 40
3.017643083726893
 50
193.66167510388459
 51
223.8142466478665
  0
ARC
  5
1A57
  8
0
 10
583.52617447796877
 20
53.465872422327671
 30
0.0
 40
3.0689295409481439
 50
198.71439245025701
 51
233.94122616357961
  0
ARC
  5
1A58
  8
0
 10
580.68270417599331
 20
50.81900394007355
 30
0.0
 40
0.0500324824650913
 50
187.1294217898843
 51
4.4326213833333581
  0
ARC
  5
1A59
  8
0
 10
582.46767158130115
 20
54.418868866500652
 30
0.0
 40
3.5755334692366021
 50
240.96945840059749
 51
258.03345937775322
  0
ARC
  5
1A5A
  8
0
 10
582.48541644902195
 20
53.869186558911998
 30
0.0
 40
3.5768866111342081
 50
240.65915564422181
 51
258.5462347965103
  0
ARC
  5
1A5B
  8
0
 10
580.85493824600314
 20
49.599345667710672
 30
0.0
 40
2.2173670325647281
 50
48.886297117345102
 51
66.959854677135255
  0
ARC
  5
1A5C
  8
0
 10
582.24517860411606
 20
51.193555001262617
 30
0.0
 40
0.1021234552344375
 50
17.239058148333669
 51
48.400766088180987
  0
ARC
  5
1A5D
  8
0
 10
581.70919875405025
 20
51.592341147931627
 30
0.0
 40
0.0493929391909819
 50
74.061300001994283
 51
151.1356188485322
  0
ARC
  5
1A5E
  8
0
 10
575.81168515672243
 20
-321.50653346392983
 30
0.0
 40
372.17944924409409
 50
89.257745661204339
 51
89.403740983711074
  0
LINE
  5
1A5F
  8
0
 10
604.57512063765193
 20
51.311638242105808
 30
0.0
 11
604.57512063765193
 21
52.06114861499038
 31
0.0
  0
ARC
  5
1A60
  8
0
 10
604.67615549932998
 20
50.894714570448457
 30
0.0
 40
0.0499859094210401
 50
186.80648057831471
 51
3.4594579055378292
  0
ARC
  5
1A61
  8
0
 10
601.52081266228868
 20
54.033812019460257
 30
0.0
 40
3.2474394119380392
 50
324.21628577361759
 51
352.62542900017871
  0
ARC
  5
1A62
  8
0
 10
580.68269376877959
 20
50.139990560471588
 30
0.0
 40
0.0500800086074192
 50
187.48917122432789
 51
4.0634288745689089
  0
ENDSEC
  0
EOF
