  0
SECTION
  2
HEADER
  9
$ACADVER
  1
AC1009
  9
$INSBASE
 10
766.56254203672142
 20
-7.9478568791895698
 30
0.0
  9
$EXTMIN
 10
736.52496078147135
 20
-45.679503112789568
 30
0.0
  9
$EXTMAX
 10
796.60012329197139
 20
-7.9409453589981371
 30
0.0
  9
$LIMMIN
 10
0.0
 20
0.0
  9
$LIMMAX
 10
11.692913385800001
 20
8.2677165353999982
  9
$ORTHOMODE
 70
     1
  9
$REGENMODE
 70
     1
  9
$FILLMODE
 70
     1
  9
$QTEXTMODE
 70
     0
  9
$MIRRTEXT
 70
     0
  9
$DRAGMODE
 70
     2
  9
$LTSCALE
 40
0.6431102362
  9
$OSMODE
 70
  3071
  9
$ATTMODE
 70
     1
  9
$TEXTSIZE
 40
0.2
  9
$TRACEWID
 40
0.05
  9
$TEXTSTYLE
  7
STANDARD
  9
$CLAYER
  8
0
  9
$CELTYPE
  6
BYLAYER
  9
$CECOLOR
 62
   256
  9
$DIMSCALE
 40
1.0
  9
$DIMASZ
 40
0.1875
  9
$DIMEXO
 40
0.0625
  9
$DIMDLI
 40
0.4443307087
  9
$DIMRND
 40
0.0
  9
$DIMDLE
 40
0.0
  9
$DIMEXE
 40
0.125
  9
$DIMTP
 40
0.01
  9
$DIMTM
 40
0.01
  9
$DIMTXT
 40
1.0
  9
$DIMCEN
 40
0.1052362205
  9
$DIMTSZ
 40
0.0
  9
$DIMTOL
 70
     1
  9
$DIMLIM
 70
     0
  9
$DIMTIH
 70
     1
  9
$DIMTOH
 70
     1
  9
$DIMSE1
 70
     0
  9
$DIMSE2
 70
     0
  9
$DIMTAD
 70
     0
  9
$DIMZIN
 70
     0
  9
$DIMBLK
  1

  9
$DIMASO
 70
     1
  9
$DIMSHO
 70
     1
  9
$DIMPOST
  1
\X
  9
$DIMAPOST
  1

  9
$DIMALT
 70
     1
  9
$DIMALTD
 70
     2
  9
$DIMALTF
 40
25.399999999999999
  9
$DIMLFAC
 40
1.0
  9
$DIMTOFL
 70
     0
  9
$DIMTVP
 40
0.0
  9
$DIMTIX
 70
     0
  9
$DIMSOXD
 70
     0
  9
$DIMSAH
 70
     0
  9
$DIMBLK1
  1

  9
$DIMBLK2
  1

  9
$DIMSTYLE
  2
STANDARD
  9
$DIMCLRD
 70
     0
  9
$DIMCLRE
 70
     0
  9
$DIMCLRT
 70
     0
  9
$DIMTFAC
 40
1.0
  9
$DIMGAP
 40
0.09
  9
$LUNITS
 70
     2
  9
$LUPREC
 70
     4
  9
$SKETCHINC
 40
0.1
  9
$FILLETRAD
 40
0.0
  9
$AUNITS
 70
     0
  9
$AUPREC
 70
     0
  9
$MENU
  1
.
  9
$ELEVATION
 40
0.0
  9
$PELEVATION
 40
0.0
  9
$THICKNESS
 40
0.0
  9
$LIMCHECK
 70
     0
  9
$BLIPMODE
 70
     0
  9
$CHAMFERA
 40
0.0
  9
$CHAMFERB
 40
0.0
  9
$SKPOLY
 70
     0
  9
$TDCREATE
 40
2458306.609456806
  9
$TDUPDATE
 40
2458414.4665418412
  9
$TDINDWG
 40
0.0729177315
  9
$TDUSRTIMER
 40
0.0729177315
  9
$USRTIMER
 70
     1
  9
$ANGBASE
 50
0.0
  9
$ANGDIR
 70
     0
  9
$PDMODE
 70
     0
  9
$PDSIZE
 40
0.3125
  9
$PLINEWID
 40
0.0
  9
$COORDS
 70
     1
  9
$SPLFRAME
 70
     0
  9
$SPLINETYPE
 70
     6
  9
$SPLINESEGS
 70
     8
  9
$ATTDIA
 70
     1
  9
$ATTREQ
 70
     1
  9
$HANDLING
 70
     1
  9
$HANDSEED
  5
1C55
  9
$SURFTAB1
 70
     6
  9
$SURFTAB2
 70
     6
  9
$SURFTYPE
 70
     6
  9
$SURFU
 70
     6
  9
$SURFV
 70
     6
  9
$UCSNAME
  2

  9
$UCSORG
 10
0.0
 20
0.0
 30
0.0
  9
$UCSXDIR
 10
1.0
 20
0.0
 30
0.0
  9
$UCSYDIR
 10
0.0
 20
1.0
 30
0.0
  9
$PUCSNAME
  2

  9
$PUCSORG
 10
0.0
 20
0.0
 30
0.0
  9
$PUCSXDIR
 10
1.0
 20
0.0
 30
0.0
  9
$PUCSYDIR
 10
0.0
 20
1.0
 30
0.0
  9
$USERI1
 70
     0
  9
$USERI2
 70
     0
  9
$USERI3
 70
     0
  9
$USERI4
 70
     0
  9
$USERI5
 70
     0
  9
$USERR1
 40
0.0
  9
$USERR2
 40
0.0
  9
$USERR3
 40
0.0
  9
$USERR4
 40
0.0
  9
$USERR5
 40
0.0
  9
$WORLDVIEW
 70
     1
  9
$SHADEDGE
 70
     3
  9
$SHADEDIF
 70
    70
  9
$TILEMODE
 70
     1
  9
$MAXACTVP
 70
    64
  9
$PLIMCHECK
 70
     0
  9
$PEXTMIN
 10
1.0000000000000000E+020
 20
1.0000000000000000E+020
 30
1.0000000000000000E+020
  9
$PEXTMAX
 10
-1.0000000000000000E+020
 20
-1.0000000000000000E+020
 30
-1.0000000000000000E+020
  9
$PLIMMIN
 10
0.0
 20
0.0
  9
$PLIMMAX
 10
12.0
 20
9.0
  9
$UNITMODE
 70
     0
  9
$VISRETAIN
 70
     1
  9
$PLINEGEN
 70
     0
  9
$PSLTSCALE
 70
     1
  0
ENDSEC
  0
SECTION
  2
TABLES
  0
TABLE
  2
VPORT
 70
     1
  0
VPORT
  2
*ACTIVE
 70
     0
 10
0.0
 20
0.0
 11
1.0
 21
1.0
 12
0.0
 22
0.0
 13
0.0
 23
0.0
 14
1.0
 24
1.0
 15
0.0
 25
0.0
 16
0.0
 26
0.0
 36
198.37989228345731
 17
766.56254203672142
 27
-26.810224235893859
 37
0.0
 40
70.972220825968876
 41
2.0834248079034019
 42
50.0
 43
0.0
 44
0.0
 50
0.0
 51
0.0
 71
     0
 72
   100
 73
     1
 74
     1
 75
     0
 76
     0
 77
     0
 78
     0
  0
ENDTAB
  0
TABLE
  2
LTYPE
 70
     2
  0
LTYPE
  2
CONTINUOUS
 70
     0
  3
Solid line
 72
    65
 73
     0
 40
0.0
  0
LTYPE
  2
PHANTOM2
 70
     0
  3
___ _ _ ___ _ _ ___ _ _ ___ _ _
 72
    65
 73
     6
 40
1.25
 49
0.625
 49
-0.125
 49
0.125
 49
-0.125
 49
0.125
 49
-0.125
  0
ENDTAB
  0
TABLE
  2
LAYER
 70
     2
  0
LAYER
  2
0
 70
     0
 62
   255
  6
CONTINUOUS
  0
LAYER
  2
DEFPOINTS
 70
     0
 62
     7
  6
CONTINUOUS
  0
ENDTAB
  0
TABLE
  2
STYLE
 70
     1
  0
STYLE
  2
STANDARD
 70
     0
 40
0.0
 41
0.8
 50
0.0
 71
     0
 42
0.2
  3
txt
  4

  0
ENDTAB
  0
TABLE
  2
VIEW
 70
     0
  0
ENDTAB
  0
TABLE
  2
UCS
 70
     0
  0
ENDTAB
  0
TABLE
  2
APPID
 70
     9
  0
APPID
  2
ACAD
 70
     0
  0
APPID
  2
ACAD_MLEADERVER
 70
     0
  0
APPID
  2
ACAD_EXEMPT_FROM_CAD_STANDARDS
 70
     0
  0
APPID
  2
ACAD_DSTYLE_DIMJAG
 70
     0
  0
APPID
  2
ACAD_DSTYLE_DIMTALN
 70
     0
  0
APPID
  2
ACAD_NAV_VCDISPLAY
 70
     0
  0
APPID
  2
ACAECLAYERSTANDARD
 70
     0
  0
APPID
  2
ACCMTRANSPARENCY
 70
     0
  0
APPID
  2
ACDBATTR
 70
     0
  0
ENDTAB
  0
TABLE
  2
DIMSTYLE
 70
     1
  0
DIMSTYLE
  2
STANDARD
 70
     0
  3

  4

  5

  6

  7

 40
1.0
 41
0.1875
 42
0.0625
 43
0.38
 44
0.125
 45
0.0
 46
0.0
 47
0.01
 48
0.01
140
0.15625
141
0.09
142
0.0
143
25.399999999999999
144
1.0
145
0.0
146
1.0
147
0.09
 71
     1
 72
     0
 73
     1
 74
     1
 75
     0
 76
     0
 77
     0
 78
     4
170
     0
171
     2
172
     0
173
     0
174
     0
175
     0
176
     0
177
     0
178
     0
  0
ENDTAB
  0
ENDSEC
  0
SECTION
  2
BLOCKS
  0
BLOCK
  8
0
  2
$MODEL_SPACE
 70
     0
 10
0.0
 20
0.0
 30
0.0
  3
$MODEL_SPACE
  1

  0
ENDBLK
  5
21
  8
0
  0
BLOCK
 67
     1
  8
0
  2
$PAPER_SPACE
 70
     0
 10
0.0
 20
0.0
 30
0.0
  3
$PAPER_SPACE
  1

  0
ENDBLK
  5
1D
 67
     1
  8
0
  0
ENDSEC
  0
SECTION
  2
ENTITIES
  0
ATTDEF
  5
659
  8
DEFPOINTS
 10
766.55980772870953
 20
-7.9419453589981401
 30
0.0
 40
0.001
  1
71101112
  3

  2
MODELNUMBER
 70
     0
1001
ACDBATTR
1070
     0
1070
     1
  0
ATTDEF
  5
65A
  8
DEFPOINTS
 10
766.55980772870953
 20
-7.9436120256648053
 30
0.0
 40
0.001
  1
ENSEMBLE
  3

  2
TRADENAME
 70
     0
1001
ACDBATTR
1070
     0
1070
     1
  0
ATTDEF
  5
65B
  8
DEFPOINTS
 10
766.55980772870953
 20
-7.9452786923314704
 30
0.0
 40
0.001
  1
BATH
  3

  2
PRODUCT
 70
     0
1001
ACDBATTR
1070
     0
1070
     1
  0
ATTDEF
  5
65C
  8
DEFPOINTS
 10
766.55980772870953
 20
-7.9469453589981347
 30
0.0
 40
0.001
  1
VIKRELL
  3

  2
MATERIAL
 70
     0
1001
ACDBATTR
1070
     0
1070
     1
  0
LINE
  5
1A99
  8
0
 10
736.60496078147139
 20
-44.209682853089582
 30
0.0
 11
736.63724721917151
 21
-44.278106707589572
 31
0.0
  0
LINE
  5
1A9A
  8
0
 10
736.67773107527148
 20
-31.328773162889568
 30
0.0
 11
736.69151514817145
 21
-31.68369245468957
 31
0.0
  0
LINE
  5
1A9B
  8
0
 10
736.67774590047145
 20
-19.329018402489581
 30
0.0
 11
736.69151514817145
 21
-19.68369245468956
 31
0.0
  0
LINE
  5
1A9C
  8
0
 10
736.69192370226392
 20
-45.592369844773252
 30
0.0
 11
736.66914450738375
 21
-44.377853157707001
 31
0.0
  0
LINE
  5
1A9D
  8
0
 10
736.71189034897145
 20
-44.253345857489577
 30
0.0
 11
736.71193032377141
 21
-44.423443050389572
 31
0.0
  0
LINE
  5
1A9E
  8
0
 10
736.52496078147135
 20
-8.5728568791898265
 30
0.0
 11
736.52496078147135
 21
-43.69785687918958
 31
0.0
  0
LINE
  5
1A9F
  8
0
 10
736.52496078147135
 20
-43.722856879189578
 30
0.0
 11
736.52496078147135
 21
-45.679503112789568
 31
0.0
  0
LINE
  5
1AA0
  8
0
 10
736.6777311536714
 20
-43.647856879189582
 30
0.0
 11
736.6777311536714
 21
-32.566448212889583
 31
0.0
  0
LINE
  5
1AA1
  8
0
 10
736.67773107527148
 20
-31.328773162889568
 30
0.0
 11
736.67773107527148
 21
-20.56644950408959
 31
0.0
  0
LINE
  5
1AA2
  8
0
 10
736.67774590047145
 20
-19.329018402489581
 30
0.0
 11
736.67774590047145
 21
-8.5678568791915364
 31
0.0
  0
LINE
  5
1AA3
  8
0
 10
736.69151514817145
 20
-32.212023342189582
 30
0.0
 11
736.69151514817145
 21
-31.68369245468957
 31
0.0
  0
LINE
  5
1AA4
  8
0
 10
736.69151514817145
 20
-20.212023342189571
 30
0.0
 11
736.69151514817145
 21
-19.68369245468956
 31
0.0
  0
LINE
  5
1AA5
  8
0
 10
736.82747197623576
 20
-45.136755070491112
 30
0.0
 11
736.82743591647147
 21
-44.489210662989578
 31
0.0
  0
LINE
  5
1AA6
  8
0
 10
736.86611823017142
 20
-20.524890313989591
 30
0.0
 11
736.86611823017142
 21
-19.37082344448957
 31
0.0
  0
LINE
  5
1AA7
  8
0
 10
736.63724721917151
 20
-44.278106707589572
 30
0.0
 11
736.63190207357138
 21
-45.679503112789568
 31
0.0
  0
LINE
  5
1AA8
  8
0
 10
736.69151514817145
 20
-20.212023342189571
 30
0.0
 11
736.67773107527148
 21
-20.56644950408959
 31
0.0
  0
LINE
  5
1AA9
  8
0
 10
737.53018034137142
 20
-9.2958568791898681
 30
0.0
 11
737.53018034137142
 21
-43.825019721289593
 31
0.0
  0
LINE
  5
1AAA
  8
0
 10
736.86523934997149
 20
-44.532293275189581
 30
0.0
 11
736.84334570247142
 21
-45.65237274698957
 31
0.0
  0
LINE
  5
1AAB
  8
0
 10
736.69151514817145
 20
-32.212023342189582
 30
0.0
 11
736.6777311536714
 21
-32.566448212889583
 31
0.0
  0
LINE
  5
1AAC
  8
0
 10
736.63190207357138
 20
-45.679503112789568
 30
0.0
 11
736.52496078147135
 21
-45.679503112789568
 31
0.0
  0
LINE
  5
1AAD
  8
0
 10
796.41315376991497
 20
-44.423356911789099
 30
0.0
 11
736.71193032377141
 21
-44.423443050389572
 31
0.0
  0
LINE
  5
1AAE
  8
0
 10
736.63686754426624
 20
-44.377650309780257
 30
0.0
 11
736.71191294417144
 21
-44.378121940389583
 31
0.0
  0
LINE
  5
1AAF
  8
0
 10
736.63724721917151
 20
-44.278106707589572
 30
0.0
 11
736.71189034897145
 21
-44.278106707589572
 31
0.0
  0
LINE
  5
1AB0
  8
0
 10
736.60496078147139
 20
-44.209682853089582
 30
0.0
 11
736.52496078147135
 21
-44.209682853089582
 31
0.0
  0
LINE
  5
1AB1
  8
0
 10
737.40529931367143
 20
-43.950000683189579
 30
0.0
 11
736.52496078147135
 21
-43.950000683189579
 31
0.0
  0
LINE
  5
1AB2
  8
0
 10
736.63089268667147
 20
-43.69785687918958
 30
0.0
 11
736.52496078147135
 21
-43.69785687918958
 31
0.0
  0
LINE
  5
1AB3
  8
0
 10
736.75196987527136
 20
-45.652350261689577
 30
0.0
 11
736.84334570247142
 21
-45.65237274698957
 31
0.0
  0
LINE
  5
1AB4
  8
0
 10
750.90862103547136
 20
-8.0678568791896037
 30
0.0
 11
750.90862103547136
 21
-8.2251356885896012
 31
0.0
  0
LINE
  5
1AB5
  8
0
 10
752.14130052747134
 20
-8.2251315811895989
 30
0.0
 11
752.14130052747134
 21
-8.0678568791896037
 31
0.0
  0
LINE
  5
1AB6
  8
0
 10
736.67773107527148
 20
-20.56644950408959
 30
0.0
 11
736.83702985487139
 21
-20.565640003789571
 31
0.0
  0
LINE
  5
1AB7
  8
0
 10
736.83702982597151
 20
-19.33007375608959
 30
0.0
 11
736.67774590047145
 21
-19.329018402489581
 31
0.0
  0
LINE
  5
1AB8
  8
0
 10
795.18172716192134
 20
-8.9208568791895821
 30
0.0
 11
737.94335691152151
 21
-8.9208568791895821
 31
0.0
  0
LINE
  5
1AB9
  8
0
 10
750.94770062777138
 20
-8.2521222525895706
 30
0.0
 11
752.10222093517154
 21
-8.2521222525895706
 31
0.0
  0
LINE
  5
1ABA
  8
0
 10
795.94041808077145
 20
-8.0678568791895753
 30
0.0
 11
737.18466599267151
 21
-8.0678568791895753
 31
0.0
  0
LINE
  5
1ABB
  8
0
 10
737.18805087912142
 20
-7.9478568791895698
 30
0.0
 11
795.93703319432143
 21
-7.9478568791895698
 31
0.0
  0
ARC
  5
1ABC
  8
0
 10
737.40512198491194
 20
-43.824942428568029
 30
0.0
 40
0.1250583803448575
 50
270.08124359898397
 51
359.9645881627286
  0
ARC
  5
1ABD
  8
0
 10
736.75200535844135
 20
-45.592268530568212
 30
0.0
 40
0.0600817415992235
 50
180.09661635880701
 51
269.96616216593583
  0
ARC
  5
1ABE
  8
0
 10
736.55528706505675
 20
-43.72874841949217
 30
0.0
 40
0.0308932633955567
 50
90.605148708719099
 51
169.00599342856589
  0
CIRCLE
  5
1ABF
  8
0
 10
745.19896078147144
 20
-25.420856879189571
 30
0.0
 40
1.387499317599999
  0
ARC
  5
1AC0
  8
0
 10
737.20393002895855
 20
-8.6289545524965927
 30
0.0
 40
0.6812827518613625
 50
91.335555114430164
 51
175.27684638578171
  0
ARC
  5
1AC1
  8
0
 10
736.92407984992349
 20
-44.534120046522077
 30
0.0
 40
0.058868850236021
 50
89.876387954828076
 51
178.22175748009511
  0
LINE
  5
1AC2
  8
0
 10
736.71189034897145
 20
-44.253345857489577
 30
0.0
 11
796.41319372447151
 21
-44.253345857489577
 31
0.0
  0
LINE
  5
1AC3
  8
0
 10
736.82747197623576
 20
-45.136755070491112
 30
0.0
 11
736.83631005677137
 21
-45.645404609289578
 31
0.0
  0
ARC
  5
1AC4
  8
0
 10
-1403.1141629584911
 20
-2206.334963214571
 30
0.0
 40
3041.0470886890471
 50
45.27611018314586
 51
45.276296750183633
  0
ARC
  5
1AC5
  8
0
 10
734.19696731104125
 20
-45.078339838856976
 30
0.0
 40
2.643257706431942
 50
357.97493723476032
 51
2.0504716163109191
  0
ARC
  5
1AC6
  8
0
 10
739.53043145292531
 20
-45.07715722820533
 30
0.0
 40
2.6935185191378301
 50
178.01297738110679
 51
182.01243146996441
  0
ARC
  5
1AC7
  8
0
 10
734.05491594387843
 20
-45.078336553388048
 30
0.0
 40
2.6432577064317782
 50
357.97493723475952
 51
2.0504716163109191
  0
ARC
  5
1AC8
  8
0
 10
739.38838008576784
 20
-45.077153942736388
 30
0.0
 40
2.6935185191432871
 50
178.01297738111089
 51
182.01243146996029
  0
ARC
  5
1AC9
  8
0
 10
736.91366235036253
 20
-44.493393957636137
 30
0.0
 40
0.0863278509848437
 50
125.8748766674824
 51
177.2224603184772
  0
ARC
  5
1ACA
  8
0
 10
736.62761427985993
 20
-43.647847348295443
 30
0.0
 40
0.0501168747177275
 50
273.75069472495022
 51
359.98910386941009
  0
ARC
  5
1ACB
  8
0
 10
737.19668975976242
 20
-8.5870150373102643
 30
0.0
 40
0.519297375420215
 50
91.326740149794475
 51
177.88573790518851
  0
ARC
  5
1ACC
  8
0
 10
750.94947577486175
 20
-8.2077625256531785
 30
0.0
 40
0.0443952308369136
 50
203.03724932737109
 51
267.70841245972917
  0
ARC
  5
1ACD
  8
0
 10
752.09921079459332
 20
-8.2059770291651528
 30
0.0
 40
0.046243297797521
 50
273.7322247378861
 51
335.53026195126739
  0
LINE
  5
1ACE
  8
0
 10
765.94620229072143
 20
-8.0678568791896037
 30
0.0
 11
765.94620229072143
 21
-8.2251356885896012
 31
0.0
  0
LINE
  5
1ACF
  8
0
 10
767.17888178272153
 20
-8.2251315811895989
 30
0.0
 11
767.17888178272153
 21
-8.0678568791896037
 31
0.0
  0
LINE
  5
1AD0
  8
0
 10
765.98528188302146
 20
-8.2521222525895706
 30
0.0
 11
767.13980219042151
 21
-8.2521222525895706
 31
0.0
  0
ARC
  5
1AD1
  8
0
 10
765.98705703011183
 20
-8.2077625256531785
 30
0.0
 40
0.0443952308369136
 50
203.03724932737109
 51
267.70841245972917
  0
ARC
  5
1AD2
  8
0
 10
767.13679204984328
 20
-8.2059770291651528
 30
0.0
 40
0.046243297797521
 50
273.7322247378861
 51
335.53026195126739
  0
ARC
  5
1AD3
  8
0
 10
736.81811785993693
 20
-19.374330661247441
 30
0.0
 40
0.0481283296348546
 50
4.1789733608382269
 51
66.861897093643336
  0
ARC
  5
1AD4
  8
0
 10
736.82100281671433
 20
-20.523442482593811
 30
0.0
 40
0.045138639181517
 50
290.79727502109552
 51
358.16191048871912
  0
LINE
  5
1AD5
  8
0
 10
736.86611823017142
 20
-32.524890313989602
 30
0.0
 11
736.86611823017142
 21
-31.370823444489581
 31
0.0
  0
LINE
  5
1AD6
  8
0
 10
736.6777311536714
 20
-32.566448212889583
 30
0.0
 11
736.83702985487139
 21
-32.565640003789582
 31
0.0
  0
LINE
  5
1AD7
  8
0
 10
736.83702982597151
 20
-31.3300737560896
 30
0.0
 11
736.67773107527148
 21
-31.328773162889568
 31
0.0
  0
ARC
  5
1AD8
  8
0
 10
736.81811785993693
 20
-31.37433066124742
 30
0.0
 40
0.0481283296348536
 50
4.1789733608217841
 51
66.861897093636784
  0
ARC
  5
1AD9
  8
0
 10
736.82100281671433
 20
-32.523442482593822
 30
0.0
 40
0.0451386391815012
 50
290.79727502109512
 51
358.16191048873708
  0
ARC
  5
1ADA
  8
0
 10
724.57914855298134
 20
-25.419506099568171
 30
0.0
 40
15.275105517670539
 50
355.30469113611559
 51
4.692332056030895
  0
ARC
  5
1ADB
  8
0
 10
746.02863070150045
 20
-25.420063304544328
 30
0.0
 40
6.3498514719682246
 50
168.6456115021972
 51
191.351411689949
  0
ARC
  5
1ADC
  8
0
 10
737.96455526186628
 20
-9.3593331478530484
 30
0.0
 40
0.4389883919175771
 50
92.767837505149714
 51
171.6860748642998
  0
LINE
  5
1ADD
  8
0
 10
736.92420685567129
 20
-44.47525133328957
 30
0.0
 11
796.2008772177719
 21
-44.47525133328957
 31
0.0
  0
LINE
  5
1ADE
  8
0
 10
796.52012329197146
 20
-44.209682853089582
 30
0.0
 11
796.48783685427145
 21
-44.278106707589572
 31
0.0
  0
LINE
  5
1ADF
  8
0
 10
796.44735299817148
 20
-31.328773162889568
 30
0.0
 11
796.4335689252714
 21
-31.68369245468957
 31
0.0
  0
LINE
  5
1AE0
  8
0
 10
796.44733817297151
 20
-19.329018402489581
 30
0.0
 11
796.4335689252714
 21
-19.68369245468956
 31
0.0
  0
LINE
  5
1AE1
  8
0
 10
796.43316037117893
 20
-45.592369844773252
 30
0.0
 11
796.45593956605899
 21
-44.377853157707001
 31
0.0
  0
LINE
  5
1AE2
  8
0
 10
796.41319372447151
 20
-44.253345857489577
 30
0.0
 11
796.41315376991497
 21
-44.423356911789099
 31
0.0
  0
LINE
  5
1AE3
  8
0
 10
796.60012329197139
 20
-8.5728568791890876
 30
0.0
 11
796.60012329197139
 21
-43.69785687918958
 31
0.0
  0
LINE
  5
1AE4
  8
0
 10
796.60012329197139
 20
-43.722856879189578
 30
0.0
 11
796.60012329197139
 21
-45.679503112789568
 31
0.0
  0
LINE
  5
1AE5
  8
0
 10
796.44735291977145
 20
-43.647856879189582
 30
0.0
 11
796.44735291977145
 21
-32.566448212889583
 31
0.0
  0
LINE
  5
1AE6
  8
0
 10
796.44735299817148
 20
-31.328773162889568
 30
0.0
 11
796.44735299817148
 21
-20.56644950408959
 31
0.0
  0
LINE
  5
1AE7
  8
0
 10
796.44733817297151
 20
-19.329018402489581
 30
0.0
 11
796.44733817297151
 21
-8.5678568791901561
 31
0.0
  0
LINE
  5
1AE8
  8
0
 10
796.4335689252714
 20
-32.212023342189582
 30
0.0
 11
796.4335689252714
 21
-31.68369245468957
 31
0.0
  0
LINE
  5
1AE9
  8
0
 10
796.4335689252714
 20
-20.212023342189571
 30
0.0
 11
796.4335689252714
 21
-19.68369245468956
 31
0.0
  0
LINE
  5
1AEA
  8
0
 10
796.29761209720698
 20
-45.136755070491112
 30
0.0
 11
796.29764815697149
 21
-44.489210662989578
 31
0.0
  0
LINE
  5
1AEB
  8
0
 10
796.25896584327143
 20
-20.524890313989591
 30
0.0
 11
796.25896584327143
 21
-19.37082344448957
 31
0.0
  0
LINE
  5
1AEC
  8
0
 10
796.48783685427145
 20
-44.278106707589572
 30
0.0
 11
796.49318199987147
 21
-45.679503112789568
 31
0.0
  0
LINE
  5
1AED
  8
0
 10
796.4335689252714
 20
-20.212023342189571
 30
0.0
 11
796.44735299817148
 21
-20.56644950408959
 31
0.0
  0
LINE
  5
1AEE
  8
0
 10
795.59490373207143
 20
-9.2958568791894702
 30
0.0
 11
795.59490373207143
 21
-43.825019721289593
 31
0.0
  0
LINE
  5
1AEF
  8
0
 10
796.25984472347125
 20
-44.532293275189581
 30
0.0
 11
796.28173837097142
 21
-45.65237274698957
 31
0.0
  0
LINE
  5
1AF0
  8
0
 10
796.4335689252714
 20
-32.212023342189582
 30
0.0
 11
796.44735291977145
 21
-32.566448212889583
 31
0.0
  0
LINE
  5
1AF1
  8
0
 10
796.49318199987147
 20
-45.679503112789568
 30
0.0
 11
796.60012329197139
 21
-45.679503112789568
 31
0.0
  0
LINE
  5
1AF2
  8
0
 10
796.48821652917661
 20
-44.377650309780257
 30
0.0
 11
796.4131711292714
 21
-44.378121940389583
 31
0.0
  0
LINE
  5
1AF3
  8
0
 10
796.48783685427145
 20
-44.278106707589572
 30
0.0
 11
796.41319372447151
 21
-44.278106707589572
 31
0.0
  0
LINE
  5
1AF4
  8
0
 10
796.52012329197146
 20
-44.209682853089582
 30
0.0
 11
796.60012329197139
 21
-44.209682853089582
 31
0.0
  0
LINE
  5
1AF5
  8
0
 10
795.71978475977153
 20
-43.950000683189579
 30
0.0
 11
796.60012329197139
 21
-43.950000683189579
 31
0.0
  0
LINE
  5
1AF6
  8
0
 10
796.49419138677149
 20
-43.69785687918958
 30
0.0
 11
796.60012329197139
 21
-43.69785687918958
 31
0.0
  0
LINE
  5
1AF7
  8
0
 10
796.37311419817127
 20
-45.652350261689577
 30
0.0
 11
796.28173837097142
 21
-45.65237274698957
 31
0.0
  0
LINE
  5
1AF8
  8
0
 10
782.21646303797149
 20
-8.0678568791896037
 30
0.0
 11
782.21646303797149
 21
-8.2251356885896012
 31
0.0
  0
LINE
  5
1AF9
  8
0
 10
780.98378354597151
 20
-8.2251315811895989
 30
0.0
 11
780.98378354597151
 21
-8.0678568791896037
 31
0.0
  0
LINE
  5
1AFA
  8
0
 10
796.44735299817148
 20
-20.56644950408959
 30
0.0
 11
796.28805421857146
 21
-20.565640003789571
 31
0.0
  0
LINE
  5
1AFB
  8
0
 10
796.28805424747145
 20
-19.33007375608959
 30
0.0
 11
796.44733817297151
 21
-19.329018402489581
 31
0.0
  0
LINE
  5
1AFC
  8
0
 10
782.17738344567135
 20
-8.2521222525895706
 30
0.0
 11
781.02286313827153
 21
-8.2521222525895706
 31
0.0
  0
ARC
  5
1AFD
  8
0
 10
795.71996208853068
 20
-43.824942428568029
 30
0.0
 40
0.1250583803448575
 50
180.0354118372714
 51
269.91875640101603
  0
ARC
  5
1AFE
  8
0
 10
796.37307871500127
 20
-45.592268530568212
 30
0.0
 40
0.0600817415992235
 50
270.03383783406417
 51
359.90338364119208
  0
ARC
  5
1AFF
  8
0
 10
796.56979700838599
 20
-43.72874841949217
 30
0.0
 40
0.0308932633955567
 50
10.99400657143403
 51
89.394851291280872
  0
ARC
  5
1B00
  8
0
 10
795.9211540444843
 20
-8.6289545524965927
 30
0.0
 40
0.6812827518613625
 50
4.7231536142191191
 51
88.664444885569836
  0
ARC
  5
1B01
  8
0
 10
796.20100422351925
 20
-44.534120046522077
 30
0.0
 40
0.058868850236021
 50
1.778242519904913
 51
90.123612045171924
  0
LINE
  5
1B02
  8
0
 10
796.29761209720698
 20
-45.136755070491112
 30
0.0
 11
796.28877401667125
 21
-45.645404609289578
 31
0.0
  0
ARC
  5
1B03
  8
0
 10
2936.2392470319342
 20
-2206.334963214571
 30
0.0
 40
3041.0470886890471
 50
134.72370324981631
 51
134.7238898168541
  0
ARC
  5
1B04
  8
0
 10
798.9281167624016
 20
-45.078339838856976
 30
0.0
 40
2.643257706431942
 50
177.94952838368911
 51
182.02506276523951
  0
ARC
  5
1B05
  8
0
 10
793.59465262051754
 20
-45.07715722820533
 30
0.0
 40
2.6935185191378301
 50
357.98756853003653
 51
1.9870226188931419
  0
ARC
  5
1B06
  8
0
 10
799.07016812956442
 20
-45.078336553388048
 30
0.0
 40
2.6432577064317782
 50
177.94952838368911
 51
182.02506276523951
  0
ARC
  5
1B07
  8
0
 10
793.73670398767513
 20
-45.077153942736388
 30
0.0
 40
2.6935185191432871
 50
357.98756853004039
 51
1.9870226188890741
  0
ARC
  5
1B08
  8
0
 10
796.21142172308043
 20
-44.493393957636137
 30
0.0
 40
0.0863278509848437
 50
2.777539681522744
 51
54.125123332517582
  0
ARC
  5
1B09
  8
0
 10
796.49746979358292
 20
-43.647847348295443
 30
0.0
 40
0.0501168747177275
 50
180.010896130589
 51
266.24930527504978
  0
ARC
  5
1B0A
  8
0
 10
795.92839431368054
 20
-8.5870150373102643
 30
0.0
 40
0.519297375420215
 50
2.1142620948115112
 51
88.673259850199017
  0
ARC
  5
1B0B
  8
0
 10
782.17560829858121
 20
-8.2077625256531785
 30
0.0
 40
0.0443952308369136
 50
272.29158754027083
 51
336.96275067262877
  0
ARC
  5
1B0C
  8
0
 10
781.02587327884964
 20
-8.2059770291651528
 30
0.0
 40
0.046243297797521
 50
204.46973804873201
 51
266.2677752621139
  0
ARC
  5
1B0D
  8
0
 10
796.30696621350603
 20
-19.374330661247441
 30
0.0
 40
0.0481283296348546
 50
113.1381029063561
 51
175.82102663916169
  0
ARC
  5
1B0E
  8
0
 10
796.30408125672852
 20
-20.523442482593811
 30
0.0
 40
0.045138639181517
 50
181.8380895112808
 51
249.2027249789044
  0
LINE
  5
1B0F
  8
0
 10
796.25896584327143
 20
-32.524890313989602
 30
0.0
 11
796.25896584327143
 21
-31.370823444489581
 31
0.0
  0
LINE
  5
1B10
  8
0
 10
796.44735291977145
 20
-32.566448212889583
 30
0.0
 11
796.28805421857146
 21
-32.565640003789582
 31
0.0
  0
LINE
  5
1B11
  8
0
 10
796.28805424747145
 20
-31.3300737560896
 30
0.0
 11
796.44735299817148
 21
-31.328773162889568
 31
0.0
  0
ARC
  5
1B12
  8
0
 10
796.30696621350603
 20
-31.37433066124742
 30
0.0
 40
0.0481283296348536
 50
113.1381029063632
 51
175.8210266391782
  0
ARC
  5
1B13
  8
0
 10
796.30408125672852
 20
-32.523442482593822
 30
0.0
 40
0.0451386391815012
 50
181.83808951126281
 51
249.20272497890491
  0
ARC
  5
1B14
  8
0
 10
795.16052881157646
 20
-9.3593331478530484
 30
0.0
 40
0.4389883919175771
 50
8.3139251357002024
 51
87.232162494843777
  0
CIRCLE
  5
1B16
  8
0
 10
745.19896078147144
 20
-25.420856879189571
 30
0.0
 40
0.964
  0
ARC
  5
1B17
  8
0
 10
768.88700602437621
 20
-56.195639315121142
 30
0.0
 40
44.502515780294438
 50
73.089591490149544
 51
86.833690659259076
  0
ARC
  5
1B18
  8
0
 10
791.20240773126193
 20
16.838193315675479
 30
0.0
 40
31.864582931998989
 50
252.89771364029491
 51
259.47417988042741
  0
ARC
  5
1B19
  8
0
 10
782.0097319394331
 20
-27.03810715008899
 30
0.0
 40
12.993016112644391
 50
46.437084219682482
 51
74.959556114241678
  0
ARC
  5
1B1A
  8
0
 10
781.96887876665335
 20
-25.410209008640582
 30
0.0
 40
11.897418283106891
 50
359.94997623620168
 51
40.883122269714796
  0
ARC
  5
1B1B
  8
0
 10
779.64092638391287
 20
-24.721760577896092
 30
0.0
 40
14.242521303267161
 50
322.6247197908707
 51
357.18754662841019
  0
ARC
  5
1B1C
  8
0
 10
781.78251593056495
 20
-23.199731891699759
 30
0.0
 40
13.696440002993819
 50
297.47272823997912
 51
312.06703081673288
  0
ARC
  5
1B1D
  8
0
 10
782.43368575708814
 20
-24.77363277090387
 30
0.0
 40
12.00054221762452
 50
278.64855888144729
 51
298.18100576049841
  0
ARC
  5
1B1E
  8
0
 10
791.70660805154216
 20
-70.903952551813433
 30
0.0
 40
35.07065858226251
 50
102.2953942903257
 51
106.4395597764332
  0
ARC
  5
1B1F
  8
0
 10
765.29463888372993
 20
21.611628245737428
 30
0.0
 40
61.143369898127467
 50
278.45164670444979
 51
285.6429851817432
  0
ARC
  5
1B20
  8
0
 10
771.47510355694635
 20
-20.318704607540401
 30
0.0
 40
18.760082878977808
 50
269.45855126004921
 51
278.60237408430322
  0
ARC
  5
1B21
  8
0
 10
771.05007553591815
 20
-16.279857164201431
 30
0.0
 40
4.5284157701256857
 50
57.655307207342211
 51
86.264864821793225
  0
ARC
  5
1B22
  8
0
 10
794.51526488251989
 20
20.798096105634912
 30
0.0
 40
39.350847535944602
 50
237.67378400254881
 51
249.98111330531501
  0
ARC
  5
1B23
  8
0
 10
810.2872802557124
 20
58.134431861853663
 30
0.0
 40
79.856550446232717
 50
248.5189205817384
 51
250.6262693275082
  0
ARC
  5
1B24
  8
0
 10
792.12873459743309
 20
18.792227417715178
 30
0.0
 40
36.944307159074377
 50
256.9657791762163
 51
261.15772605308672
  0
ARC
  5
1B25
  8
0
 10
785.43157032971635
 20
-23.523514690675299
 30
0.0
 40
5.8990590504583231
 50
27.17457636711638
 51
80.060038856446567
  0
ARC
  5
1B26
  8
0
 10
778.4186516150437
 20
-24.85198361851997
 30
0.0
 40
12.90384732910077
 50
357.47326488952649
 51
18.16385524819982
  0
ARC
  5
1B27
  8
0
 10
776.39789274347606
 20
-25.892470191506771
 30
0.0
 40
14.919516383821319
 50
346.4451118367686
 51
1.811449765898185
  0
ARC
  5
1B28
  8
0
 10
786.33412706806973
 20
-28.154520458795741
 30
0.0
 40
4.7316556396290359
 50
292.9610824742478
 51
344.87340766708297
  0
ARC
  5
1B29
  8
0
 10
784.08553126364416
 20
-23.980192180101419
 30
0.0
 40
9.4627711878059397
 50
273.874713636889
 51
295.63836645772528
  0
ARC
  5
1B2A
  8
0
 10
791.30014427097353
 20
-59.024775913150371
 30
0.0
 40
26.434240768135531
 50
104.4027706663302
 51
113.03394429967101
  0
ARC
  5
1B2B
  8
0
 10
794.47756572935805
 20
-71.559466820032171
 30
0.0
 40
39.262809764523873
 50
110.1426937504058
 51
122.3424137720291
  0
ARC
  5
1B2C
  8
0
 10
771.06310063899446
 20
-34.566700307451711
 30
0.0
 40
4.5173517010938031
 50
272.97842985083378
 51
302.23807039395518
  0
ARC
  5
1B2D
  8
0
 10
797.46031806096016
 20
30.028069358297589
 30
0.0
 40
52.39679431235249
 50
241.05542175699
 51
249.8795136716561
  0
ARC
  5
1B2E
  8
0
 10
771.14110561385257
 20
-17.56457342854808
 30
0.0
 40
1.9885037713209179
 50
61.097568201693662
 51
86.808321479023306
  0
ARC
  5
1B2F
  8
0
 10
766.52612370546422
 20
-113.517983748628
 30
0.0
 40
98.052774279733157
 50
87.237535586501934
 51
94.884389637607939
  0
ARC
  5
1B30
  8
0
 10
779.21581622466442
 20
-20.393242402129388
 30
0.0
 40
1.241910092948979
 50
355.8322271680002
 51
79.785013227281254
  0
ARC
  5
1B31
  8
0
 10
744.3536815732275
 20
-25.244941361893179
 30
0.0
 40
36.413407219704027
 50
351.20984843470973
 51
7.5135489065211249
  0
ARC
  5
1B32
  8
0
 10
779.29483986850676
 20
-30.618215407024842
 30
0.0
 40
1.06192967292532
 50
277.64155078308619
 51
349.62317802747179
  0
ARC
  5
1B33
  8
0
 10
797.46059287635785
 20
-80.870563224767963
 30
0.0
 40
52.397607362460462
 50
110.12049124615299
 51
118.9444283427588
  0
ARC
  5
1B34
  8
0
 10
771.14109769147865
 20
-33.277090603463357
 30
0.0
 40
1.988553747146002
 50
273.1921518831644
 51
298.90194005996563
  0
ARC
  5
1B35
  8
0
 10
766.51858589099743
 20
63.672074361249962
 30
0.0
 40
99.047792801663661
 50
265.37635684009308
 51
272.73906380300048
  0
ARC
  5
1B36
  8
0
 10
759.89829365808475
 20
-45.454383070044081
 30
0.0
 40
29.68302645764081
 50
93.323674203111253
 51
114.4197048619104
  0
ARC
  5
1B37
  8
0
 10
750.94142624223366
 20
-25.439526275009719
 30
0.0
 40
7.756652649203895
 50
115.2979715334619
 51
158.64880995175631
  0
ARC
  5
1B38
  8
0
 10
752.0028663313808
 20
-25.394988327830099
 30
0.0
 40
8.7395099366672024
 50
161.4554453543445
 51
203.9332004109647
  0
ARC
  5
1B39
  8
0
 10
752.21371910606388
 20
-24.162653524327009
 30
0.0
 40
9.4894109574528187
 50
210.23032462324429
 51
253.72055975609811
  0
ARC
  5
1B3A
  8
0
 10
760.97803509422943
 20
0.7869883978137598
 30
0.0
 40
35.923589253601222
 50
251.4567927104934
 51
266.09942110799898
  0
ARC
  5
1B3B
  8
0
 10
775.77385297849708
 20
-34.5067811172567
 30
0.0
 40
22.628338505388729
 50
56.179522266355193
 51
80.676686611770819
  0
ARC
  5
1B3C
  8
0
 10
766.92487823151816
 20
-100.292546762092
 30
0.0
 40
89.273506973798391
 50
90.232548181749948
 51
96.424533713851162
  0
ARC
  5
1B3D
  8
0
 10
760.4433445988509
 20
-44.125978378784978
 30
0.0
 40
32.734783734671339
 50
96.151305010903556
 51
114.55944394155379
  0
ARC
  5
1B3E
  8
0
 10
752.93169100436091
 20
-27.29760074722935
 30
0.0
 40
14.30766036155477
 50
115.2098760760816
 51
138.31042621366561
  0
ARC
  5
1B3F
  8
0
 10
751.29801480029073
 20
-25.23074965282866
 30
0.0
 40
11.721953936182331
 50
140.54423165928009
 51
180.92926651431111
  0
ARC
  5
1B40
  8
0
 10
751.77280527344692
 20
-25.43934348188241
 30
0.0
 40
12.19521673560822
 50
179.91314588822291
 51
225.04558331250789
  0
ARC
  5
1B41
  8
0
 10
755.11195819574414
 20
-19.855810935168549
 30
0.0
 40
18.573265408046112
 50
229.93172757079239
 51
248.1253379028461
  0
ARC
  5
1B42
  8
0
 10
763.35526666095745
 20
5.8175450885955806
 30
0.0
 40
45.509768968158561
 50
250.53763921433
 51
265.27897285577478
  0
ARC
  5
1B43
  8
0
 10
766.82859931826192
 20
55.952821763490228
 30
0.0
 40
95.763126787165376
 50
265.6767298222457
 51
269.84081577676352
  0
ARC
  5
1B44
  8
0
 10
765.74944261886685
 20
46.339439652687652
 30
0.0
 40
86.153212116851819
 50
270.5407558866105
 51
278.5505945792994
  0
ARC
  5
1B45
  8
0
 10
774.50990106582162
 20
-13.088724755505149
 30
0.0
 40
26.083638550967539
 50
278.93029179038058
 51
301.40338873561888
  0
ARC
  5
1B46
  8
0
 10
765.75226781275592
 20
-126.5766529854814
 30
0.0
 40
115.55971863286111
 50
86.965362222537834
 51
89.598253835746306
  0
ARC
  5
1B47
  8
0
 10
769.2880757477966
 20
-59.951543770588742
 30
0.0
 40
48.840852616026297
 50
78.003472021276238
 51
86.969748481302858
  0
ENDSEC
  0
EOF
