  0
SECTION
  2
HEADER
  9
$ACADVER
  1
AC1009
  9
$INSBASE
 10
4792.6367500188662234
 20
-8.7464426044705732
 30
0.0
  9
$EXTMIN
 10
4725.705761024290041
 20
-46.03094640032662
 30
0.0
  9
$EXTMAX
 10
4806.2572897191457741
 20
7.7232390582534096
 30
0.0
  9
$LIMMIN
 10
0.0
 20
0.0
  9
$LIMMAX
 10
11.6929133858000007
 20
8.2677165353999982
  9
$ORTHOMODE
 70
     0
  9
$REGENMODE
 70
     1
  9
$FILLMODE
 70
     1
  9
$QTEXTMODE
 70
     0
  9
$MIRRTEXT
 70
     0
  9
$DRAGMODE
 70
     2
  9
$LTSCALE
 40
0.6431102362
  9
$OSMODE
 70
  4095
  9
$ATTMODE
 70
     1
  9
$TEXTSIZE
 40
0.2
  9
$TRACEWID
 40
0.05
  9
$TEXTSTYLE
  7
STANDARD
  9
$CLAYER
  8
0
  9
$CELTYPE
  6
BYLAYER
  9
$CECOLOR
 62
   256
  9
$DIMSCALE
 40
1.0
  9
$DIMASZ
 40
0.1875
  9
$DIMEXO
 40
0.0625
  9
$DIMDLI
 40
0.4443307087
  9
$DIMRND
 40
0.0
  9
$DIMDLE
 40
0.0
  9
$DIMEXE
 40
0.125
  9
$DIMTP
 40
0.01
  9
$DIMTM
 40
0.01
  9
$DIMTXT
 40
2.0
  9
$DIMCEN
 40
0.1052362205
  9
$DIMTSZ
 40
0.0
  9
$DIMTOL
 70
     1
  9
$DIMLIM
 70
     0
  9
$DIMTIH
 70
     1
  9
$DIMTOH
 70
     1
  9
$DIMSE1
 70
     0
  9
$DIMSE2
 70
     0
  9
$DIMTAD
 70
     0
  9
$DIMZIN
 70
     0
  9
$DIMBLK
  1

  9
$DIMASO
 70
     1
  9
$DIMSHO
 70
     1
  9
$DIMPOST
  1
\X
  9
$DIMAPOST
  1

  9
$DIMALT
 70
     1
  9
$DIMALTD
 70
     2
  9
$DIMALTF
 40
25.3999999999999986
  9
$DIMLFAC
 40
1.0
  9
$DIMTOFL
 70
     0
  9
$DIMTVP
 40
0.0
  9
$DIMTIX
 70
     0
  9
$DIMSOXD
 70
     0
  9
$DIMSAH
 70
     0
  9
$DIMBLK1
  1

  9
$DIMBLK2
  1

  9
$DIMSTYLE
  2
STANDARD
  9
$DIMCLRD
 70
     0
  9
$DIMCLRE
 70
     0
  9
$DIMCLRT
 70
     0
  9
$DIMTFAC
 40
1.0
  9
$DIMGAP
 40
0.09
  9
$LUNITS
 70
     2
  9
$LUPREC
 70
     4
  9
$SKETCHINC
 40
0.1
  9
$FILLETRAD
 40
0.0
  9
$AUNITS
 70
     0
  9
$AUPREC
 70
     0
  9
$MENU
  1
.
  9
$ELEVATION
 40
0.0
  9
$PELEVATION
 40
0.0
  9
$THICKNESS
 40
0.0
  9
$LIMCHECK
 70
     0
  9
$BLIPMODE
 70
     0
  9
$CHAMFERA
 40
0.0
  9
$CHAMFERB
 40
0.0
  9
$SKPOLY
 70
     0
  9
$TDCREATE
 40
2458060.468368056230247
  9
$TDUPDATE
 40
2459446.7123032407835126
  9
$TDINDWG
 40
0.4699607639
  9
$TDUSRTIMER
 40
0.4699607639
  9
$USRTIMER
 70
     1
  9
$ANGBASE
 50
0.0
  9
$ANGDIR
 70
     0
  9
$PDMODE
 70
     0
  9
$PDSIZE
 40
0.3125
  9
$PLINEWID
 40
0.0
  9
$COORDS
 70
     1
  9
$SPLFRAME
 70
     0
  9
$SPLINETYPE
 70
     6
  9
$SPLINESEGS
 70
     8
  9
$ATTDIA
 70
     1
  9
$ATTREQ
 70
     1
  9
$HANDLING
 70
     1
  9
$HANDSEED
  5
13EF2
  9
$SURFTAB1
 70
     6
  9
$SURFTAB2
 70
     6
  9
$SURFTYPE
 70
     6
  9
$SURFU
 70
     6
  9
$SURFV
 70
     6
  9
$UCSNAME
  2

  9
$UCSORG
 10
0.0
 20
0.0
 30
0.0
  9
$UCSXDIR
 10
1.0
 20
0.0
 30
0.0
  9
$UCSYDIR
 10
0.0
 20
1.0
 30
0.0
  9
$PUCSNAME
  2

  9
$PUCSORG
 10
0.0
 20
0.0
 30
0.0
  9
$PUCSXDIR
 10
1.0
 20
0.0
 30
0.0
  9
$PUCSYDIR
 10
0.0
 20
1.0
 30
0.0
  9
$USERI1
 70
     0
  9
$USERI2
 70
     0
  9
$USERI3
 70
     0
  9
$USERI4
 70
     0
  9
$USERI5
 70
     0
  9
$USERR1
 40
0.0
  9
$USERR2
 40
0.0
  9
$USERR3
 40
0.0
  9
$USERR4
 40
0.0
  9
$USERR5
 40
0.0
  9
$WORLDVIEW
 70
     1
  9
$SHADEDGE
 70
     3
  9
$SHADEDIF
 70
    70
  9
$TILEMODE
 70
     1
  9
$MAXACTVP
 70
    64
  9
$PLIMCHECK
 70
     0
  9
$PEXTMIN
 10
1.0000000000000000E+20
 20
1.0000000000000000E+20
 30
1.0000000000000000E+20
  9
$PEXTMAX
 10
-1.0000000000000000E+20
 20
-1.0000000000000000E+20
 30
-1.0000000000000000E+20
  9
$PLIMMIN
 10
0.0
 20
0.0
  9
$PLIMMAX
 10
12.0
 20
9.0
  9
$UNITMODE
 70
     0
  9
$VISRETAIN
 70
     1
  9
$PLINEGEN
 70
     0
  9
$PSLTSCALE
 70
     1
  0
ENDSEC
  0
SECTION
  2
TABLES
  0
TABLE
  2
VPORT
 70
     1
  0
VPORT
  2
*ACTIVE
 70
     0
 10
0.0
 20
0.0
 11
1.0
 21
1.0
 12
1000.5814842947099805
 22
-130.0289422290223058
 13
0.0
 23
0.0
 14
1.0
 24
1.0
 15
0.0
 25
0.0
 16
0.0
 26
0.0
 36
5.1040778033513332
 17
3792.35791015625
 27
120.1806564331053977
 37
0.0
 40
215.0244697461399994
 41
2.0416666666666661
 42
50.0
 43
0.0
 44
0.0
 50
0.0
 51
0.0
 71
     0
 72
   100
 73
     1
 74
     1
 75
     0
 76
     0
 77
     0
 78
     0
  0
ENDTAB
  0
TABLE
  2
LTYPE
 70
     2
  0
LTYPE
  2
CONTINUOUS
 70
     0
  3
Solid line
 72
    65
 73
     0
 40
0.0
  0
LTYPE
  2
PHANTOM2
 70
     0
  3
___ _ _ ___ _ _ ___ _ _ ___ _ _
 72
    65
 73
     6
 40
1.25
 49
0.625
 49
-0.125
 49
0.125
 49
-0.125
 49
0.125
 49
-0.125
  0
ENDTAB
  0
TABLE
  2
LAYER
 70
     2
  0
LAYER
  2
0
 70
     0
 62
   255
  6
CONTINUOUS
  0
LAYER
  2
DEFPOINTS
 70
     0
 62
     7
  6
CONTINUOUS
  0
ENDTAB
  0
TABLE
  2
STYLE
 70
     1
  0
STYLE
  2
STANDARD
 70
     0
 40
0.0
 41
0.8
 50
0.0
 71
     0
 42
0.2
  3
txt
  4

  0
ENDTAB
  0
TABLE
  2
VIEW
 70
     0
  0
ENDTAB
  0
TABLE
  2
UCS
 70
     0
  0
ENDTAB
  0
TABLE
  2
APPID
 70
     9
  0
APPID
  2
ACAD
 70
     0
  0
APPID
  2
ACAD_MLEADERVER
 70
     0
  0
APPID
  2
ACAD_EXEMPT_FROM_CAD_STANDARDS
 70
     0
  0
APPID
  2
ACAD_NAV_VCDISPLAY
 70
     0
  0
APPID
  2
ACAECLAYERSTANDARD
 70
     0
  0
APPID
  2
ACCMTRANSPARENCY
 70
     0
  0
APPID
  2
ACAD_DSTYLE_DIMJAG
 70
     0
  0
APPID
  2
ACAD_DSTYLE_DIMTALN
 70
     0
  0
APPID
  2
ACDBATTR
 70
     0
  0
ENDTAB
  0
TABLE
  2
DIMSTYLE
 70
     1
  0
DIMSTYLE
  2
STANDARD
 70
     0
  3

  4

  5

  6

  7

 40
1.0
 41
0.1875
 42
0.0625
 43
0.38
 44
0.125
 45
0.0
 46
0.0
 47
0.01
 48
0.01
140
0.15625
141
0.09
142
0.0
143
25.3999999999999986
144
1.0
145
0.0
146
1.0
147
0.09
 71
     1
 72
     0
 73
     1
 74
     1
 75
     0
 76
     0
 77
     0
 78
     4
170
     0
171
     2
172
     0
173
     0
174
     0
175
     0
176
     0
177
     0
178
     0
  0
ENDTAB
  0
ENDSEC
  0
SECTION
  2
BLOCKS
  0
BLOCK
  8
0
  2
$MODEL_SPACE
 70
     0
 10
0.0
 20
0.0
 30
0.0
  3
$MODEL_SPACE
  1

  0
ENDBLK
  5
21
  8
0
  0
BLOCK
 67
     1
  8
0
  2
$PAPER_SPACE
 70
     0
 10
0.0
 20
0.0
 30
0.0
  3
$PAPER_SPACE
  1

  0
ENDBLK
  5
1D
 67
     1
  8
0
  0
BLOCK
  8
0
  2
_FILLED
 70
     0
 10
0.0
 20
0.0
 30
0.0
  3
_FILLED
  1

  0
SOLID
  5
13B68
  8
0
  6
BYBLOCK
 62
     0
 10
0.0
 20
0.0
 30
0.0
 11
-1.0
 21
0.1666666667
 31
0.0
 12
-1.0
 22
-0.1666666667
 32
0.0
 13
-1.0
 23
-0.1666666667
 33
0.0
  0
ENDBLK
  5
13B69
  8
0
  6
BYBLOCK
 62
     0
  0
ENDSEC
  0
SECTION
  2
ENTITIES
  0
ATTDEF
  5
3930
  8
DEFPOINTS
 10
4792.638013917337048
 20
-8.7422029807711397
 30
0.0
 40
0.001
  1
71041120
  3

  2
MODELNUMBER
 70
     0
1001
ACDBATTR
1070
     0
1070
     1
  0
ATTDEF
  5
3931
  8
DEFPOINTS
 10
4792.638013917337048
 20
-8.7438696474378048
 30
0.0
 40
0.001
  1
PERFORMA
  3

  2
TRADENAME
 70
     0
1001
ACDBATTR
1070
     0
1070
     1
  0
ATTDEF
  5
3932
  8
DEFPOINTS
 10
4792.638013917337048
 20
-8.7455363141044682
 30
0.0
 40
0.001
  1
BATH
  3

  2
PRODUCT
 70
     0
1001
ACDBATTR
1070
     0
1070
     1
  0
LINE
  5
13CD0
  8
0
 10
4765.1845005292661881
 20
7.5850589431586348
 30
0.0
 11
4792.0960260939664295
 21
7.4676630740586338
 31
0.0
  0
ARC
  5
13CD1
  8
0
 10
4763.9540005792596276
 20
6.8452754815783257
 30
0.0
 40
0.1250000000201124
 50
275.4345735629125898
 51
314.9999999953649876
  0
ARC
  5
13CD2
  8
0
 10
4765.1926636212456287
 20
6.8072879017121011
 30
0.0
 40
0.7778138781119175
 50
90.6013254811569055
 51
134.1501239839608104
  0
LINE
  5
13CD3
  8
0
 10
4764.042388926923195
 20
6.7568871339157894
 30
0.0
 11
4764.6508845455336996
 21
7.3653827521663251
 31
0.0
  0
ARC
  5
13CD4
  8
0
 10
4763.8867499776861223
 20
6.3481137787508848
 30
0.0
 40
0.3749999588201977
 50
92.685428526807172
 51
180.0000027031763068
  0
ARC
  5
13CD5
  8
0
 10
4763.8871110442551071
 20
6.3327315364628092
 30
0.0
 40
0.3903823915338912
 50
86.1783292626795259
 51
92.6325882311018631
  0
ARC
  5
13CD6
  8
0
 10
4763.954000579265994
 20
6.8452754815584731
 30
0.0
 40
0.1249999999998389
 50
267.4713789551581158
 51
275.434573561290108
  0
ARC
  5
13CD7
  8
0
 10
4767.7985883569999714
 20
80.6920803262748763
 30
0.0
 40
74.071811071760564
 50
266.9931536680571185
 51
267.0205388949814846
  0
ARC
  5
13CD8
  8
0
 10
4763.7931068536208841
 20
6.6125272149110677
 30
0.0
 40
0.0821992309576002
 50
128.8993588440048939
 51
171.7894889608917879
  0
ARC
  5
13CD9
  8
0
 10
4763.8602151013274124
 20
6.5431065150073939
 30
0.0
 40
0.1782908333814525
 50
100.139749592190995
 51
118.9312745997570033
  0
ARC
  5
13CDA
  8
0
 10
4763.8497418298766206
 20
6.5558804005962008
 30
0.0
 40
0.1620720918042823
 50
117.8753499035972965
 51
131.9072775901886132
  0
LINE
  5
13CDB
  8
0
 10
4763.7117500188660415
 20
6.6242660531072266
 30
0.0
 11
4763.7117500188660415
 21
-8.3367186919413641
 31
0.0
  0
LINE
  5
13CDC
  8
0
 10
4763.7117500188660415
 20
-8.3367186919413641
 30
0.0
 11
4763.6767500188652775
 21
-8.3367186919413641
 31
0.0
  0
LINE
  5
13CDD
  8
0
 10
4763.6767500188652775
 20
-8.3367186919413641
 30
0.0
 11
4763.6767500188652775
 21
-8.5867162112865643
 31
0.0
  0
LINE
  5
13CDE
  8
0
 10
4763.6767500188652775
 20
-8.5867162112865643
 30
0.0
 11
4763.40675001886666
 21
-8.5867162112865643
 31
0.0
  0
LINE
  5
13CDF
  8
0
 10
4763.40675001886666
 20
-8.5867162112865643
 30
0.0
 11
4763.40675001886666
 21
-8.5173712997413631
 31
0.0
  0
LINE
  5
13CE0
  8
0
 10
4763.5117500188662234
 20
-8.3652036133413645
 30
0.0
 11
4763.5117500188662234
 21
6.3481137610586336
 31
0.0
  0
LINE
  5
13CE1
  8
0
 10
4763.7772255184372625
 20
6.344624779813457
 30
0.0
 11
4764.5483817058666318
 21
-8.3699144659413633
 31
0.0
  0
LINE
  5
13CE2
  8
0
 10
4763.7469027333545455
 20
6.344757732814883
 30
0.0
 11
4764.3457896339978106
 21
6.3421439238673889
 31
0.0
  0
LINE
  5
13CE3
  8
0
 10
4764.3359711106668328
 20
6.4130469101585978
 30
0.0
 11
4764.39241068309002
 21
6.005477045158635
 31
0.0
  0
ARC
  5
13CE4
  8
0
 10
4763.7467511101631317
 20
6.3097569699290403
 30
0.0
 40
0.0350010912998888
 50
89.7517964204168663
 51
179.999260040561694
  0
ARC
  5
13CE5
  8
0
 10
4763.8323385266803598
 20
6.3691484280299733
 30
0.0
 40
0.0854896121130475
 50
146.426488661005294
 51
179.5387819881690064
  0
ARC
  5
13CE6
  8
0
 10
4763.9172946638627764
 20
6.3476946750021801
 30
0.0
 40
0.1706379165921791
 50
129.4964192865350014
 51
156.247725129725012
  0
ARC
  5
13CE7
  8
0
 10
4763.9175145166045695
 20
6.346002563396226
 30
0.0
 40
0.1720858797445187
 50
22.9294997386253208
 51
129.1945728001570899
  0
LINE
  5
13CE8
  8
0
 10
4763.7469027333545455
 20
6.344757732814883
 30
0.0
 11
4763.7468516843664474
 21
6.3698365925586344
 31
0.0
  0
LINE
  5
13CE9
  8
0
 10
4763.9885734779172708
 20
6.5027321841599743
 30
0.0
 11
4763.9658392093433577
 21
6.720837357023199
 31
0.0
  0
LINE
  5
13CEA
  8
0
 10
4764.5693362141300895
 20
6.005477045291193
 30
0.0
 11
4764.5330883963752058
 21
6.4130469101585978
 31
0.0
  0
LINE
  5
13CEB
  8
0
 10
4768.3834717949848709
 20
6.4130469101585978
 30
0.0
 11
4768.4331885166229767
 21
6.0054770452223627
 31
0.0
  0
LINE
  5
13CEC
  8
0
 10
4768.5859353720697982
 20
6.0054770452633326
 30
0.0
 11
4768.5536568135212292
 21
6.4130469101585978
 31
0.0
  0
LINE
  5
13CED
  8
0
 10
4772.3770526114967652
 20
6.4130469101585978
 30
0.0
 11
4772.4196586204807318
 21
6.0054770452045849
 31
0.0
  0
LINE
  5
13CEE
  8
0
 10
4772.5528340437058432
 20
6.0054770452189166
 30
0.0
 11
4772.5254381441700389
 21
6.4130469101585978
 31
0.0
  0
LINE
  5
13CEF
  8
0
 10
4772.5277829425685923
 20
6.3781632530059786
 30
0.0
 11
4772.5277829425676828
 21
6.3781632530299808
 31
0.0
  0
LINE
  5
13CF0
  8
0
 10
4765.2094723710433755
 20
5.2882813080335183
 30
0.0
 11
4771.8428494441386647
 21
5.2882813035474854
 31
0.0
  0
ARC
  5
13CF1
  8
0
 10
4765.2263842789670889
 20
6.1315627225272626
 30
0.0
 40
0.8434509805911975
 50
188.5972481491104986
 51
268.8510940062877239
  0
ARC
  5
13CF2
  8
0
 10
4765.3585407010659765
 20
6.0810596938960009
 30
0.0
 40
0.7928155265195924
 50
185.4705709583111002
 51
269.4454021383781992
  0
ARC
  5
13CF3
  8
0
 10
4769.1554814094834001
 20
5.7252881516662981
 30
0.0
 40
0.4371246112409391
 50
226.2558458915638084
 51
268.6699813670550725
  0
ARC
  5
13CF4
  8
0
 10
4769.4791599096097343
 20
6.0481579355761346
 30
0.0
 40
0.8942436652624945
 50
182.7356797505343877
 51
225.5772044294268994
  0
ARC
  5
13CF5
  8
0
 10
4769.4552174280843246
 20
6.1234807269839422
 30
0.0
 40
1.0288187229527299
 50
186.5862194692778075
 51
214.6099718449949876
  0
ARC
  5
13CF6
  8
0
 10
4769.141973016195152
 20
5.9051261910706074
 30
0.0
 40
0.6469867702892551
 50
214.4509903347133104
 51
240.9378471132118875
  0
ARC
  5
13CF7
  8
0
 10
4769.0299730579126845
 20
5.712162056690488
 30
0.0
 40
0.4239336851575649
 50
241.5007023236601924
 51
269.0945836330104726
  0
ARC
  5
13CF8
  8
0
 10
4774.218650263276686
 20
6.1800054285902339
 30
0.0
 40
1.8074377132955071
 50
185.5411840781580963
 51
198.775205396773714
  0
ARC
  5
13CF9
  8
0
 10
4774.3357090125809918
 20
6.1129009750256031
 30
0.0
 40
1.7861083548682091
 50
183.4480856586885125
 51
196.6956170778740045
  0
ARC
  5
13CFA
  8
0
 10
4772.8732608927075489
 20
5.4360196776851657
 30
0.0
 40
0.1481435203206785
 50
222.0953740395295029
 51
265.7615838148934131
  0
ARC
  5
13CFB
  8
0
 10
4773.4881160204531625
 20
5.8591973140794522
 30
0.0
 40
0.9013603996338124
 50
196.7270192222021876
 51
208.9854440654769974
  0
ARC
  5
13CFC
  8
0
 10
4773.2876043995147484
 20
5.8549149647414529
 30
0.0
 40
0.8213419871919242
 50
198.2081097125171141
 51
216.1917195296875036
  0
ARC
  5
13CFD
  8
0
 10
4772.7940330040610206
 20
5.479415233884211
 30
0.0
 40
0.1992595956864675
 50
223.9482636269584077
 51
247.021698896411408
  0
ARC
  5
13CFE
  8
0
 10
4773.053759202260153
 20
5.6190057267191733
 30
0.0
 40
0.4050162385837182
 50
209.0389141033826945
 51
224.1868488481578083
  0
ARC
  5
13CFF
  8
0
 10
4772.7569505753908743
 20
5.399852546187943
 30
0.0
 40
0.1115761799210877
 50
248.60360116520161
 51
269.4607431006469938
  0
ARC
  5
13D00
  8
0
 10
4772.9176355918780246
 20
5.6066684276113099
 30
0.0
 40
0.376609387720229
 50
218.9489119475906023
 51
224.8362882643413911
  0
LINE
  5
13D01
  8
0
 10
4772.7559016904187956
 20
5.2882813080852884
 30
0.0
 11
4773.7818824307660179
 21
5.2882813080586351
 31
0.0
  0
LINE
  5
13D02
  8
0
 10
4775.7577664129667028
 20
5.9132813080586351
 30
0.0
 11
4778.0557336247666171
 21
5.9132813080586351
 31
0.0
  0
LINE
  5
13D03
  8
0
 10
4778.3344460819798769
 20
6.4130469101585978
 30
0.0
 11
4778.26407906372242
 21
6.081996117914457
 31
0.0
  0
LINE
  5
13D04
  8
0
 10
4775.5494209739472353
 20
6.0819961179428432
 30
0.0
 11
4775.4790539558825913
 21
6.4130469101585978
 31
0.0
  0
ARC
  5
13D05
  8
0
 10
4775.7577664122036367
 20
6.1262813071871269
 30
0.0
 40
0.212999999128484
 50
191.9999998255140099
 51
270.000000204793082
  0
ARC
  5
13D06
  8
0
 10
4778.0557336247666171
 20
6.126281308058636
 30
0.0
 40
0.2130000000000045
 50
270.0
 51
295.8786715302045991
  0
ARC
  5
13D07
  8
0
 10
4778.0557336246656632
 20
6.1262813082150842
 30
0.0
 40
0.2130000001841761
 50
295.8786715359328809
 51
347.9999999521537006
  0
ARC
  5
13D08
  8
0
 10
4763.4117493174526317
 20
-8.3652034088979832
 30
0.0
 40
0.1000007014136941
 50
295.0003930987983267
 51
359.9998828633918038
  0
ARC
  5
13D09
  8
0
 10
4763.4667775964171597
 20
-8.5161290987240648
 30
0.0
 40
0.0600404291291724
 50
114.1669128410195952
 51
181.1855004239637879
  0
ARC
  5
13D0A
  8
0
 10
4765.9720670684064316
 20
-13.8644272166853604
 30
0.0
 40
5.9660268043551667
 50
114.9650697272517021
 51
115.0902932034926067
  0
LINE
  5
13D0B
  8
0
 10
4763.7117500188660415
 20
-8.0859186919413641
 30
0.0
 11
4763.758498434665853
 21
-8.0831044768413634
 31
0.0
  0
LINE
  5
13D0C
  8
0
 10
4763.758498434665853
 20
-8.0831044768413634
 30
0.0
 11
4763.786529511065055
 21
-8.3821433440413671
 31
0.0
  0
LINE
  5
13D0D
  8
0
 10
4763.786529511065055
 20
-8.3821433440413671
 30
0.0
 11
4764.1693006137656994
 21
-8.3667155734413683
 31
0.0
  0
LINE
  5
13D0E
  8
0
 10
4764.1693006137656994
 20
-8.3667155734413683
 30
0.0
 11
4763.7117500188660415
 21
1.787414636752181
 31
0.0
  0
ARC
  5
13D0F
  8
0
 10
4764.1859251316664086
 20
-8.3462368438413872
 30
0.0
 40
0.0299999242999733
 50
223.5892749816028129
 51
270.0000000000521254
  0
LINE
  5
13D10
  8
0
 10
4764.5483817058666318
 20
-8.3699144659413633
 30
0.0
 11
4764.1859251316664086
 21
-8.3762367681413608
 31
0.0
  0
ARC
  5
13D11
  8
0
 10
4242.4434924405559286
 20
-75.7702032823044505
 30
0.0
 40
529.931121246500652
 50
7.7358055775838217
 51
8.7985261602675369
  0
ARC
  5
13D12
  8
0
 10
5929.1428767383104059
 20
-175.9168871590640038
 30
0.0
 40
1152.4333629053289769
 50
170.9534421536700961
 51
171.4447373608433907
  0
LINE
  5
13D13
  8
0
 10
4784.3934062672651635
 20
5.2882813080586351
 30
0.0
 11
4783.3461315567674319
 21
5.2882813054586393
 31
0.0
  0
ARC
  5
13D14
  8
0
 10
4782.6206359208190406
 20
5.8652098050236878
 30
0.0
 40
1.88076522583394
 50
354.8888616556816942
 51
4.2770834479631343
  0
ARC
  5
13D15
  8
0
 10
4782.8355776035332383
 20
5.933484656971685
 30
0.0
 40
1.795223743267538
 50
350.4765241953605823
 51
2.2983020254170619
  0
ARC
  5
13D16
  8
0
 10
4784.2364107837429401
 20
5.482975403321106
 30
0.0
 40
0.2038970254440512
 50
287.279923762721296
 51
343.2089940374555113
  0
ARC
  5
13D17
  8
0
 10
4783.5206605389203105
 20
5.7754286604305838
 30
0.0
 40
0.9763646506268329
 50
338.9083540491433268
 51
355.4312644118069215
  0
ARC
  5
13D18
  8
0
 10
4783.8853015231698009
 20
5.741532675706714
 30
0.0
 40
0.7283761212740857
 50
327.859456954515224
 51
351.7059434493509116
  0
ARC
  5
13D19
  8
0
 10
4784.3929143400464454
 20
5.391947335889383
 30
0.0
 40
0.1036671949972366
 50
270.2718840739208872
 51
295.7253439964233053
  0
ARC
  5
13D1A
  8
0
 10
4784.3577087746843972
 20
5.456084974527144
 30
0.0
 40
0.1767715976548863
 50
296.9819857989166962
 51
324.740484830665082
  0
LINE
  5
13D1B
  8
0
 10
4784.4961632962931617
 20
6.0054770452027517
 30
0.0
 11
4784.4665414766477625
 21
6.4130469101585978
 31
0.0
  0
LINE
  5
13D1C
  8
0
 10
4784.6293572400663834
 20
6.005477045158635
 30
0.0
 11
4784.6149476452046656
 21
6.4130469101585978
 31
0.0
  0
LINE
  5
13D1D
  8
0
 10
4788.4464858515548258
 20
6.3087043677586792
 30
0.0
 11
4788.4464858515611922
 21
6.3087043676750829
 31
0.0
  0
LINE
  5
13D1E
  8
0
 10
4788.4401526462397669
 20
6.4130469101585978
 30
0.0
 11
4788.4654494663227524
 21
5.9962698770227973
 31
0.0
  0
LINE
  5
13D1F
  8
0
 10
4788.6176783496675853
 20
6.0054770451034107
 30
0.0
 11
4788.6103831994641951
 21
6.4130469101585978
 31
0.0
  0
LINE
  5
13D20
  8
0
 10
4792.6367500188662234
 20
7.5057232061586339
 30
0.0
 11
4792.6367500188662234
 21
6.0382813080586351
 31
0.0
  0
LINE
  5
13D21
  8
0
 10
4792.0569598025649611
 20
5.288279246458635
 30
0.0
 11
4785.2904394762663287
 21
5.2882813080586351
 31
0.0
  0
ARC
  5
13D22
  8
0
 10
4791.8849018272039757
 20
6.0386208200217624
 30
0.0
 40
0.751848268319026
 50
318.4409780121055746
 51
359.9741269561127979
  0
ARC
  5
13D23
  8
0
 10
4791.615085130618354
 20
6.0093189688413977
 30
0.0
 40
0.9556656116636373
 50
330.5774360126405895
 51
1.739634765474364
  0
ARC
  5
13D24
  8
0
 10
4792.5575452997345565
 20
6.3084467064150678
 30
0.0
 40
0.0792036761927953
 50
317.3303788579356137
 51
359.866293610120124
  0
ARC
  5
13D25
  8
0
 10
4792.5229591052493561
 20
6.2885267429046641
 30
0.0
 40
0.0753838395914481
 50
304.870354272941313
 51
2.9427926015576111
  0
ARC
  5
13D26
  8
0
 10
4792.5312452776879582
 20
6.3400094794140207
 30
0.0
 40
0.1200543920892806
 50
286.8737682957928996
 51
314.7610023233327752
  0
LINE
  5
13D27
  8
0
 10
4792.4810204364666788
 20
6.038281297258635
 30
0.0
 11
4792.4632705244575845
 21
6.4130469101585978
 31
0.0
  0
LINE
  5
13D28
  8
0
 10
4792.5703102751658662
 20
6.0383307688586347
 30
0.0
 11
4792.5618497279456278
 21
6.4130469101585978
 31
0.0
  0
ARC
  5
13D29
  8
0
 10
4791.9836965315853377
 20
5.6772851907351054
 30
0.0
 40
0.3890372661779453
 50
270.7272774172388949
 51
303.1604128224951182
  0
ARC
  5
13D2A
  8
0
 10
4791.511341319096573
 20
5.986580371194548
 30
0.0
 40
0.9710564228805203
 50
337.3581749538636814
 51
3.0519814228834932
  0
ARC
  5
13D2B
  8
0
 10
4791.8694158715388767
 20
5.8318216858709908
 30
0.0
 40
0.5810229307792254
 50
304.2590220626307769
 51
337.8496322615894769
  0
ARC
  5
13D2C
  8
0
 10
4791.9864233041616899
 20
5.8034012501859422
 30
0.0
 40
0.5310748741489619
 50
291.5689524873873211
 51
330.2472847207425843
  0
ARC
  5
13D2D
  8
0
 10
4792.0562211770820795
 20
5.6693594873306656
 30
0.0
 40
0.3810809566885873
 50
270.1110529104503257
 51
289.2177384266146873
  0
ARC
  5
13D2E
  8
0
 10
4792.7553162323310971
 20
4.950020992881484
 30
0.0
 40
2.5584510450515019
 50
92.6562077998890885
 51
98.2838333852312331
  0
ARC
  5
13D2F
  8
0
 10
4792.0960260939664295
 20
10.4676630740868006
 30
0.0
 40
3.0000000000281668
 50
270.0
 51
275.5602299728956268
  0
ARC
  5
13D30
  8
0
 10
4788.0034704830077317
 20
5.6624750319927131
 30
0.0
 40
0.3742002920115147
 50
270.3394722698873807
 51
310.3965351695744062
  0
ARC
  5
13D31
  8
0
 10
4788.1258800515752228
 20
5.6687592647432998
 30
0.0
 40
0.3804827072163574
 50
270.2863141163376213
 51
304.4897904098880872
  0
ARC
  5
13D32
  8
0
 10
4787.9568569862840377
 20
5.8722672143906323
 30
0.0
 40
0.644380270555282
 50
306.6309533294103744
 51
347.6789137845403275
  0
ARC
  5
13D33
  8
0
 10
4787.8232023074278914
 20
5.8461282559164109
 30
0.0
 40
0.6311579524675858
 50
312.0550540429949251
 51
347.875505829242627
  0
ARC
  5
13D34
  8
0
 10
4787.6199973926777602
 20
5.9836019762570478
 30
0.0
 40
0.997920743604766
 50
345.5605036492128193
 51
1.2560611950671821
  0
ARC
  5
13D35
  8
0
 10
4787.4829931177418985
 20
5.9412589727948273
 30
0.0
 40
0.9839952624126588
 50
346.6204633363457219
 51
3.741930045891356
  0
ARC
  5
13D36
  8
0
 10
4770.1532369105798352
 20
-3.993435032136055
 30
0.0
 40
2.6391933063638202
 50
189.710469938462694
 51
218.2891033501599054
  0
ARC
  5
13D37
  8
0
 10
4771.3179373151451728
 20
-4.3360215119686742
 30
0.0
 40
2.7855125511149121
 50
212.6070751763332964
 51
220.8912226413503106
  0
ARC
  5
13D38
  8
0
 10
4771.105333104879719
 20
-4.2858440259254351
 30
0.0
 40
2.785819185919697
 50
212.9401065186422954
 51
220.9213282728061074
  0
ARC
  5
13D39
  8
0
 10
4770.9610648980924452
 20
-4.2618281639548954
 30
0.0
 40
2.769382306846818
 50
213.1988425918835048
 51
218.2344581975673066
  0
ARC
  5
13D3A
  8
0
 10
4770.8137816360313082
 20
-4.2147890094007963
 30
0.0
 40
2.7764839428170789
 50
213.5747922088239932
 51
219.262300534967892
  0
ARC
  5
13D3B
  8
0
 10
4770.6682944503845647
 20
-4.176423970462344
 30
0.0
 40
2.7664002283619888
 50
213.9721386822033082
 51
218.9983218839072094
  0
ARC
  5
13D3C
  8
0
 10
4770.5448192740241211
 20
-4.1340542031388523
 30
0.0
 40
2.7600633170423698
 50
214.4390302535657042
 51
218.6225163098804103
  0
ARC
  5
13D3D
  8
0
 10
4770.4522566040532183
 20
-4.0829724006215846
 30
0.0
 40
2.7651393526569419
 50
215.0125194138348945
 51
218.1831070678684057
  0
ARC
  5
13D3E
  8
0
 10
4770.3788414937071138
 20
-4.0319953549345078
 30
0.0
 40
2.767323939338981
 50
215.5615620997261885
 51
217.858045800345792
  0
ARC
  5
13D3F
  8
0
 10
4772.5724572713897942
 20
-2.2887182835080111
 30
0.0
 40
5.5858133468874422
 50
216.4527365855925893
 51
217.3382050168472972
  0
LINE
  5
13D40
  8
0
 10
4768.0566024451090925
 20
-5.5963901863915586
 30
0.0
 11
4768.1519867589649948
 21
-6.5037550754413607
 31
0.0
  0
LINE
  5
13D41
  8
0
 10
4768.1778713726671413
 20
-6.5432743306413661
 30
0.0
 11
4768.0795236238673169
 21
-5.6075822435413718
 31
0.0
  0
LINE
  5
13D42
  8
0
 10
4768.1276480825663384
 20
-5.6414082946413648
 30
0.0
 11
4768.2216872829158092
 21
-6.5360979665913632
 31
0.0
  0
LINE
  5
13D43
  8
0
 10
4768.2917038289660923
 20
-6.6577754525413653
 30
0.0
 11
4768.1875336576686095
 21
-5.6694860676715839
 31
0.0
  0
LINE
  5
13D44
  8
0
 10
4768.2685165389866597
 20
-5.6949498987380016
 30
0.0
 11
4768.3657219989163423
 21
-6.6199360979913626
 31
0.0
  0
LINE
  5
13D45
  8
0
 10
4769.2909945865649206
 20
-6.9096442021413651
 30
0.0
 11
4769.181643153726327
 21
-5.8683280110166001
 31
0.0
  0
LINE
  5
13D46
  8
0
 10
4769.0847904504516919
 20
-6.9105209000932168
 30
0.0
 11
4768.9714609280981676
 21
-5.8370640621504322
 31
0.0
  0
LINE
  5
13D47
  8
0
 10
4768.7673637664847774
 20
-5.8006667579191102
 30
0.0
 11
4768.8754022094663014
 21
-6.8290444264413628
 31
0.0
  0
LINE
  5
13D48
  8
0
 10
4768.6437139814670445
 20
-5.7781932554461974
 30
0.0
 11
4768.7508215733651014
 21
-6.7976651276413662
 31
0.0
  0
LINE
  5
13D49
  8
0
 10
4768.5005134200664543
 20
-5.7502541655413628
 30
0.0
 11
4768.6147156403130793
 21
-6.820079956295273
 31
0.0
  0
LINE
  5
13D4A
  8
0
 10
4768.4865922535027494
 20
-6.7768519885552152
 30
0.0
 11
4768.3740927528715474
 21
-5.7222599237937501
 31
0.0
  0
ARC
  5
13D4B
  8
0
 10
4770.4118614294193321
 20
-6.7925602986233917
 30
0.0
 40
1.1269654475047151
 50
185.9633955164790962
 51
237.4637672768458003
  0
ARC
  5
13D4C
  8
0
 10
4770.2004585093091009
 20
-6.757837810451484
 30
0.0
 40
1.1260672019986959
 50
187.7927194987451003
 51
224.7055413832686952
  0
ARC
  5
13D4D
  8
0
 10
4769.9950938756592222
 20
-6.7114805757275979
 30
0.0
 40
1.125846653117796
 50
185.9939019235189903
 51
225.8067156356216003
  0
ARC
  5
13D4E
  8
0
 10
4769.8702574149237989
 20
-6.680137276811144
 30
0.0
 40
1.1255884679095449
 50
185.9934371293468018
 51
230.8259050666719929
  0
ARC
  5
13D4F
  8
0
 10
4769.7255020465981943
 20
-6.6399954753450743
 30
0.0
 40
1.125289678556449
 50
189.2088631327212056
 51
229.7476381077846952
  0
ARC
  5
13D50
  8
0
 10
4769.5974416715989719
 20
-6.5987540929098989
 30
0.0
 40
1.1250356838792019
 50
189.1084807397201075
 51
226.4419861814837134
  0
ARC
  5
13D51
  8
0
 10
4769.5046874785921318
 20
-6.5492283411150751
 30
0.0
 40
1.141158162033669
 50
183.5524022395603083
 51
213.7189136502331905
  0
ARC
  5
13D52
  8
0
 10
4769.3416353198635989
 20
-6.3687774828443651
 30
0.0
 40
1.1972813572625569
 50
186.4730993923413962
 51
228.926471372296902
  0
ARC
  5
13D53
  8
0
 10
4769.3574590989355784
 20
-6.4644257614853373
 30
0.0
 40
1.138030986400385
 50
183.6108266358077117
 51
225.1592288454438062
  0
ARC
  5
13D54
  8
0
 10
4769.2963919233070555
 20
-6.4256459221480284
 30
0.0
 40
1.124688696791766
 50
186.0034027051779901
 51
228.7605681439974035
  0
ARC
  5
13D55
  8
0
 10
4769.8070692257961127
 20
-5.8963457656805636
 30
0.0
 40
1.8596752132711141
 50
227.6793598083202141
 51
249.982865897693614
  0
ARC
  5
13D56
  8
0
 10
4769.4071234054026718
 20
-6.5145142423376816
 30
0.0
 40
1.1245819693772401
 50
187.3188329315063072
 51
216.7954045580102047
  0
ARC
  5
13D57
  8
0
 10
4769.4069870529729087
 20
-6.5148645586366172
 30
0.0
 40
1.1242629735140011
 50
216.7852702395190079
 51
232.8559488608117931
  0
ARC
  5
13D58
  8
0
 10
4769.4902689053660652
 20
-6.5567396356413781
 30
0.0
 40
1.124996920599981
 50
213.8083640018093945
 51
250.5048026901345111
  0
ARC
  5
13D59
  8
0
 10
4769.6919404064301489
 20
-6.4737991792342759
 30
0.0
 40
1.280826904318255
 50
227.2303910516793906
 51
254.0666527486179973
  0
ARC
  5
13D5A
  8
0
 10
4770.0293101466113512
 20
-6.1788062859563189
 30
0.0
 40
1.6748853108276951
 50
232.0105140562411918
 51
257.5707717408902226
  0
ARC
  5
13D5B
  8
0
 10
4770.3621493192213165
 20
-6.5569670651762664
 30
0.0
 40
1.382595795253162
 50
225.908305198023811
 51
253.4757214575679996
  0
ARC
  5
13D5C
  8
0
 10
4771.273654450770664
 20
-5.1131909559586708
 30
0.0
 40
3.0114484492529772
 50
240.8272881238370928
 51
254.1116183273950924
  0
ARC
  5
13D5D
  8
0
 10
4770.046129934403325
 20
-6.6467549847552121
 30
0.0
 40
1.207860770529567
 50
226.211180952016008
 51
249.328402639378794
  0
ARC
  5
13D5E
  8
0
 10
4769.8464461750209011
 20
-6.7204536437556959
 30
0.0
 40
1.0793156974863161
 50
230.4538911215560972
 51
246.849184806995396
  0
ARC
  5
13D5F
  8
0
 10
4770.9530846271900373
 20
-4.3449836888139961
 30
0.0
 40
3.6995192826166439
 50
245.5543029921697951
 51
256.2437534389445091
  0
ARC
  5
13D60
  8
0
 10
4771.0719105764992491
 20
-4.4165153857965151
 30
0.0
 40
3.6606913174379079
 50
246.6284256350351995
 51
258.5609577843376883
  0
ARC
  5
13D61
  8
0
 10
4771.4515576119138132
 20
-4.6686609785155824
 30
0.0
 40
3.4880494742372039
 50
253.2999621766695952
 51
268.6651809773027821
  0
ARC
  5
13D62
  8
0
 10
4771.2599791112861567
 20
-4.5372663045096777
 30
0.0
 40
3.5856919798848961
 50
248.8960221862336084
 51
262.1060953886977245
  0
ARC
  5
13D63
  8
0
 10
4771.5624970000280882
 20
-4.3487980375754134
 30
0.0
 40
2.8244355856771608
 50
212.5471997019618016
 51
232.1162858889142058
  0
ARC
  5
13D64
  8
0
 10
4771.5221970202410375
 20
-4.4217275731516059
 30
0.0
 40
2.742159378964721
 50
231.8451577189782995
 51
265.3588630325120903
  0
ARC
  5
13D65
  8
0
 10
4773.1021018779792939
 20
15.0584891350187302
 30
0.0
 40
22.2863386166982487
 50
265.3627421880079851
 51
268.3683251486257859
  0
ARC
  5
13D66
  8
0
 10
10361.5969704667004407
 20
263140.322458959708456
 30
0.0
 40
263207.8498548330971971
 50
268.7830131970389971
 51
268.783273433084787
  0
ARC
  5
13D67
  8
0
 10
4783.4129468836172236
 20
510.0333230969523015
 30
0.0
 40
518.3279543115726256
 50
268.8120736853321091
 51
269.0172377973531184
  0
ARC
  5
13D68
  8
0
 10
4728.0181862196077418
 20
-5514.4571790772852182
 30
0.0
 40
5506.4244811804583151
 50
89.4745939664799579
 51
89.4946654757237923
  0
ARC
  5
13D69
  8
0
 10
4779.6476025611736986
 20
285.9420991464664894
 30
0.0
 40
294.2050391635469282
 50
269.0220598738218882
 51
269.3833993541613268
  0
LINE
  5
13D6A
  8
0
 10
4772.622991873445244
 20
-7.0248431305023891
 30
0.0
 11
4772.4408411643207728
 21
-6.9546520185947847
 31
0.0
  0
LINE
  5
13D6B
  8
0
 10
4772.4408411643207728
 20
-6.9546520185947847
 30
0.0
 11
4772.5688783530649744
 21
-8.2226465497413628
 31
0.0
  0
LINE
  5
13D6C
  8
0
 10
4772.5688783530649744
 20
-8.2226465497413628
 30
0.0
 11
4772.6693311596663989
 21
-8.2257086322413642
 31
0.0
  0
LINE
  5
13D6D
  8
0
 10
4772.6693311596663989
 20
-8.2257086322413642
 30
0.0
 11
4772.622991873445244
 21
-7.0248431305023749
 31
0.0
  0
LINE
  5
13D6E
  8
0
 10
4772.2745896185733727
 20
-8.1749726754832732
 30
0.0
 11
4772.3247502520662238
 21
-8.7464350297542222
 31
0.0
  0
LINE
  5
13D6F
  8
0
 10
4772.3247502520662238
 20
-8.7464350297542222
 30
0.0
 11
4772.9516117946659506
 21
-8.7464350297542222
 31
0.0
  0
LINE
  5
13D70
  8
0
 10
4772.9516117946659506
 20
-8.7464350297542222
 30
0.0
 11
4772.9352576115670672
 21
-8.1887264520413652
 31
0.0
  0
LINE
  5
13D71
  8
0
 10
4771.3004056267236592
 20
-8.1534338853344863
 30
0.0
 11
4771.3518757352658213
 21
-8.7464350297542222
 31
0.0
  0
LINE
  5
13D72
  8
0
 10
4771.3518757352658213
 20
-8.7464350297542222
 30
0.0
 11
4771.8549810381664429
 21
-8.7464350297542222
 31
0.0
  0
LINE
  5
13D73
  8
0
 10
4771.8549810381664429
 20
-8.7464350297542222
 30
0.0
 11
4771.8381157851799799
 21
-8.1657015290446253
 31
0.0
  0
LINE
  5
13D74
  8
0
 10
4778.2406857024661804
 20
-5.9926490563413628
 30
0.0
 11
4778.5316427507659682
 21
-5.9938811056413641
 31
0.0
  0
LINE
  5
13D75
  8
0
 10
4778.5316427507659682
 20
-5.9938811056413641
 30
0.0
 11
4778.5942500188830309
 21
-7.786718691941366
 31
0.0
  0
LINE
  5
13D76
  8
0
 10
4778.5942500188830309
 20
-7.786718691941366
 30
0.0
 11
4778.4292500188657868
 21
-7.786718691941366
 31
0.0
  0
LINE
  5
13D77
  8
0
 10
4778.4292500188657868
 20
-7.786718691941366
 30
0.0
 11
4778.2406857024661804
 21
-5.9926490563413628
 31
0.0
  0
ARC
  5
13D78
  8
0
 10
4774.8292419279187015
 20
-7.2947466197021518
 30
0.0
 40
0.4924688441195042
 50
184.8464772505463998
 51
267.429510506571205
  0
ARC
  5
13D79
  8
0
 10
4774.8891903462190385
 20
-7.3109031992655238
 30
0.0
 40
0.4761277363030456
 50
183.0640622724446871
 51
267.9289411098845903
  0
ARC
  5
13D7A
  8
0
 10
4775.2285555760454372
 20
-7.1685830945880431
 30
0.0
 40
1.2020145743331601
 50
184.4254679199594023
 51
191.6575289609963875
  0
ARC
  5
13D7B
  8
0
 10
4774.535526463536371
 20
-7.2867170374934949
 30
0.0
 40
0.5000030119613103
 50
194.44745709483729
 51
269.9956918567178832
  0
LINE
  5
13D7C
  8
0
 10
4774.3385338305470214
 20
-7.3363534172410558
 30
0.0
 11
4774.329450161872046
 21
-7.2579604963983817
 31
0.0
  0
LINE
  5
13D7D
  8
0
 10
4774.329450161872046
 20
-7.2579604963983817
 30
0.0
 11
4774.4060529993012096
 21
-7.2499662830661293
 31
0.0
  0
LINE
  5
13D7E
  8
0
 10
4774.4060529993012096
 20
-7.2499662830661293
 30
0.0
 11
4774.4137432850657206
 21
-7.3363534115413671
 31
0.0
  0
LINE
  5
13D7F
  8
0
 10
4775.2687043872665527
 20
-7.3288458532413614
 30
0.0
 11
4775.2335552292661305
 21
-7.0349044768413611
 31
0.0
  0
LINE
  5
13D80
  8
0
 10
4775.2335552292661305
 20
-7.0349044768413611
 30
0.0
 11
4775.3836642028627466
 21
-6.9802233691088844
 31
0.0
  0
LINE
  5
13D81
  8
0
 10
4775.3836642028627466
 20
-6.9802233691088844
 30
0.0
 11
4775.408071907266276
 21
-7.3288397978413613
 31
0.0
  0
ARC
  5
13D82
  8
0
 10
4775.7697270447542905
 20
-7.503733447608929
 30
0.0
 40
0.2830248540255325
 50
226.1113958843450007
 51
269.0521045365816235
  0
ARC
  5
13D83
  8
0
 10
4776.0009921077380568
 20
-7.2954770012888508
 30
0.0
 40
0.5938580977996221
 50
183.2205579063976018
 51
223.9598904531285086
  0
ARC
  5
13D84
  8
0
 10
4775.9165717059113376
 20
-7.2571870665143257
 30
0.0
 40
0.6518182601388838
 50
186.3116699949237898
 51
214.6991866070914909
  0
ARC
  5
13D85
  8
0
 10
4775.6708466361824321
 20
-7.443422888263
 30
0.0
 40
0.3440313160631911
 50
212.4951557905515926
 51
266.2551190366265246
  0
LINE
  5
13D86
  8
0
 10
4776.6872707672364413
 20
-7.3175653419717781
 30
0.0
 11
4776.5890057781725773
 21
-6.469153838700449
 31
0.0
  0
LINE
  5
13D87
  8
0
 10
4776.5890057781725773
 20
-6.469153838700449
 30
0.0
 11
4776.8216839956658077
 21
-6.3679160146413656
 31
0.0
  0
LINE
  5
13D88
  8
0
 10
4776.8216839956658077
 20
-6.3679160146413656
 30
0.0
 11
4776.870120376165687
 21
-7.317565342241366
 31
0.0
  0
LINE
  5
13D89
  8
0
 10
4777.6106179737626007
 20
-7.3114218258413572
 30
0.0
 11
4778.3792833445268116
 21
-7.31131754004464
 31
0.0
  0
LINE
  5
13D8A
  8
0
 10
4778.5776477050330868
 20
-7.3112906277026042
 30
0.0
 11
4779.3529140651662601
 21
-7.3111854463413621
 31
0.0
  0
LINE
  5
13D8B
  8
0
 10
4777.9243849483664235
 20
-7.5997205586413648
 30
0.0
 11
4778.0270730314659886
 21
-7.786718691941366
 31
0.0
  0
LINE
  5
13D8C
  8
0
 10
4778.0270730314659886
 20
-7.786718691941366
 30
0.0
 11
4774.5354888676656628
 21
-7.7867200480413672
 31
0.0
  0
ARC
  5
13D8D
  8
0
 10
4777.9652653455386826
 20
-7.2712308262382157
 30
0.0
 40
1.0961247152201801
 50
182.4226836853551958
 51
197.2081381801689872
  0
ARC
  5
13D8E
  8
0
 10
4777.8312432750763037
 20
-7.1929145320815371
 30
0.0
 40
1.1507436391740009
 50
186.218593113579999
 51
200.0065577836774082
  0
ARC
  5
13D8F
  8
0
 10
4777.1934303681173333
 20
-7.5306148979328631
 30
0.0
 40
0.2827711089631037
 50
193.2679666884588983
 51
244.916819692901413
  0
ARC
  5
13D90
  8
0
 10
4777.0531051881589519
 20
-7.5003018940174684
 30
0.0
 40
0.3152100707079837
 50
195.8922889947257033
 51
245.3199612446748006
  0
ARC
  5
13D91
  8
0
 10
4777.5555758723467079
 20
-7.6089500668312757
 30
0.0
 40
0.3025767458269244
 50
48.7951352036942509
 51
79.5188978889375733
  0
ARC
  5
13D92
  8
0
 10
4777.2482150329233264
 20
-7.9494438117016273
 30
0.0
 40
0.7612569265897551
 50
27.3485516768769585
 51
48.2724676481297834
  0
ARC
  5
13D93
  8
0
 10
4779.5837331989496306
 20
-5.2988610869328019
 30
0.0
 40
2.96172149936785
 50
201.1589973207532864
 51
210.4347225528846934
  0
ARC
  5
13D94
  8
0
 10
4777.9428344222997112
 20
-6.3499211790703276
 30
0.0
 40
1.0172763943088301
 50
206.2053564545034021
 51
250.9390119312326988
  0
ARC
  5
13D95
  8
0
 10
4776.4859249425289818
 20
-5.272738030378548
 30
0.0
 40
2.0323594466015038
 50
237.1558872520523948
 51
252.1433351939134866
  0
ARC
  5
13D96
  8
0
 10
4776.4521744680150732
 20
-5.36150045457223
 30
0.0
 40
1.937530086025772
 50
252.2884362822634046
 51
269.5601891015315914
  0
ARC
  5
13D97
  8
0
 10
4777.0209820052959913
 20
3.8151668349422461
 30
0.0
 40
11.1294562752070494
 50
266.9937651835696215
 51
268.2768002410793997
  0
LINE
  5
13D98
  8
0
 10
4772.6306775160519464
 20
-7.2240137224147603
 30
0.0
 11
4774.3307693826309333
 21
-7.2693505743880769
 31
0.0
  0
LINE
  5
13D99
  8
0
 10
4774.4060529755633979
 20
-7.2499660164114772
 30
0.0
 11
4774.6582223329724002
 21
-7.2686786792517921
 31
0.0
  0
LINE
  5
13D9A
  8
0
 10
4774.6582223329724002
 20
-7.2686786792517921
 30
0.0
 11
4775.2627233315279227
 21
-7.2788281613298622
 31
0.0
  0
LINE
  5
13D9B
  8
0
 10
4774.4767746208126482
 20
-7.7832562936930501
 30
0.0
 11
4774.5273448303660189
 21
-8.2613979621413662
 31
0.0
  0
LINE
  5
13D9C
  8
0
 10
4774.5273448303660189
 20
-8.2613979621413662
 30
0.0
 11
4774.6277657237660605
 21
-8.2636392976413617
 31
0.0
  0
LINE
  5
13D9D
  8
0
 10
4774.6277657237660605
 20
-8.2636392976413617
 30
0.0
 11
4774.6114337574663296
 21
-7.7868564692413642
 31
0.0
  0
LINE
  5
13D9E
  8
0
 10
4776.4325514941656365
 20
-7.7868159324413631
 30
0.0
 11
4776.482968958366655
 21
-8.2595463125413602
 31
0.0
  0
LINE
  5
13D9F
  8
0
 10
4776.482968958366655
 20
-8.2595463125413602
 30
0.0
 11
4776.5833073105159201
 21
-8.2605561413913602
 31
0.0
  0
LINE
  5
13DA0
  8
0
 10
4776.5833073105159201
 20
-8.2605561413913602
 30
0.0
 11
4776.5675190068659504
 21
-7.7868793587413592
 31
0.0
  0
ARC
  5
13DA1
  8
0
 10
4786.8390563913699225
 20
-3.9520074352687331
 30
0.0
 40
2.744477333840591
 50
309.9677015219238001
 51
348.9689168937456998
  0
ARC
  5
13DA2
  8
0
 10
4785.5901801293211975
 20
-4.1957696248370757
 30
0.0
 40
2.992417618147531
 50
310.168533297769784
 51
315.4217576308108164
  0
ARC
  5
13DA3
  8
0
 10
4785.8414731393677357
 20
-4.1665627844086472
 30
0.0
 40
2.9620590485819012
 50
309.551598466856376
 51
314.9672691903944042
  0
ARC
  5
13DA4
  8
0
 10
4785.9804015996569433
 20
-4.131815072292425
 30
0.0
 40
2.9603631374681489
 50
311.4008620280732202
 51
314.6233410466783766
  0
ARC
  5
13DA5
  8
0
 10
4786.1343853144389868
 20
-4.0858614578131522
 30
0.0
 40
2.960709459805877
 50
310.6564110339741092
 51
314.1863020651862826
  0
LINE
  5
13DA6
  8
0
 10
4787.5346523132666334
 20
-6.8503040071413599
 30
0.0
 11
4787.5141690530854248
 21
-6.3214632951724354
 31
0.0
  0
LINE
  5
13DA7
  8
0
 10
4787.7418716219672206
 20
-6.8183643314413649
 30
0.0
 11
4787.7216571501667204
 21
-6.2960955307413684
 31
0.0
  0
LINE
  5
13DA8
  8
0
 10
4787.9347683368550861
 20
-6.2622509824629162
 30
0.0
 11
4787.9564465799403479
 21
-6.8386580508220263
 31
0.0
  0
LINE
  5
13DA9
  8
0
 10
4788.0598881363648616
 20
-6.23882376931543
 30
0.0
 11
4788.0810272160406385
 21
-6.8072787520220279
 31
0.0
  0
LINE
  5
13DAA
  8
0
 10
4788.1979811205210353
 20
-6.208918888621894
 30
0.0
 11
4788.217226201611993
 21
-6.7035181011468969
 31
0.0
  0
ARC
  5
13DAB
  8
0
 10
4786.4094050537642033
 20
-6.8900146177453223
 30
0.0
 40
1.1259477463947829
 50
305.5716372814121087
 51
2.021161593651402
  0
ARC
  5
13DAC
  8
0
 10
4786.6169058906343707
 20
-6.8578232409621123
 30
0.0
 40
1.1256575421542301
 50
319.2630296862215005
 51
2.0088634110990191
  0
ARC
  5
13DAD
  8
0
 10
4786.8202216008858159
 20
-6.80779632985461
 30
0.0
 40
1.1366440290830671
 50
318.0346405695589169
 51
358.4441358522623773
  0
ARC
  5
13DAE
  8
0
 10
4786.9491768108764518
 20
-6.7786959928906816
 30
0.0
 40
1.1322112529466619
 50
312.7072546818905039
 51
358.5534121124250078
  0
ARC
  5
13DAF
  8
0
 10
4786.5901339880620071
 20
-6.8258240446402487
 30
0.0
 40
1.166844915976798
 50
284.5317153818327824
 51
318.9303434418335996
  0
ARC
  5
13DB0
  8
0
 10
4786.0003773417593038
 20
-6.0547659006110592
 30
0.0
 40
2.049003440156572
 50
281.058671695097928
 51
301.2842286102834919
  0
ARC
  5
13DB1
  8
0
 10
4786.8302679510597955
 20
-6.8139423056329198
 30
0.0
 40
1.1250664251215261
 50
291.4372697616627192
 51
317.9252517626970871
  0
ARC
  5
13DB2
  8
0
 10
4786.9559354393086323
 20
-6.7839041072570794
 30
0.0
 40
1.123801037751418
 50
295.8056424319814255
 51
312.6341428794581816
  0
ARC
  5
13DB3
  8
0
 10
4786.7640088922580617
 20
-6.320367775561528
 30
0.0
 40
1.624919843912267
 50
281.6088229993995924
 51
294.7830397414870731
  0
ARC
  5
13DB4
  8
0
 10
4786.0806718564772382
 20
-4.6758658023708364
 30
0.0
 40
3.39022440601493
 50
280.2364584802065224
 51
290.0227160002713731
  0
ARC
  5
13DB5
  8
0
 10
4785.6461345419402278
 20
-4.9044661631702482
 30
0.0
 40
3.248376749293385
 50
270.7738291186021229
 51
283.2996796275421048
  0
ARC
  5
13DB6
  8
0
 10
4785.7997447052930511
 20
-4.5247662616499289
 30
0.0
 40
3.5975121634791352
 50
277.7517466827168278
 51
287.5229868593461902
  0
ARC
  5
13DB7
  8
0
 10
4785.5080434005449206
 20
-4.3759465608561712
 30
0.0
 40
2.7945617719576621
 50
303.295914654241983
 51
315.8787138634057783
  0
ARC
  5
13DB8
  8
0
 10
4785.5155282241339592
 20
-4.3957137153300962
 30
0.0
 40
2.7739343783389252
 50
272.1818160098657131
 51
303.3908304203768012
  0
ARC
  5
13DB9
  8
0
 10
4783.4879827444374314
 20
26.1061655623397613
 30
0.0
 40
33.3421096924956188
 50
271.9066354314418845
 51
273.668156676580395
  0
ARC
  5
13DBA
  8
0
 10
4784.8461436935440361
 20
9.4609255076207202
 30
0.0
 40
17.6336752830085608
 50
270.0604066469908275
 51
272.7429440492430217
  0
ARC
  5
13DBB
  8
0
 10
4782.6363711094809332
 20
34.9936411574297566
 30
0.0
 40
43.2097068647615572
 50
269.9975526133922017
 51
272.1746731938906123
  0
ARC
  5
13DBC
  8
0
 10
4778.9763991223408084
 20
51.8335101871863273
 30
0.0
 40
60.0995205464647881
 50
269.5570231328827049
 51
271.4806901952259182
  0
ARC
  5
13DBD
  8
0
 10
4777.3660686791217813
 20
286.7305196669429961
 30
0.0
 40
294.993528594710881
 50
270.6340898441662262
 51
271.003256903296915
  0
ARC
  5
13DBE
  8
0
 10
4782.1337766619490139
 20
-7.3005268895386157
 30
0.0
 40
0.4874119131292393
 50
274.0522828941416833
 51
3.3643247256629878
  0
ARC
  5
13DBF
  8
0
 10
4782.0745872696952574
 20
-7.3162139276111366
 30
0.0
 40
0.4709091447507512
 50
272.3586133245751739
 51
5.4127831047032711
  0
LINE
  5
13DC0
  8
0
 10
4782.6203485506648576
 20
-7.2719232154413609
 30
0.0
 11
4782.6200433055655594
 21
-7.2593116293413606
 31
0.0
  0
LINE
  5
13DC1
  8
0
 10
4782.6200433055655594
 20
-7.2593116293413606
 30
0.0
 11
4782.5423347426649343
 21
-7.2508767423413607
 31
0.0
  0
LINE
  5
13DC2
  8
0
 10
4782.5423347426649343
 20
-7.2508767423413607
 30
0.0
 11
4782.5433966039900042
 21
-7.2717928662954341
 31
0.0
  0
LINE
  5
13DC3
  8
0
 10
4784.4381377636518664
 20
-7.2226369573635258
 30
0.0
 11
4782.6201789161259512
 21
-7.2649145506085091
 31
0.0
  0
ARC
  5
13DC4
  8
0
 10
4787.0928501567959756
 20
-6.7427759217782182
 30
0.0
 40
1.125054510543382
 50
282.4963593080290138
 51
2.1128873390546841
  0
ARC
  5
13DC5
  8
0
 10
4787.2095461568487735
 20
-6.7019093268193037
 30
0.0
 40
1.124833700309497
 50
286.251942979900889
 51
357.9045456499172246
  0
ARC
  5
13DC6
  8
0
 10
4787.304456766117255
 20
-6.660318033930082
 30
0.0
 40
1.1247728418588441
 50
291.0572386444641211
 51
0.015678032617315
  0
ARC
  5
13DC7
  8
0
 10
4787.3799247274910158
 20
-6.6178438105470434
 30
0.0
 40
1.1247222738289331
 50
297.1984560651339962
 51
0.0092805407471475
  0
ARC
  5
13DC8
  8
0
 10
4787.3945973331792629
 20
-6.5573520778029462
 30
0.0
 40
1.172525460641459
 50
295.2092675174337728
 51
1.1026819417087479
  0
ARC
  5
13DC9
  8
0
 10
4787.4951663192841806
 20
-6.5293896113225571
 30
0.0
 40
1.1247872332786679
 50
310.4129569039010903
 51
0.0065261428988773
  0
ARC
  5
13DCA
  8
0
 10
4787.512215307508086
 20
-6.4902341179402612
 30
0.0
 40
1.1258068606202201
 50
334.0160308722523723
 51
1.987434249146409
  0
LINE
  5
13DCB
  8
0
 10
4788.2008550715827369
 20
-6.2827795247861502
 30
0.0
 11
4788.3148499695689679
 21
-6.179248835078873
 31
0.0
  0
LINE
  5
13DCC
  8
0
 10
4788.3148499695689679
 20
-6.179248835078873
 30
0.0
 11
4788.333627678411176
 21
-6.7430382246478038
 31
0.0
  0
LINE
  5
13DCD
  8
0
 10
4788.4292295658660805
 20
-6.6600102586413641
 30
0.0
 11
4788.4101117773370788
 21
-6.1502874163077763
 31
0.0
  0
LINE
  5
13DCE
  8
0
 10
4788.4101117773370788
 20
-6.1502874163077763
 30
0.0
 11
4788.3166645847077234
 21
-6.2337315608402326
 31
0.0
  0
LINE
  5
13DCF
  8
0
 10
4788.4114275695847027
 20
-6.1853693696435101
 30
0.0
 11
4788.4858899137661865
 21
-6.118875156141363
 31
0.0
  0
LINE
  5
13DD0
  8
0
 10
4788.4858899137661865
 20
-6.118875156141363
 30
0.0
 11
4788.5046469865656036
 21
-6.6176616325413633
 31
0.0
  0
LINE
  5
13DD1
  8
0
 10
4788.5669056566666768
 20
-6.5347877135413617
 30
0.0
 11
4788.5492059490306929
 21
-6.086628280108342
 31
0.0
  0
LINE
  5
13DD2
  8
0
 10
4788.5492059490306929
 20
-6.086628280108342
 30
0.0
 11
4788.4867007735310835
 21
-6.1404374696915758
 31
0.0
  0
LINE
  5
13DD3
  8
0
 10
4788.549605724570938
 20
-6.0967506608424031
 30
0.0
 11
4788.6018240361408971
 21
-6.0510953340406672
 31
0.0
  0
LINE
  5
13DD4
  8
0
 10
4788.6018240361408971
 20
-6.0510953340406672
 30
0.0
 11
4788.6199535452660712
 21
-6.529261495041367
 31
0.0
  0
LINE
  5
13DD5
  8
0
 10
4788.6373449468046601
 20
-6.4511907805521878
 30
0.0
 11
4788.620845464980448
 21
-6.0394421128394811
 31
0.0
  0
LINE
  5
13DD6
  8
0
 10
4784.4162355440666943
 20
-7.0053071422413629
 30
0.0
 11
4784.5863322836366933
 21
-6.9385943180202849
 31
0.0
  0
LINE
  5
13DD7
  8
0
 10
4784.5863322836366933
 20
-6.9385943180202849
 30
0.0
 11
4784.6350227326665845
 21
-8.1760830068413668
 31
0.0
  0
LINE
  5
13DD8
  8
0
 10
4784.6350227326665845
 20
-8.1760830068413668
 30
0.0
 11
4784.6378765938652577
 21
-8.2167620540413662
 31
0.0
  0
LINE
  5
13DD9
  8
0
 10
4784.6378765938652577
 20
-8.2167620540413662
 30
0.0
 11
4784.5378456851658484
 21
-8.2200014054413657
 31
0.0
  0
LINE
  5
13DDA
  8
0
 10
4784.5378456851658484
 20
-8.2200014054413657
 30
0.0
 11
4784.5358551691660978
 21
-8.1922604054413597
 31
0.0
  0
LINE
  5
13DDB
  8
0
 10
4784.5358551691660978
 20
-8.1922604054413597
 30
0.0
 11
4784.4162355440666943
 21
-7.0053071422413629
 31
0.0
  0
LINE
  5
13DDC
  8
0
 10
4784.2760107516660355
 20
-8.1849455399413671
 30
0.0
 11
4784.19945913976062
 21
-7.2281875548321253
 31
0.0
  0
LINE
  5
13DDD
  8
0
 10
4784.8070940362549663
 20
-7.2098399627259511
 30
0.0
 11
4784.864734783665881
 21
-8.1727399751413614
 31
0.0
  0
LINE
  5
13DDE
  8
0
 10
4784.2626677063472016
 20
-8.1854501567426752
 30
0.0
 11
4784.3206922312037932
 21
-8.7464350297542222
 31
0.0
  0
LINE
  5
13DDF
  8
0
 10
4784.3206922312037932
 20
-8.7464350297542222
 30
0.0
 11
4784.967852323511579
 21
-8.7464350297542222
 31
0.0
  0
LINE
  5
13DE0
  8
0
 10
4784.967852323511579
 20
-8.7464350297542222
 30
0.0
 11
4784.9491665180703421
 21
-8.172448823011905
 31
0.0
  0
ARC
  5
13DE1
  8
0
 10
4782.4204102297881036
 20
-7.2867175991525448
 30
0.0
 40
0.5000028477896571
 50
270.0051257518737202
 51
3.2981308922429711
  0
LINE
  5
13DE2
  8
0
 10
4782.4204131234673696
 20
-7.786718691941366
 30
0.0
 11
4778.9964270062673677
 21
-7.786718691941366
 31
0.0
  0
LINE
  5
13DE3
  8
0
 10
4778.9964270062673677
 20
-7.786718691941366
 30
0.0
 11
4779.0764161531960781
 21
-7.5994159231967009
 31
0.0
  0
LINE
  5
13DE4
  8
0
 10
4780.0040646024663147
 20
-6.3782070435413649
 30
0.0
 11
4780.2501448136663385
 21
-6.4750369825413676
 31
0.0
  0
LINE
  5
13DE5
  8
0
 10
4780.2501448136663385
 20
-6.4750369825413676
 30
0.0
 11
4780.2701425134710007
 21
-7.3041304401575067
 31
0.0
  0
LINE
  5
13DE6
  8
0
 10
4780.0853067077650849
 20
-7.2908315847413681
 30
0.0
 11
4780.0040646024663147
 21
-6.3782070435413649
 31
0.0
  0
ARC
  5
13DE7
  8
0
 10
4780.4973984587122686
 20
-5.4844254638276189
 30
0.0
 40
1.816996092635653
 50
289.1382261851354087
 51
304.5169670313064216
  0
ARC
  5
13DE8
  8
0
 10
4780.4978098417850561
 20
-5.4748724348137472
 30
0.0
 40
1.825889652359219
 50
272.0284669213032771
 51
289.0277512281480199
  0
ARC
  5
13DE9
  8
0
 10
4780.0751445025061912
 20
-7.6626363671303324
 30
0.0
 40
0.1252402497304643
 50
277.7933188476314967
 51
335.3735406404994137
  0
ARC
  5
13DEA
  8
0
 10
4779.0776862627417358
 20
-7.3237010348072431
 30
0.0
 40
1.192616836236247
 50
350.3109690608865208
 51
0.9402540470360934
  0
ARC
  5
13DEB
  8
0
 10
4779.6967740292966482
 20
-7.4425474753361831
 30
0.0
 40
0.5625072611343325
 50
331.0503388383124843
 51
351.6309899803684971
  0
ARC
  5
13DEC
  8
0
 10
4778.9534689366091698
 20
-7.3985234278298426
 30
0.0
 40
1.1369495473783311
 50
351.4448765696147916
 51
5.4352034071723558
  0
ARC
  5
13DED
  8
0
 10
4779.6525404937156054
 20
-7.5132170056202119
 30
0.0
 40
0.4286980759806094
 50
328.394774657733592
 51
352.7043573311440809
  0
ARC
  5
13DEE
  8
0
 10
4779.9268195339100203
 20
-7.6821828899451461
 30
0.0
 40
0.106551599457615
 50
281.1626719401477885
 51
328.4835340370270274
  0
ARC
  5
13DEF
  8
0
 10
4784.0788323190308802
 20
-235.5765247873042085
 30
0.0
 40
228.3039886436293102
 50
90.8825183439752351
 51
90.9558825938002258
  0
ARC
  5
13DF0
  8
0
 10
4781.0015835823342059
 20
-7.2932967313266408
 30
0.0
 40
0.688340157651809
 50
342.130686130814297
 51
1.06341916034789
  0
ARC
  5
13DF1
  8
0
 10
4781.1600485191684129
 20
-7.3431965035545366
 30
0.0
 40
0.5222093820406152
 50
322.2212795715216771
 51
342.0064932207778838
  0
ARC
  5
13DF2
  8
0
 10
4780.9620038257726264
 20
-7.3366238454820802
 30
0.0
 40
0.5886343738710412
 50
329.9746765074121981
 51
5.5699191471378287
  0
ARC
  5
13DF3
  8
0
 10
4781.3082947998300369
 20
-7.4591399686553066
 30
0.0
 40
0.3340105765514749
 50
281.2589931008863005
 51
322.3622874023242844
  0
ARC
  5
13DF4
  8
0
 10
4781.1810510860459544
 20
-7.4615130789795208
 30
0.0
 40
0.3364931388323618
 50
284.8823138182739854
 51
329.7230418400229723
  0
LINE
  5
13DF5
  8
0
 10
4781.5478589593931247
 20
-7.2794907682530896
 30
0.0
 11
4781.5269997689056254
 21
-6.9815546976281411
 31
0.0
  0
LINE
  5
13DF6
  8
0
 10
4781.5269997689056254
 20
-6.9815546976281411
 30
0.0
 11
4781.6847109515656484
 21
-7.0367960173413664
 31
0.0
  0
LINE
  5
13DF7
  8
0
 10
4781.6847109515656484
 20
-7.0367960173413664
 30
0.0
 11
4781.6898051837652019
 21
-7.2805217574413632
 31
0.0
  0
LINE
  5
13DF8
  8
0
 10
4780.4804119012651427
 20
-7.7868533580413617
 30
0.0
 11
4780.5308365628661704
 21
-8.2596629491413651
 31
0.0
  0
LINE
  5
13DF9
  8
0
 10
4780.5308365628661704
 20
-8.2596629491413651
 30
0.0
 11
4780.6310304612661639
 21
-8.2584990621413681
 31
0.0
  0
LINE
  5
13DFA
  8
0
 10
4780.6310304612661639
 20
-8.2584990621413681
 30
0.0
 11
4780.615279011365601
 21
-7.7868006587413632
 31
0.0
  0
LINE
  5
13DFB
  8
0
 10
4782.4852393752380522
 20
-7.7824998393527656
 30
0.0
 11
4782.5357919635662256
 21
-8.2604795748413622
 31
0.0
  0
LINE
  5
13DFC
  8
0
 10
4782.5357919635662256
 20
-8.2604795748413622
 30
0.0
 11
4782.6358746436671936
 21
-8.2577869183493675
 31
0.0
  0
LINE
  5
13DFD
  8
0
 10
4782.6358746436671936
 20
-8.2577869183493675
 30
0.0
 11
4782.6182827441662084
 21
-7.7453063311413644
 31
0.0
  0
LINE
  5
13DFE
  8
0
 10
4781.6896727544663008
 20
-7.279484014241361
 30
0.0
 11
4782.5423347426649343
 21
-7.2508767423413607
 31
0.0
  0
ARC
  5
13DFF
  8
0
 10
4779.4975120960216373
 20
-7.7266342443625637
 30
0.0
 40
0.4398935033672432
 50
109.1905843404178995
 51
163.1897803536153049
  0
ARC
  5
13E00
  8
0
 10
4779.2050981533220693
 20
-6.7285951492392542
 30
0.0
 40
0.6010499131288749
 50
284.2367716449529098
 51
324.8420459994882776
  0
ARC
  5
13E01
  8
0
 10
4778.1251202614312206
 20
-5.964630846972887
 30
0.0
 40
1.9239223235560381
 50
324.7614548412905719
 51
347.5865189151414256
  0
ARC
  5
13E02
  8
0
 10
4773.6290147902691388
 20
5.7014249462079709
 30
0.0
 40
0.0697686466255409
 50
31.9745184408153413
 51
80.823539498499585
  0
ARC
  5
13E03
  8
0
 10
4774.0828650224939338
 20
6.1195999464310731
 30
0.0
 40
0.6188731043013334
 50
184.6519406293851944
 51
208.6022900070809101
  0
ARC
  5
13E04
  8
0
 10
4772.9198395601852098
 20
6.0273827310040033
 30
0.0
 40
0.5478054319940791
 50
4.3997855106720936
 51
44.7501603653978322
  0
ARC
  5
13E05
  8
0
 10
4773.6262218808124089
 20
5.867076503193374
 30
0.0
 40
0.097116619216885
 50
206.7736221458692967
 51
258.2076077578406057
  0
LINE
  5
13E06
  8
0
 10
4773.606374538466298
 20
5.7720095755586343
 30
0.0
 11
4773.640141188265261
 21
5.7703006844586318
 31
0.0
  0
LINE
  5
13E07
  8
0
 10
4773.7818824307660179
 20
5.2882813080586351
 30
0.0
 11
4773.762383746062369
 21
5.4907967667715587
 31
0.0
  0
ARC
  5
13E08
  8
0
 10
4773.4004079067226485
 20
5.5417244019781791
 30
0.0
 40
0.3485584675626041
 50
12.0113396395703695
 51
34.3446238703879132
  0
ARC
  5
13E09
  8
0
 10
4772.9453780439807815
 20
5.415037881161374
 30
0.0
 40
0.8205106495239215
 50
5.2977442906369729
 51
14.0521018655396706
  0
ARC
  5
13E0A
  8
0
 10
4769.6768052810421068
 20
5.8837234844893009
 30
0.0
 40
0.8244870184847332
 50
14.9690044097586501
 51
39.9413667848847211
  0
ARC
  5
13E0B
  8
0
 10
4770.7422022380533235
 20
6.0467998116742327
 30
0.0
 40
0.23182424695168
 50
214.5412871006940065
 51
263.5939241510470197
  0
ARC
  5
13E0C
  8
0
 10
4770.9204562353079382
 20
6.1814435130749672
 30
0.0
 40
0.4551045693520385
 50
190.733342262101786
 51
215.7799985207549867
  0
ARC
  5
13E0D
  8
0
 10
4771.6079960441093135
 20
5.6299448147340376
 30
0.0
 40
0.1562744161473777
 50
31.9123371136089915
 51
84.451587474107626
  0
ARC
  5
13E0E
  8
0
 10
4771.3813056518310987
 20
5.4656682728097357
 30
0.0
 40
0.4359838178509665
 50
5.7972473755970544
 51
34.4908387605132489
  0
LINE
  5
13E0F
  8
0
 10
4771.8428494441386647
 20
5.2882813035474854
 30
0.0
 11
4771.8150596577661418
 21
5.5097063445586372
 31
0.0
  0
LINE
  5
13E10
  8
0
 10
4771.8150596577661418
 20
5.5097063445586372
 30
0.0
 11
4772.5460692187680252
 21
5.5017461161151138
 31
0.0
  0
LINE
  5
13E11
  8
0
 10
4772.4560100855587734
 20
5.7800920738023498
 30
0.0
 11
4771.6231057151671848
 21
5.7854870629586372
 31
0.0
  0
LINE
  5
13E12
  8
0
 10
4771.6231057151671848
 20
5.7854870629586372
 30
0.0
 11
4770.7163366066661183
 21
5.8164230537586334
 31
0.0
  0
ARC
  5
13E13
  8
0
 10
4763.6362094894711845
 20
87.3194258889961077
 30
0.0
 40
82.4807106023874042
 50
277.0538795807563019
 51
279.2587129048325778
  0
ARC
  5
13E14
  8
0
 10
4773.895170735299871
 20
16.6030661559018391
 30
0.0
 40
10.8353233953948003
 50
268.5620091736074073
 51
274.0693567693211889
  0
ARC
  5
13E15
  8
0
 10
4766.6973461832712928
 20
116.8225709678999067
 30
0.0
 40
111.3129695504396039
 50
274.1042054658478264
 51
274.8810655434958221
  0
ARC
  5
13E16
  8
0
 10
4783.4585444147369344
 20
5.690240510278727
 30
0.0
 40
0.0880201330990171
 50
112.0943564381635014
 51
160.484948064984394
  0
ARC
  5
13E17
  8
0
 10
4783.0566561274763444
 20
6.0258163689832713
 30
0.0
 40
0.5110485069731318
 50
335.656944558307714
 51
2.3500929095457308
  0
ARC
  5
13E18
  8
0
 10
4784.0568397202559936
 20
6.064546160431675
 30
0.0
 40
0.4898874600114442
 50
134.6519259614074997
 51
182.079257982445597
  0
ARC
  5
13E19
  8
0
 10
4783.4539240271760718
 20
5.8478033341002984
 30
0.0
 40
0.0757395861417429
 50
280.3376593442582134
 51
334.4715168826847957
  0
LINE
  5
13E1A
  8
0
 10
4783.4675154098658822
 20
5.773293205758633
 30
0.0
 11
4783.4254371380657176
 21
5.7717969451086333
 31
0.0
  0
LINE
  5
13E1B
  8
0
 10
4783.3461315567674319
 20
5.2882813054586393
 30
0.0
 11
4783.3416031074666535
 21
5.4918138954586331
 31
0.0
  0
ARC
  5
13E1C
  8
0
 10
4783.7425946565890627
 20
5.5662198141403101
 30
0.0
 40
0.3977916910981372
 50
157.3134265461650898
 51
174.2157891552741091
  0
ARC
  5
13E1D
  8
0
 10
4784.1468989220529693
 20
5.5124303477933481
 30
0.0
 40
0.80555967320693
 50
173.3075538435097087
 51
181.4665141932472068
  0
ARC
  5
13E1E
  8
0
 10
4787.9219638064223545
 20
5.728086149042646
 30
0.0
 40
1.370828812793164
 50
150.0218915889809068
 51
165.9467186838062105
  0
ARC
  5
13E1F
  8
0
 10
4786.37888675900831
 20
5.9956510447874152
 30
0.0
 40
0.1775257749196209
 50
273.0246288142139974
 51
318.5715371122739725
  0
ARC
  5
13E20
  8
0
 10
4786.2514651427281933
 20
6.1014317079867757
 30
0.0
 40
0.3430941249580734
 50
319.4066218599580793
 51
353.2249611371785818
  0
ARC
  5
13E21
  8
0
 10
4785.4844597888413773
 20
5.6290252751688916
 30
0.0
 40
0.1590869036604773
 50
97.8135003333552646
 51
158.9738392109395022
  0
ARC
  5
13E22
  8
0
 10
4785.7386727422708645
 20
5.5001212924688971
 30
0.0
 40
0.4435797894710844
 50
155.2109598966916906
 51
179.7740241894506994
  0
LINE
  5
13E23
  8
0
 10
4785.2904394771667285
 20
5.2882813083586342
 30
0.0
 11
4785.2950964028059389
 21
5.5018707763479417
 31
0.0
  0
LINE
  5
13E24
  8
0
 10
4785.2950964028059389
 20
5.5018707763479417
 30
0.0
 11
4784.5732157954853392
 21
5.5017607193659606
 31
0.0
  0
LINE
  5
13E25
  8
0
 10
4784.6247547470657082
 20
5.781366897558633
 30
0.0
 11
4785.4003943393663576
 21
5.7854870629586372
 31
0.0
  0
LINE
  5
13E26
  8
0
 10
4785.4003943393663576
 20
5.7854870629586372
 30
0.0
 11
4786.388253944902317
 21
5.818372572915492
 31
0.0
  0
ARC
  5
13E27
  8
0
 10
4785.6428977494579158
 20
34.1388931578800694
 30
0.0
 40
28.7393651164516513
 50
258.5558086645967251
 51
265.4071432903585901
  0
ARC
  5
13E28
  8
0
 10
4783.1287079664962221
 20
16.6111176907728506
 30
0.0
 40
10.84338150341706
 50
265.9316666046028104
 51
271.5680949515644897
  0
ARC
  5
13E29
  8
0
 10
4794.5150228829206753
 20
172.5532933332054881
 30
0.0
 40
167.2006797057561869
 50
264.989161495538383
 51
265.8308770004438202
  0
LINE
  5
13E2A
  8
0
 10
4779.8664032480128299
 20
6.4130469101585978
 30
0.0
 11
4779.8676561360662163
 21
6.0381356005586317
 31
0.0
  0
LINE
  5
13E2B
  8
0
 10
4779.8676561360662163
 20
6.0381356005586317
 30
0.0
 11
4779.8814061883658724
 21
6.012332982758636
 31
0.0
  0
LINE
  5
13E2C
  8
0
 10
4779.8814061883658724
 20
6.012332982758636
 30
0.0
 11
4779.9406240604348568
 21
5.9709116527706518
 31
0.0
  0
LINE
  5
13E2E
  8
0
 10
4763.7589805206680467
 20
6.4130469101585978
 30
0.0
 11
4792.6367500188662234
 21
6.4130469101585978
 31
0.0
  0
LINE
  5
13E2F
  8
0
 10
4792.5982435355826965
 20
6.2923968618754946
 30
0.0
 11
4792.5982435355826965
 21
6.4130469101585978
 31
0.0
  0
ENDSEC
  0
EOF
