  0
SECTION
  2
HEADER
  9
$ACADVER
  1
AC1009
  9
$INSBASE
 10
4828.3318281157808087
 20
-33.591689763036257
 30
0.0
  9
$EXTMIN
 10
4726.5343757813352568
 20
-62.8216898248965734
 30
0.0
  9
$EXTMAX
 10
4858.3318168449332006
 20
-9.4699523408398392
 30
0.0
  9
$LIMMIN
 10
0.0
 20
0.0
  9
$LIMMAX
 10
11.6929133858000007
 20
8.2677165353999982
  9
$ORTHOMODE
 70
     0
  9
$REGENMODE
 70
     1
  9
$FILLMODE
 70
     1
  9
$QTEXTMODE
 70
     0
  9
$MIRRTEXT
 70
     0
  9
$DRAGMODE
 70
     2
  9
$LTSCALE
 40
0.6431102362
  9
$OSMODE
 70
  4095
  9
$ATTMODE
 70
     1
  9
$TEXTSIZE
 40
0.2
  9
$TRACEWID
 40
0.05
  9
$TEXTSTYLE
  7
STANDARD
  9
$CLAYER
  8
0
  9
$CELTYPE
  6
BYLAYER
  9
$CECOLOR
 62
   256
  9
$DIMSCALE
 40
1.0
  9
$DIMASZ
 40
0.1875
  9
$DIMEXO
 40
0.0625
  9
$DIMDLI
 40
0.4443307087
  9
$DIMRND
 40
0.0
  9
$DIMDLE
 40
0.0
  9
$DIMEXE
 40
0.125
  9
$DIMTP
 40
0.01
  9
$DIMTM
 40
0.01
  9
$DIMTXT
 40
2.0
  9
$DIMCEN
 40
0.1052362205
  9
$DIMTSZ
 40
0.0
  9
$DIMTOL
 70
     1
  9
$DIMLIM
 70
     0
  9
$DIMTIH
 70
     1
  9
$DIMTOH
 70
     1
  9
$DIMSE1
 70
     0
  9
$DIMSE2
 70
     0
  9
$DIMTAD
 70
     0
  9
$DIMZIN
 70
     0
  9
$DIMBLK
  1

  9
$DIMASO
 70
     1
  9
$DIMSHO
 70
     1
  9
$DIMPOST
  1
\X
  9
$DIMAPOST
  1

  9
$DIMALT
 70
     1
  9
$DIMALTD
 70
     2
  9
$DIMALTF
 40
25.3999999999999986
  9
$DIMLFAC
 40
1.0
  9
$DIMTOFL
 70
     0
  9
$DIMTVP
 40
0.0
  9
$DIMTIX
 70
     0
  9
$DIMSOXD
 70
     0
  9
$DIMSAH
 70
     0
  9
$DIMBLK1
  1

  9
$DIMBLK2
  1

  9
$DIMSTYLE
  2
STANDARD
  9
$DIMCLRD
 70
     0
  9
$DIMCLRE
 70
     0
  9
$DIMCLRT
 70
     0
  9
$DIMTFAC
 40
1.0
  9
$DIMGAP
 40
0.09
  9
$LUNITS
 70
     2
  9
$LUPREC
 70
     4
  9
$SKETCHINC
 40
0.1
  9
$FILLETRAD
 40
0.0
  9
$AUNITS
 70
     0
  9
$AUPREC
 70
     0
  9
$MENU
  1
.
  9
$ELEVATION
 40
0.0
  9
$PELEVATION
 40
0.0
  9
$THICKNESS
 40
0.0
  9
$LIMCHECK
 70
     0
  9
$BLIPMODE
 70
     0
  9
$CHAMFERA
 40
0.0
  9
$CHAMFERB
 40
0.0
  9
$SKPOLY
 70
     0
  9
$TDCREATE
 40
2458060.468368056230247
  9
$TDUPDATE
 40
2459446.7123726848512888
  9
$TDINDWG
 40
0.4691505787
  9
$TDUSRTIMER
 40
0.4691505787
  9
$USRTIMER
 70
     1
  9
$ANGBASE
 50
0.0
  9
$ANGDIR
 70
     0
  9
$PDMODE
 70
     0
  9
$PDSIZE
 40
0.3125
  9
$PLINEWID
 40
0.0
  9
$COORDS
 70
     1
  9
$SPLFRAME
 70
     0
  9
$SPLINETYPE
 70
     6
  9
$SPLINESEGS
 70
     8
  9
$ATTDIA
 70
     1
  9
$ATTREQ
 70
     1
  9
$HANDLING
 70
     1
  9
$HANDSEED
  5
13AAA
  9
$SURFTAB1
 70
     6
  9
$SURFTAB2
 70
     6
  9
$SURFTYPE
 70
     6
  9
$SURFU
 70
     6
  9
$SURFV
 70
     6
  9
$UCSNAME
  2

  9
$UCSORG
 10
0.0
 20
0.0
 30
0.0
  9
$UCSXDIR
 10
1.0
 20
0.0
 30
0.0
  9
$UCSYDIR
 10
0.0
 20
1.0
 30
0.0
  9
$PUCSNAME
  2

  9
$PUCSORG
 10
0.0
 20
0.0
 30
0.0
  9
$PUCSXDIR
 10
1.0
 20
0.0
 30
0.0
  9
$PUCSYDIR
 10
0.0
 20
1.0
 30
0.0
  9
$USERI1
 70
     0
  9
$USERI2
 70
     0
  9
$USERI3
 70
     0
  9
$USERI4
 70
     0
  9
$USERI5
 70
     0
  9
$USERR1
 40
0.0
  9
$USERR2
 40
0.0
  9
$USERR3
 40
0.0
  9
$USERR4
 40
0.0
  9
$USERR5
 40
0.0
  9
$WORLDVIEW
 70
     1
  9
$SHADEDGE
 70
     3
  9
$SHADEDIF
 70
    70
  9
$TILEMODE
 70
     1
  9
$MAXACTVP
 70
    64
  9
$PLIMCHECK
 70
     0
  9
$PEXTMIN
 10
1.0000000000000000E+20
 20
1.0000000000000000E+20
 30
1.0000000000000000E+20
  9
$PEXTMAX
 10
-1.0000000000000000E+20
 20
-1.0000000000000000E+20
 30
-1.0000000000000000E+20
  9
$PLIMMIN
 10
0.0
 20
0.0
  9
$PLIMMAX
 10
12.0
 20
9.0
  9
$UNITMODE
 70
     0
  9
$VISRETAIN
 70
     1
  9
$PLINEGEN
 70
     0
  9
$PSLTSCALE
 70
     1
  0
ENDSEC
  0
SECTION
  2
TABLES
  0
TABLE
  2
VPORT
 70
     1
  0
VPORT
  2
*ACTIVE
 70
     0
 10
0.0
 20
0.0
 11
1.0
 21
1.0
 12
1110.6848624935018961
 22
-170.2890033056806089
 13
0.0
 23
0.0
 14
1.0
 24
1.0
 15
0.0
 25
0.0
 16
0.0
 26
0.0
 36
5.1040778033513332
 17
3792.35791015625
 27
120.1806564331053977
 37
0.0
 40
343.9427616117905018
 41
2.0416666666666661
 42
50.0
 43
0.0
 44
0.0
 50
0.0
 51
0.0
 71
     0
 72
   100
 73
     1
 74
     1
 75
     0
 76
     0
 77
     0
 78
     0
  0
ENDTAB
  0
TABLE
  2
LTYPE
 70
     2
  0
LTYPE
  2
CONTINUOUS
 70
     0
  3
Solid line
 72
    65
 73
     0
 40
0.0
  0
LTYPE
  2
PHANTOM2
 70
     0
  3
___ _ _ ___ _ _ ___ _ _ ___ _ _
 72
    65
 73
     6
 40
1.25
 49
0.625
 49
-0.125
 49
0.125
 49
-0.125
 49
0.125
 49
-0.125
  0
ENDTAB
  0
TABLE
  2
LAYER
 70
     2
  0
LAYER
  2
0
 70
     0
 62
   255
  6
CONTINUOUS
  0
LAYER
  2
DEFPOINTS
 70
     0
 62
     7
  6
CONTINUOUS
  0
ENDTAB
  0
TABLE
  2
STYLE
 70
     1
  0
STYLE
  2
STANDARD
 70
     0
 40
0.0
 41
0.8
 50
0.0
 71
     0
 42
0.2
  3
txt
  4

  0
ENDTAB
  0
TABLE
  2
VIEW
 70
     0
  0
ENDTAB
  0
TABLE
  2
UCS
 70
     0
  0
ENDTAB
  0
TABLE
  2
APPID
 70
     9
  0
APPID
  2
ACAD
 70
     0
  0
APPID
  2
ACAD_MLEADERVER
 70
     0
  0
APPID
  2
ACAD_EXEMPT_FROM_CAD_STANDARDS
 70
     0
  0
APPID
  2
ACAD_NAV_VCDISPLAY
 70
     0
  0
APPID
  2
ACAECLAYERSTANDARD
 70
     0
  0
APPID
  2
ACCMTRANSPARENCY
 70
     0
  0
APPID
  2
ACAD_DSTYLE_DIMJAG
 70
     0
  0
APPID
  2
ACAD_DSTYLE_DIMTALN
 70
     0
  0
APPID
  2
ACDBATTR
 70
     0
  0
ENDTAB
  0
TABLE
  2
DIMSTYLE
 70
     1
  0
DIMSTYLE
  2
STANDARD
 70
     0
  3

  4

  5

  6

  7

 40
1.0
 41
0.1875
 42
0.0625
 43
0.38
 44
0.125
 45
0.0
 46
0.0
 47
0.01
 48
0.01
140
0.15625
141
0.09
142
0.0
143
25.3999999999999986
144
1.0
145
0.0
146
1.0
147
0.09
 71
     1
 72
     0
 73
     1
 74
     1
 75
     0
 76
     0
 77
     0
 78
     4
170
     0
171
     2
172
     0
173
     0
174
     0
175
     0
176
     0
177
     0
178
     0
  0
ENDTAB
  0
ENDSEC
  0
SECTION
  2
BLOCKS
  0
BLOCK
  8
0
  2
$MODEL_SPACE
 70
     0
 10
0.0
 20
0.0
 30
0.0
  3
$MODEL_SPACE
  1

  0
ENDBLK
  5
21
  8
0
  0
BLOCK
 67
     1
  8
0
  2
$PAPER_SPACE
 70
     0
 10
0.0
 20
0.0
 30
0.0
  3
$PAPER_SPACE
  1

  0
ENDBLK
  5
1D
 67
     1
  8
0
  0
BLOCK
  8
0
  2
_FILLED
 70
     0
 10
0.0
 20
0.0
 30
0.0
  3
_FILLED
  1

  0
SOLID
  5
138A2
  8
0
  6
BYBLOCK
 62
     0
 10
0.0
 20
0.0
 30
0.0
 11
-1.0
 21
0.1666666667
 31
0.0
 12
-1.0
 22
-0.1666666667
 32
0.0
 13
-1.0
 23
-0.1666666667
 33
0.0
  0
ENDBLK
  5
138A3
  8
0
  6
BYBLOCK
 62
     0
  0
ENDSEC
  0
SECTION
  2
ENTITIES
  0
ATTDEF
  5
3930
  8
DEFPOINTS
 10
4828.3333381632310193
 20
-33.5860639827307068
 30
0.0
 40
0.001
  1
71041120
  3

  2
MODELNUMBER
 70
     0
1001
ACDBATTR
1070
     0
1070
     1
  0
ATTDEF
  5
3931
  8
DEFPOINTS
 10
4828.3333381632310193
 20
-33.587730649397372
 30
0.0
 40
0.001
  1
PERFORMA
  3

  2
TRADENAME
 70
     0
1001
ACDBATTR
1070
     0
1070
     1
  0
ATTDEF
  5
3932
  8
DEFPOINTS
 10
4828.3333381632310193
 20
-33.5893973160640371
 30
0.0
 40
0.001
  1
BATH
  3

  2
PRODUCT
 70
     0
1001
ACDBATTR
1070
     0
1070
     1
  0
ARC
  5
13969
  8
0
 10
4798.5867937616667405
 20
-33.8410371363059426
 30
0.0
 40
0.2493474569484334
 50
89.9530600434379153
 51
148.673330394159791
  0
ARC
  5
1396A
  8
0
 10
4798.6971653765140218
 20
-33.8874150432537675
 30
0.0
 40
0.3681703560176797
 50
151.4393995815138965
 51
172.8731556318716969
  0
LINE
  5
1396B
  8
0
 10
4798.3318395345304452
 20
-33.8417374751339679
 30
0.0
 11
4798.3318395345304452
 21
-34.1455036157289271
 31
0.0
  0
LINE
  5
1396C
  8
0
 10
4798.3318395345304452
 20
-34.1455036158362404
 30
0.0
 11
4798.3318395345304452
 21
-61.5775552366346801
 31
0.0
  0
ARC
  5
1396D
  8
0
 10
4792.561667084468354
 20
-62.2922091173268484
 30
0.0
 40
5.8142600795496628
 50
1.0461792731956889
 51
7.0603069969096808
  0
LINE
  5
1396E
  8
0
 10
4798.3749579507502858
 20
-62.1860508550309419
 30
0.0
 11
4798.376589821041307
 21
-62.2809811972362297
 31
0.0
  0
ARC
  5
1396F
  8
0
 10
4798.6127956905002065
 20
-62.491231746164722
 30
0.0
 40
0.2833976398929826
 50
161.1379387405756063
 51
172.4737483980015043
  0
ARC
  5
13970
  8
0
 10
4798.0284244839876919
 20
-62.2445081611284365
 30
0.0
 40
0.3481688832381591
 50
339.6335316022497182
 51
347.1292260037257051
  0
ARC
  5
13971
  8
0
 10
4798.5888582088746261
 20
-62.4546078323242284
 30
0.0
 40
0.2503567769704155
 50
159.193806448315712
 51
167.310327980110003
  0
ARC
  5
13972
  8
0
 10
4798.0274771372060059
 20
-62.2441724561285525
 30
0.0
 40
0.3491672264841009
 50
347.1101508587138937
 51
353.9487121216437231
  0
LINE
  5
13973
  8
0
 10
4798.3746987791419087
 20
-62.280981197236251
 30
0.0
 11
4798.5334352329418834
 21
-62.280981197236251
 31
0.0
  0
LINE
  5
13974
  8
0
 10
4798.4581879899797059
 20
-61.5775415149216485
 30
0.0
 11
4798.5334352329418834
 21
-62.1860508566536225
 31
0.0
  0
LINE
  5
13975
  8
0
 10
4798.5334352329418834
 20
-62.1860508566536225
 30
0.0
 11
4798.5334352330419279
 21
-62.2809811972362297
 31
0.0
  0
ARC
  5
13976
  8
0
 10
4803.3382515037947087
 20
-61.0700808952740104
 30
0.0
 40
4.9063770930655091
 50
179.6947213255880058
 51
185.9366496631731138
  0
LINE
  5
13977
  8
0
 10
4798.4319440537410628
 20
-61.0439392577362412
 30
0.0
 11
4798.4319488877872573
 21
-34.1455036157362315
 31
0.0
  0
ARC
  5
13978
  8
0
 10
4798.5812168478323656
 20
-33.8289608691725618
 30
0.0
 40
0.1440523948333621
 50
89.2644238692370777
 51
125.3015075871859949
  0
ARC
  5
13979
  8
0
 10
4798.5857503004217506
 20
-33.8400317299354967
 30
0.0
 40
0.1557307284581097
 50
124.308907147913402
 51
180.3380708426643935
  0
ARC
  5
1397A
  8
0
 10
4774.3921230505002313
 20
-34.145297159147141
 30
0.0
 40
24.0398258381735417
 50
359.9995079377324032
 51
0.7253895672302285
  0
ARC
  5
1397B
  8
0
 10
4798.8003504263888317
 20
-47.1347615754408622
 30
0.0
 40
0.8379766613973814
 50
261.4709877632168968
 51
269.9079751282690722
  0
ARC
  5
1397C
  8
0
 10
4798.821306124399598
 20
-48.098656438847712
 30
0.0
 40
0.1258459000534883
 50
359.3373463547031861
 51
89.3271295369937235
  0
LINE
  5
1397D
  8
0
 10
4798.7990045216420185
 20
-47.9727371559842979
 30
0.0
 11
4798.8227840001418372
 21
-47.9728192168362426
 31
0.0
  0
LINE
  5
1397E
  8
0
 10
4798.9471436079420528
 20
-48.1001118756362303
 30
0.0
 11
4798.947890485705102
 21
-50.5449825524871414
 31
0.0
  0
ARC
  5
1397F
  8
0
 10
4798.8220235276066887
 20
-50.5466440280315368
 30
0.0
 40
0.1258779235682611
 50
270.7215729286277224
 51
0.7562747944849675
  0
ARC
  5
13980
  8
0
 10
4798.6205791484690053
 20
-50.7892396159839734
 30
0.0
 40
0.0895018646609319
 50
116.2167653733507962
 51
144.1448967366933118
  0
ARC
  5
13981
  8
0
 10
4798.7086525723689192
 20
-50.9830040947850023
 30
0.0
 40
0.3023134221183503
 50
98.6932354110982999
 51
114.9684994696528975
  0
ARC
  5
13982
  8
0
 10
4798.799886543665707
 20
-51.4887073169758196
 30
0.0
 40
0.8161123406100825
 50
90.0619230304129701
 51
99.6587355960419643
  0
LINE
  5
13983
  8
0
 10
4798.7990045216420185
 20
-50.6725954529931926
 30
0.0
 11
4798.8236087700406642
 21
-50.6725119693362203
 31
0.0
  0
ARC
  5
13984
  8
0
 10
4798.7384868067119896
 20
-47.5376712079955084
 30
0.0
 40
0.4303502003641861
 50
251.7894965679699055
 51
261.6605572809069145
  0
ARC
  5
13985
  8
0
 10
4798.5226443434494286
 20
-47.9709552914714905
 30
0.0
 40
0.0617964131645955
 50
43.5173341199648078
 51
65.5087924243748319
  0
ARC
  5
13986
  8
0
 10
4798.6482279404381188
 20
-47.8109999425617502
 30
0.0
 40
0.142504842875191
 50
235.4730156447276102
 51
251.9183674347910085
  0
LINE
  5
13987
  8
0
 10
4798.5493788481417141
 20
-33.8761422392362306
 30
0.0
 11
4798.5472365851419454
 21
-60.8104804399362422
 31
0.0
  0
ARC
  5
13988
  8
0
 10
4714.9270949249530531
 20
-60.6593585494955008
 30
0.0
 40
83.6202782170450405
 50
358.953867554209296
 51
359.8964527337986965
  0
LINE
  5
13989
  8
0
 10
4798.3611894985024264
 20
-62.3220637794829884
 30
0.0
 11
4858.302466733059191
 21
-62.3220637794830026
 31
0.0
  0
LINE
  5
1398A
  8
0
 10
4798.3318395345304452
 20
-62.454112199835798
 30
0.0
 11
4798.3318395345304452
 21
-62.5167355677881389
 31
0.0
  0
LINE
  5
1398B
  8
0
 10
4798.3318395345304452
 20
-62.5167355677881389
 30
0.0
 11
4798.4734298746416243
 21
-62.7873540274362369
 31
0.0
  0
LINE
  5
1398C
  8
0
 10
4798.5222649305123923
 20
-62.8216898246958593
 30
0.0
 11
4858.1413913010501346
 21
-62.821689763043139
 31
0.0
  0
ARC
  5
1398D
  8
0
 10
4798.5289159633903182
 20
-62.7596896188905617
 30
0.0
 40
0.0620002060060012
 50
206.5000539624120961
 51
270.0046885483221217
  0
ARC
  5
1398E
  8
0
 10
4854.703107057050147
 20
-57.0209312554270227
 30
0.0
 40
1.1284357842075829
 50
284.9294253648408812
 51
337.0552194011490883
  0
ARC
  5
1398F
  8
0
 10
4854.8492829804481516
 20
-57.0672258564544279
 30
0.0
 40
0.5106745644129155
 50
280.4091289155801974
 51
342.2080392443323262
  0
ARC
  5
13990
  8
0
 10
4854.4901951434903822
 20
-57.0132456373031786
 30
0.0
 40
1.32836126706913
 50
345.7409564201229273
 51
355.9352063794435139
  0
ARC
  5
13991
  8
0
 10
4853.910617128110971
 20
-56.8574255163317517
 30
0.0
 40
1.9284808571466781
 50
341.7659844592403147
 51
345.4953725438642778
  0
ARC
  5
13992
  8
0
 10
4762.3761403390017222
 20
-50.1720432897185873
 30
0.0
 40
93.696104079239845
 50
355.7550981841117732
 51
359.8962372366390809
  0
ARC
  5
13993
  8
0
 10
4775.6191944987513125
 20
-45.5274838102480501
 30
0.0
 40
80.4662799033943941
 50
359.616030473728074
 51
5.1749992213086582
  0
ARC
  5
13994
  8
0
 10
4705.2636487549953017
 20
-47.7958204612339088
 30
0.0
 40
150.829930129948707
 50
359.0328403120279859
 51
0.6568452196893971
  0
ARC
  5
13995
  8
0
 10
4854.7315221303888393
 20
-38.3606091013511019
 30
0.0
 40
1.06718784954368
 50
35.3395296402710528
 51
80.2197818412018364
  0
ARC
  5
13996
  8
0
 10
4854.5364342186630893
 20
-38.3288434012142716
 30
0.0
 40
1.2158978405587311
 50
10.6345860289077905
 51
28.7867961641280417
  0
ARC
  5
13997
  8
0
 10
4854.368692792822003
 20
-38.4039221578157282
 30
0.0
 40
1.3952711714595121
 50
5.5250326343053651
 51
12.3937855642546104
  0
ARC
  5
13998
  8
0
 10
3834.7652938901369453
 20
-7429.1726923958040061
 30
0.0
 40
7461.9267490955026005
 50
82.1422742602625959
 51
82.1674507038049029
  0
ARC
  5
13999
  8
0
 10
4817.9050284684044527
 20
-284.6221548414944778
 30
0.0
 40
250.0502200932668018
 50
82.2407266851113263
 51
86.1734340668768652
  0
ARC
  5
1399A
  8
0
 10
4822.6056121923593309
 20
-215.2107125125347125
 30
0.0
 40
180.4798299774975874
 50
86.1917914367327853
 51
89.3197354110184278
  0
ARC
  5
1399B
  8
0
 10
4823.2096242829566108
 20
-150.0432024980628114
 30
0.0
 40
115.309866815569805
 50
89.2353956464184535
 51
93.4158140031876201
  0
ARC
  5
1399C
  8
0
 10
4812.1907887204752114
 20
-46.3209648140526724
 30
0.0
 40
10.9500237126257094
 50
109.6893534770705969
 51
124.0700782465800955
  0
ARC
  5
1399D
  8
0
 10
4812.3810024973981854
 20
-46.9836840534547306
 30
0.0
 40
11.63816664016319
 50
94.7045340381742449
 51
109.4717965760546008
  0
ARC
  5
1399E
  8
0
 10
4821.0229891318831505
 20
-113.717155373043795
 30
0.0
 40
78.9180740645726644
 50
93.4024728741360946
 51
96.9845111668165032
  0
ARC
  5
1399F
  8
0
 10
4812.654708370332628
 20
-47.025615103720952
 30
0.0
 40
11.7936182641121192
 50
124.019259448699998
 51
138.2216664926343981
  0
ARC
  5
139A0
  8
0
 10
4813.4900310066477687
 20
-47.6714047531690071
 30
0.0
 40
12.8470180664770002
 50
138.5559373876266989
 51
179.9879031639102891
  0
ARC
  5
139A1
  8
0
 10
4813.9092104443434437
 20
-47.4014597816635472
 30
0.0
 40
11.9536227606026593
 50
147.4540414316807926
 51
181.5110415627598002
  0
ARC
  5
139A2
  8
0
 10
4813.0945365245061112
 20
-47.002653983995252
 30
0.0
 40
11.0528087123876499
 50
124.6346147180883008
 51
146.924778455204688
  0
ARC
  5
139A3
  8
0
 10
4815.8241116430353941
 20
-61.2309246496888804
 30
0.0
 40
25.4927483878820986
 50
94.6585445572970343
 51
102.6221870404036025
  0
ARC
  5
139A4
  8
0
 10
4812.8343578222311407
 20
-46.6533829634208672
 30
0.0
 40
10.6175721129929599
 50
104.0685689887336025
 51
124.5506035399600933
  0
ARC
  5
139A5
  8
0
 10
4823.078958199464978
 20
-132.2996207716417985
 30
0.0
 40
96.9268619025076816
 50
92.5333551587307852
 51
95.5209474756572661
  0
ARC
  5
139A6
  8
0
 10
4822.9682017065406399
 20
-128.8856675345714962
 30
0.0
 40
93.5113583793925756
 50
88.7574790458797338
 51
92.5580180538650268
  0
ARC
  5
139A7
  8
0
 10
4780.7000246817351581
 20
-698.6228516451895985
 30
0.0
 40
665.162421964776172
 50
84.4794777701084882
 51
84.8323618670490873
  0
ARC
  5
139A8
  8
0
 10
4822.1955890032068055
 20
-251.5422160856529104
 30
0.0
 40
216.1640588972213095
 50
85.1128777468928064
 51
89.2577274339602411
  0
ARC
  5
139A9
  8
0
 10
4843.4192417398662656
 20
-53.8622559041055524
 30
0.0
 40
17.3532792266693292
 50
79.1024751716713297
 51
81.5031218072802943
  0
ARC
  5
139AA
  8
0
 10
4842.7724167011683676
 20
-58.1736454972104795
 30
0.0
 40
21.7129187822572582
 50
81.4960134263524054
 51
84.9328674848337641
  0
ARC
  5
139AB
  8
0
 10
4702.297954506093447
 20
-1207.9041677820080167
 30
0.0
 40
1179.9515339166550802
 50
82.5712201053841568
 51
82.9705920889366837
  0
ARC
  5
139AC
  8
0
 10
4854.8391166594155948
 20
-38.3415000976624896
 30
0.0
 40
0.4460666553969205
 50
3.7175108849165732
 51
31.965062408550569
  0
ARC
  5
139AD
  8
0
 10
4854.7896386148613601
 20
-38.3398378191577365
 30
0.0
 40
0.4879438174477614
 50
28.7219883419622093
 51
81.9160852652589142
  0
ARC
  5
139AE
  8
0
 10
4781.1939440361111338
 20
-45.0373314953655282
 30
0.0
 40
74.3948584302580116
 50
1.7610632026056161
 51
5.1862000268167057
  0
ARC
  5
139AF
  8
0
 10
4800.5113628684121068
 20
-47.2196987778916579
 30
0.0
 40
55.0995051543425802
 50
359.4831538809535232
 51
1.1990164256088951
  0
ARC
  5
139B0
  8
0
 10
4769.6599916222330648
 20
-45.2573579179619472
 30
0.0
 40
85.932624721102485
 50
0.1104301227339158
 51
1.671331396518092
  0
ARC
  5
139B1
  8
0
 10
4891.5201345919458618
 20
-45.3453751466734118
 30
0.0
 40
35.9285731698322905
 50
179.5955118842306888
 51
181.0780850870021936
  0
ARC
  5
139B2
  8
0
 10
4757.544376969489349
 20
-50.3928656707569615
 30
0.0
 40
98.0437786793640242
 50
356.0938654066704885
 51
358.5693966602423188
  0
ARC
  5
139B3
  8
0
 10
4764.0960247002367396
 20
-47.9254215971562729
 30
0.0
 40
91.5128395129980845
 50
358.998549515424827
 51
0.1306633068775842
  0
ARC
  5
139B4
  8
0
 10
4783.5032904842300923
 20
-50.7385298494961177
 30
0.0
 40
72.0849615992817832
 50
358.3289279831535055
 51
0.1896682737659201
  0
ARC
  5
139B5
  8
0
 10
4730.6419946904752578
 20
-49.1116637918653183
 30
0.0
 40
124.9535743833486947
 50
359.3634276531898877
 51
359.8105353667734789
  0
ARC
  5
139B6
  8
0
 10
4848.5726075804786888
 20
-46.1806999798098019
 30
0.0
 40
7.0271203289749291
 50
0.9293181006561027
 51
25.0566954996947793
  0
ARC
  5
139B7
  8
0
 10
4844.442462047841218
 20
-48.5131759166677625
 30
0.0
 40
11.7620397040917304
 50
26.8290719481434792
 51
67.2353042980131761
  0
ARC
  5
139B8
  8
0
 10
4842.0198212620425693
 20
-53.0538173095825414
 30
0.0
 40
16.8931416225212416
 50
65.6175000061083011
 51
73.9162567408820479
  0
ARC
  5
139B9
  8
0
 10
4814.0384071013495486
 20
-48.0165685930463511
 30
0.0
 40
12.0823851241383995
 50
178.5777165372043953
 51
212.2740599387159932
  0
ARC
  5
139BA
  8
0
 10
4814.2091293483699701
 20
-47.4557331535561104
 30
0.0
 40
12.5320552647998706
 50
214.0255126399555081
 51
233.7061931351746864
  0
ARC
  5
139BB
  8
0
 10
4816.0747265399086245
 20
-33.5946698561264867
 30
0.0
 40
26.1582373168919808
 50
257.1320907538113829
 51
264.9003615272691832
  0
ARC
  5
139BC
  8
0
 10
4813.6309840466310561
 20
-46.8459598622241202
 30
0.0
 40
12.7082408495531993
 50
237.4370479350521919
 51
254.5670104299844922
  0
ARC
  5
139BD
  8
0
 10
4823.0932845446322972
 20
29.1370081182826901
 30
0.0
 40
89.2766747911774132
 50
263.9924122975103842
 51
267.2379298679405792
  0
ARC
  5
139BE
  8
0
 10
4823.2822914449989185
 20
22.9772874627882011
 30
0.0
 40
83.1346364430295353
 50
266.9032454606386864
 51
271.1822222011650751
  0
ARC
  5
139BF
  8
0
 10
4871.0181625089189765
 20
-346.5613715333038272
 30
0.0
 40
288.8758725738945827
 50
95.2291640956585752
 51
96.0417476344965166
  0
ARC
  5
139C0
  8
0
 10
4821.9044782666351239
 20
140.6451499413975057
 30
0.0
 40
200.8086250475593886
 50
270.88256431949128
 51
275.3457921521633125
  0
ARC
  5
139C1
  8
0
 10
4843.5237948096355467
 20
-42.0963056919164416
 30
0.0
 40
16.78439172681286
 50
278.4087111167564217
 51
280.885768623014485
  0
ARC
  5
139C2
  8
0
 10
4853.344689767390264
 20
-113.8255322308040007
 30
0.0
 40
55.615281426747373
 50
97.6114115131277771
 51
98.9524168782521372
  0
ARC
  5
139C3
  8
0
 10
4803.795728965962553
 20
326.2348972823028248
 30
0.0
 40
387.1972460360569244
 50
276.360893493622882
 51
277.5905219414593716
  0
ARC
  5
139C4
  8
0
 10
4848.5615999529481996
 20
-49.2488483560550279
 30
0.0
 40
7.0386996065949603
 50
334.95326414297989
 51
357.7526816104781915
  0
ARC
  5
139C5
  8
0
 10
4843.7864320705621139
 20
-46.4270581134089682
 30
0.0
 40
12.5708322174766494
 50
295.3325919594171864
 51
332.5148418246013762
  0
ARC
  5
139C6
  8
0
 10
4844.5249825416258318
 20
-47.5276508506710584
 30
0.0
 40
11.2617846179285994
 50
281.1022266509042993
 51
294.332221469406079
  0
ARC
  5
139C7
  8
0
 10
4854.5759897823381834
 20
-57.0207972772961966
 30
0.0
 40
0.7860665947119153
 50
345.0737751394353836
 51
356.2787524269555206
  0
ARC
  5
139C8
  8
0
 10
4891.7371524934260378
 20
-328.4787784824358141
 30
0.0
 40
272.8528153073041835
 50
97.7391648279007654
 51
98.4449338096559785
  0
ARC
  5
139C9
  8
0
 10
4819.632362988382738
 20
169.9101547982162117
 30
0.0
 40
230.7291185070210133
 50
273.7180502084593741
 51
277.9806067524218065
  0
ARC
  5
139CA
  8
0
 10
4823.0726531462787534
 20
117.2676145900985034
 30
0.0
 40
177.9742879199108074
 50
270.539500163917694
 51
273.7118191968032761
  0
ARC
  5
139CB
  8
0
 10
4823.4544931666887351
 20
54.6156440120266424
 30
0.0
 40
115.3216871398019947
 50
266.4629340648259017
 51
270.6428927167991105
  0
ARC
  5
139CC
  8
0
 10
4811.8937233940860096
 20
-48.5351827502988371
 30
0.0
 40
11.4224395691341893
 50
238.8221911002574132
 51
252.6906210554666075
  0
ARC
  5
139CD
  8
0
 10
4812.9534822435498427
 20
-44.8343448813666114
 30
0.0
 40
15.2712469611277903
 50
253.0258527173108121
 51
264.2705310415585132
  0
ARC
  5
139CE
  8
0
 10
4821.1853497060410518
 20
18.1867746718643204
 30
0.0
 40
78.8222201293753102
 50
262.8898351247216851
 51
266.4755599008320814
  0
ARC
  5
139CF
  8
0
 10
4811.5228484762155858
 20
-49.2167127033179881
 30
0.0
 40
10.6474054060366292
 50
222.6087740343513985
 51
238.6310636908823142
  0
ARC
  5
139D0
  8
0
 10
4813.341225969406878
 20
-48.162139458751092
 30
0.0
 40
12.7077966971557004
 50
177.7746303255470082
 51
220.5574946093938991
  0
ARC
  5
139D1
  8
0
 10
4854.9712060240763094
 20
-47.7155236159936109
 30
0.0
 40
0.2979846870373792
 50
340.2326621681644951
 51
19.3719594677650804
  0
ARC
  5
139D2
  8
0
 10
4855.5666262167169407
 20
-47.7175780185857619
 30
0.0
 40
0.3301032272898533
 50
162.2027779139702943
 51
197.4018437219405939
  0
ARC
  5
139D3
  8
0
 10
4831.6032115231655553
 20
-48.079212488140179
 30
0.0
 40
22.1649063402150013
 50
352.851385214382276
 51
0.9370558359503872
  0
ARC
  5
139D4
  8
0
 10
4847.8202794339358661
 20
-49.6414590843467494
 30
0.0
 40
5.8980842221004606
 50
313.2112484003764052
 51
348.3002631714767858
  0
ARC
  5
139D5
  8
0
 10
4843.9382373913877018
 20
-46.2219675640097378
 30
0.0
 40
11.0590981670168702
 50
289.6486043951566103
 51
315.740712705248086
  0
ARC
  5
139D6
  8
0
 10
4840.0863432703727085
 20
-29.8424904257966688
 30
0.0
 40
27.843583214355931
 50
272.1242412291027222
 51
285.7770433543834088
  0
ARC
  5
139D7
  8
0
 10
4821.6688020419323948
 20
148.4905956329835988
 30
0.0
 40
207.0729737921932951
 50
272.4418558869459162
 51
275.3895270745579182
  0
ARC
  5
139D8
  8
0
 10
4821.6685480104806629
 20
120.9167722622592009
 30
0.0
 40
179.5280445644038139
 50
270.580904006625417
 51
272.8168721954734224
  0
ARC
  5
139D9
  8
0
 10
4822.983890614154916
 20
-47.7156395842154879
 30
0.0
 40
11.2098218104870497
 50
180.0055634815807082
 51
211.8393080136860931
  0
ARC
  5
139DA
  8
0
 10
4823.0511351219583958
 20
-44.9541199860401477
 30
0.0
 40
13.6549377036932995
 50
249.0683558283992909
 51
271.8363071600064131
  0
ARC
  5
139DB
  8
0
 10
4821.9312769399002718
 20
-48.6046292511719287
 30
0.0
 40
9.8486469184027285
 50
210.6761108235438087
 51
247.5660545710125007
  0
ARC
  5
139DC
  8
0
 10
4817.7102289161248336
 20
-48.1080661965273677
 30
0.0
 40
36.0570484360315433
 50
0.6218607971382974
 51
5.589698231188458
  0
ARC
  5
139DD
  8
0
 10
4847.8202794339358661
 20
-45.791997037676623
 30
0.0
 40
5.8980842221004606
 50
11.6997368285231502
 51
46.7887515996235521
  0
ARC
  5
139DE
  8
0
 10
4843.9382373913877018
 20
-49.2114885580136132
 30
0.0
 40
11.0590981670168702
 50
44.2592872947518714
 51
70.3513956048434039
  0
ARC
  5
139DF
  8
0
 10
4840.0863432703727085
 20
-65.5909656962266894
 30
0.0
 40
27.843583214355931
 50
74.2229566456165912
 51
87.8757587708973205
  0
ARC
  5
139E0
  8
0
 10
4821.6688020419323948
 20
-243.9240517550070138
 30
0.0
 40
207.0729737921932951
 50
84.6104729254421244
 51
87.5581441130541265
  0
ARC
  5
139E1
  8
0
 10
4821.6685480104806629
 20
-216.3502283842825022
 30
0.0
 40
179.5280445644038139
 50
87.1831278045266487
 51
89.4190959933745972
  0
ARC
  5
139E2
  8
0
 10
4823.6791186975833625
 20
-47.9161518252444196
 30
0.0
 40
11.9067200165493396
 50
149.1148113450124981
 51
179.0403172508254954
  0
ARC
  5
139E3
  8
0
 10
4823.0511351219583958
 20
-50.4793361359832105
 30
0.0
 40
13.6549377036932995
 50
88.1636928399935869
 51
110.9316441716005954
  0
ARC
  5
139E4
  8
0
 10
4821.9312769399002718
 20
-46.8288268708514224
 30
0.0
 40
9.8486469184027285
 50
112.4339454289873999
 51
149.3238891764557934
  0
CIRCLE
  5
139E5
  8
0
 10
4849.0818410473739277
 20
-47.716728061011672
 30
0.0
 40
1.3874999999999991
  0
CIRCLE
  5
139E6
  8
0
 10
4849.0818410459751249
 20
-47.716728062311681
 30
0.0
 40
1.923224556099997
  0
ARC
  5
139E7
  8
0
 10
4858.0901746826793897
 20
-33.8410371363059568
 30
0.0
 40
0.2493474569484334
 50
31.3266696058402303
 51
90.0469399565620847
  0
ARC
  5
139E8
  8
0
 10
4858.0218293307798376
 20
-33.841546338392277
 30
0.0
 40
0.3099874251778649
 50
359.9646716982238104
 51
24.8253016228554095
  0
LINE
  5
139E9
  8
0
 10
4858.3318166970302627
 20
-33.8417374751339821
 30
0.0
 11
4858.3318166970311722
 21
-34.1455036157289413
 31
0.0
  0
LINE
  5
139EA
  8
0
 10
4858.3318166970302627
 20
-34.1455036158362475
 30
0.0
 11
4858.3318166970302627
 21
-61.0439392526362496
 31
0.0
  0
ARC
  5
139EB
  8
0
 10
-235872.4535927861870732
 20
-61.3107472446362891
 30
0.0
 40
240730.78540963109117
 50
359.9999364976445122
 51
0.0000635023555027
  0
ARC
  5
139EC
  8
0
 10
4892.1834979815521365
 20
-63.540704561820661
 30
0.0
 40
33.9085576375892899
 50
176.6809823151500041
 51
177.7104127561740938
  0
LINE
  5
139ED
  8
0
 10
4858.3020104935967538
 20
-62.1860508550309632
 30
0.0
 11
4858.3003786233039136
 21
-62.2809811972362368
 31
0.0
  0
ARC
  5
139EE
  8
0
 10
4858.6485439603584382
 20
-62.2445081611284508
 30
0.0
 40
0.3481688832381591
 50
192.8707739962742096
 51
200.3664683977503103
  0
ARC
  5
139EF
  8
0
 10
4858.0881102354724135
 20
-62.4546078323243066
 30
0.0
 40
0.2503567769706421
 50
13.2356462801352404
 51
20.8061935516812113
  0
ARC
  5
139F0
  8
0
 10
4858.6494913071410338
 20
-62.2441724561285668
 30
0.0
 40
0.3491672264841009
 50
186.0512878783555095
 51
192.8898491412861063
  0
LINE
  5
139F1
  8
0
 10
4858.3022696652051309
 20
-62.2809811972362724
 30
0.0
 11
4858.1435332114051562
 21
-62.2809811972362724
 31
0.0
  0
LINE
  5
139F2
  8
0
 10
4858.2187804543664242
 20
-61.5775415149216627
 30
0.0
 11
4858.1435332114051562
 21
-62.1860508566536296
 31
0.0
  0
LINE
  5
139F3
  8
0
 10
4858.1435332114051562
 20
-62.1860508566536296
 30
0.0
 11
4858.1435332113051118
 21
-62.2809811972362368
 31
0.0
  0
ARC
  5
139F4
  8
0
 10
4853.3387169405523309
 20
-61.0700808952740104
 30
0.0
 40
4.9063770930655091
 50
354.0633503368260904
 51
0.3052786744120004
  0
LINE
  5
139F5
  8
0
 10
4858.2450243906050673
 20
-61.0439392577362483
 30
0.0
 11
4858.2450195565597824
 21
-34.1455036157362528
 31
0.0
  0
ARC
  5
139F6
  8
0
 10
4858.095751596514674
 20
-33.8289608691725832
 30
0.0
 40
0.1440523948333621
 50
54.6984924128140122
 51
90.7355761307629365
  0
ARC
  5
139F7
  8
0
 10
4858.091218143925289
 20
-33.840031729935518
 30
0.0
 40
0.1557307284581097
 50
359.6619291573356918
 51
55.6910928520866122
  0
ARC
  5
139F8
  8
0
 10
4882.2848453938468083
 20
-34.1452971591471481
 30
0.0
 40
24.0398258381735417
 50
179.2746104327696912
 51
180.000492062266801
  0
ARC
  5
139F9
  8
0
 10
4857.8766180179572984
 20
-47.1347615754408693
 30
0.0
 40
0.8379766613973814
 50
270.0920248717308141
 51
278.5290122367829895
  0
ARC
  5
139FA
  8
0
 10
4857.8556623199474416
 20
-48.0986564388477333
 30
0.0
 40
0.1258459000534883
 50
90.6728704630063049
 51
180.6626536452968139
  0
LINE
  5
139FB
  8
0
 10
4857.8779639227050211
 20
-47.9727371559843121
 30
0.0
 11
4857.8541844442052025
 21
-47.9728192168362568
 31
0.0
  0
LINE
  5
139FC
  8
0
 10
4857.7298248364049869
 20
-48.1001118756362374
 30
0.0
 11
4857.7290779586410281
 21
-50.5449825524871628
 31
0.0
  0
ARC
  5
139FD
  8
0
 10
4857.8549449167376224
 20
-50.546644028031551
 30
0.0
 40
0.1258779235682611
 50
179.2437252055150054
 51
269.2784270713722776
  0
ARC
  5
139FE
  8
0
 10
4858.0500510505489729
 20
-50.7995089456779283
 30
0.0
 40
0.1015213246054501
 50
39.0174138587936383
 51
63.1344417578323913
  0
ARC
  5
139FF
  8
0
 10
4857.9683158719781204
 20
-50.9830040947850094
 30
0.0
 40
0.3023134221183503
 50
65.0315005303471168
 51
81.3067645889016859
  0
ARC
  5
13A00
  8
0
 10
4857.8770819006813326
 20
-51.4887073169758267
 30
0.0
 40
0.8161123406100825
 50
80.3412644039580215
 51
89.9380769695870441
  0
LINE
  5
13A01
  8
0
 10
4857.8779639227050211
 20
-50.6725954529932068
 30
0.0
 11
4857.8533596743036469
 21
-50.6725119693362416
 31
0.0
  0
ARC
  5
13A02
  8
0
 10
4857.9384816376341405
 20
-47.5376712079955297
 30
0.0
 40
0.4303502003641861
 50
278.3394427190929719
 51
288.2105034320301229
  0
ARC
  5
13A03
  8
0
 10
4860.8377136692288332
 20
-50.9791804346258886
 30
0.0
 40
4.0927160848127606
 50
131.4457155060161995
 51
131.8051470116303108
  0
ARC
  5
13A04
  8
0
 10
4858.0287405039080113
 20
-47.8109999425617573
 30
0.0
 40
0.142504842875191
 50
288.08163256520902
 51
304.5269843552724183
  0
LINE
  5
13A05
  8
0
 10
4858.1275841914857665
 20
-33.8761423696569892
 30
0.0
 11
4858.1297318592050942
 21
-60.8104804399362493
 31
0.0
  0
ARC
  5
13A06
  8
0
 10
4941.7498735193939865
 20
-60.6593585494955505
 30
0.0
 40
83.6202782170450405
 50
180.103547266200394
 51
181.0461324457897945
  0
LINE
  5
13A07
  8
0
 10
4858.3318166970302627
 20
-62.3972870126358785
 30
0.0
 11
4858.3318166970302627
 21
-62.5300798730599396
 31
0.0
  0
LINE
  5
13A08
  8
0
 10
4858.3318166970302627
 20
-62.5300798730599396
 30
0.0
 11
4858.2035385697035963
 21
-62.7873540274362512
 31
0.0
  0
ARC
  5
13A09
  8
0
 10
4858.1480526391424064
 20
-62.7596897632139132
 30
0.0
 40
0.0620000000430649
 50
269.9951652523203052
 51
333.500000170501778
  0
ARC
  5
13A0A
  8
0
 10
4798.6743994850176023
 20
-33.8759078370449416
 30
0.0
 40
0.1250208566178
 50
90.8128676821397818
 51
180.1074241890717076
  0
LINE
  5
13A0B
  8
0
 10
4798.5803419348485477
 20
-33.5916897630362428
 30
0.0
 11
4858.0833142967121603
 21
-33.591689763036257
 31
0.0
  0
LINE
  5
13A0C
  8
0
 10
4858.0872435887804386
 20
-33.6849203455362414
 30
0.0
 11
4798.5764126427802694
 21
-33.6849203455375203
 31
0.0
  0
LINE
  5
13A0D
  8
0
 10
4798.665972335729748
 20
-33.7508998036648009
 30
0.0
 11
4857.99768389583096
 21
-33.7508995489648314
 31
0.0
  0
ARC
  5
13A0E
  8
0
 10
4858.0025638188353696
 20
-33.8759075588763068
 30
0.0
 40
0.1250205931602392
 50
359.8923883315048897
 51
89.1870826489150943
  0
ARC
  5
13A0F
  8
0
 10
4817.9346775346293725
 20
-33.9782640008745034
 30
0.0
 40
0.6528671786183738
 50
171.3481474998741021
 51
182.2003085526509949
  0
ARC
  5
13A10
  8
0
 10
4817.1556908445345471
 20
-34.0253395492937116
 30
0.0
 40
0.1265311780203591
 50
268.7828891565060871
 51
359.1986718258498854
  0
LINE
  5
13A11
  8
0
 10
4817.2822917086696179
 20
-34.0033296547542534
 30
0.0
 11
4817.2822096478166713
 21
-34.0271091332541005
 31
0.0
  0
LINE
  5
13A12
  8
0
 10
4817.1530031965421585
 20
-34.1518421799362386
 30
0.0
 11
4814.7119601046406387
 21
-34.1518421799362528
 31
0.0
  0
ARC
  5
13A13
  8
0
 10
4814.7103808434103485
 20
-34.0258017483500197
 30
0.0
 40
0.1260503251105506
 50
180.9633384070681075
 51
270.7178670159493095
  0
ARC
  5
13A14
  8
0
 10
4814.4904784689542794
 20
-33.8062541822055778
 30
0.0
 40
0.0637635978029608
 50
20.9112035417190292
 51
60.2408865954022872
  0
ARC
  5
13A15
  8
0
 10
4814.2373328953681266
 20
-33.9169863939070169
 30
0.0
 40
0.3400101880608102
 50
8.4855666476463547
 51
23.1168812972737996
  0
ARC
  5
13A16
  8
0
 10
4813.7423800901824507
 20
-33.9997416861872921
 30
0.0
 40
0.8418023149872563
 50
359.7566264909601728
 51
9.0854874808833266
  0
LINE
  5
13A17
  8
0
 10
4814.5841748109924083
 20
-34.0033173730700469
 30
0.0
 11
4814.5843483345470304
 21
-34.0279209864397316
 31
0.0
  0
ARC
  5
13A18
  8
0
 10
4817.7330296000200178
 20
-33.9414013032166224
 30
0.0
 40
0.4480102643713379
 50
162.5868930772604131
 51
172.12948719584179
  0
ARC
  5
13A19
  8
0
 10
4817.3633471481825836
 20
-33.7947910395820728
 30
0.0
 40
0.0479182738114231
 50
113.6572901180077935
 51
147.7899580144143101
  0
ARC
  5
13A1A
  8
0
 10
4817.4646339457112845
 20
-33.8564551542357322
 30
0.0
 40
0.1664953834661075
 50
148.4143430158530066
 51
162.8392750718275863
  0
ARC
  5
13A1B
  8
0
 10
4842.6836775346282593
 20
-33.9782640008745176
 30
0.0
 40
0.6528671786183738
 50
171.3481474998741021
 51
182.2003085526509949
  0
ARC
  5
13A1C
  8
0
 10
4841.9046908445352528
 20
-34.0253395492937187
 30
0.0
 40
0.1265311780203591
 50
268.7828891565060871
 51
359.1986718258498854
  0
LINE
  5
13A1D
  8
0
 10
4842.0312917086703237
 20
-34.0033296547542676
 30
0.0
 11
4842.0312096478173771
 21
-34.0271091332541218
 31
0.0
  0
LINE
  5
13A1E
  8
0
 10
4841.9020031965419548
 20
-34.1518421799362528
 30
0.0
 11
4839.460960104642254
 21
-34.151842179936267
 31
0.0
  0
ARC
  5
13A1F
  8
0
 10
4839.4593808434101447
 20
-34.025801748350041
 30
0.0
 40
0.1260503251105506
 50
180.9633384070681075
 51
270.7178670159493095
  0
ARC
  5
13A20
  8
0
 10
4839.2394784689540757
 20
-33.806254182205592
 30
0.0
 40
0.0637635978029608
 50
20.9112035417190292
 51
60.2408865954022872
  0
ARC
  5
13A21
  8
0
 10
4838.9863328953679229
 20
-33.9169863939070382
 30
0.0
 40
0.3400101880608102
 50
8.4855666476463547
 51
23.1168812972737996
  0
ARC
  5
13A22
  8
0
 10
4838.4913800901831564
 20
-33.9997416861873134
 30
0.0
 40
0.8418023149872563
 50
359.7566264909601728
 51
9.0854874808833266
  0
LINE
  5
13A23
  8
0
 10
4839.3331748109922046
 20
-34.0033173730700611
 30
0.0
 11
4839.3333483345468267
 21
-34.0279209864397387
 31
0.0
  0
ARC
  5
13A24
  8
0
 10
4842.4820296000198141
 20
-33.9414013032166366
 30
0.0
 40
0.4480102643713379
 50
162.5868930772604131
 51
172.12948719584179
  0
ARC
  5
13A25
  8
0
 10
4842.1123471481841989
 20
-33.7947910395820799
 30
0.0
 40
0.0479182738114231
 50
113.6572901180077935
 51
147.7899580144143101
  0
ARC
  5
13A26
  8
0
 10
4842.2136339457110807
 20
-33.8564551542357535
 30
0.0
 40
0.1664953834661075
 50
148.4143430158530066
 51
162.8392750718275863
  0
ENDSEC
  0
EOF
