  0
SECTION
  2
HEADER
  9
$ACADVER
  1
AC1009
  9
$INSBASE
 10
4690.559178969651839
 20
-9.8265347918339216
 30
0.0
  9
$EXTMIN
 10
4661.3291661180737719
 20
-9.8265347918339216
 30
0.0
  9
$EXTMAX
 10
4690.5716767090998474
 20
6.5049616617337431
 30
0.0
  9
$LIMMIN
 10
0.0
 20
0.0
  9
$LIMMAX
 10
11.6929133858000007
 20
8.2677165353999982
  9
$ORTHOMODE
 70
     0
  9
$REGENMODE
 70
     1
  9
$FILLMODE
 70
     1
  9
$QTEXTMODE
 70
     0
  9
$MIRRTEXT
 70
     0
  9
$DRAGMODE
 70
     2
  9
$LTSCALE
 40
0.6431102362
  9
$OSMODE
 70
  4095
  9
$ATTMODE
 70
     1
  9
$TEXTSIZE
 40
0.2
  9
$TRACEWID
 40
0.05
  9
$TEXTSTYLE
  7
STANDARD
  9
$CLAYER
  8
0
  9
$CELTYPE
  6
BYLAYER
  9
$CECOLOR
 62
   256
  9
$DIMSCALE
 40
1.0
  9
$DIMASZ
 40
0.1875
  9
$DIMEXO
 40
0.0625
  9
$DIMDLI
 40
0.4443307087
  9
$DIMRND
 40
0.0
  9
$DIMDLE
 40
0.0
  9
$DIMEXE
 40
0.125
  9
$DIMTP
 40
0.01
  9
$DIMTM
 40
0.01
  9
$DIMTXT
 40
2.0
  9
$DIMCEN
 40
0.1052362205
  9
$DIMTSZ
 40
0.0
  9
$DIMTOL
 70
     1
  9
$DIMLIM
 70
     0
  9
$DIMTIH
 70
     1
  9
$DIMTOH
 70
     1
  9
$DIMSE1
 70
     0
  9
$DIMSE2
 70
     0
  9
$DIMTAD
 70
     0
  9
$DIMZIN
 70
     0
  9
$DIMBLK
  1

  9
$DIMASO
 70
     1
  9
$DIMSHO
 70
     1
  9
$DIMPOST
  1
\X
  9
$DIMAPOST
  1

  9
$DIMALT
 70
     1
  9
$DIMALTD
 70
     2
  9
$DIMALTF
 40
25.3999999999999986
  9
$DIMLFAC
 40
1.0
  9
$DIMTOFL
 70
     0
  9
$DIMTVP
 40
0.0
  9
$DIMTIX
 70
     0
  9
$DIMSOXD
 70
     0
  9
$DIMSAH
 70
     0
  9
$DIMBLK1
  1

  9
$DIMBLK2
  1

  9
$DIMSTYLE
  2
STANDARD
  9
$DIMCLRD
 70
     0
  9
$DIMCLRE
 70
     0
  9
$DIMCLRT
 70
     0
  9
$DIMTFAC
 40
1.0
  9
$DIMGAP
 40
0.09
  9
$LUNITS
 70
     2
  9
$LUPREC
 70
     4
  9
$SKETCHINC
 40
0.1
  9
$FILLETRAD
 40
0.0
  9
$AUNITS
 70
     0
  9
$AUPREC
 70
     0
  9
$MENU
  1
.
  9
$ELEVATION
 40
0.0
  9
$PELEVATION
 40
0.0
  9
$THICKNESS
 40
0.0
  9
$LIMCHECK
 70
     0
  9
$BLIPMODE
 70
     0
  9
$CHAMFERA
 40
0.0
  9
$CHAMFERB
 40
0.0
  9
$SKPOLY
 70
     0
  9
$TDCREATE
 40
2458060.468368056230247
  9
$TDUPDATE
 40
2459446.6413425928913057
  9
$TDINDWG
 40
0.4633403935
  9
$TDUSRTIMER
 40
0.4633403935
  9
$USRTIMER
 70
     1
  9
$ANGBASE
 50
0.0
  9
$ANGDIR
 70
     0
  9
$PDMODE
 70
     0
  9
$PDSIZE
 40
0.3125
  9
$PLINEWID
 40
0.0
  9
$COORDS
 70
     1
  9
$SPLFRAME
 70
     0
  9
$SPLINETYPE
 70
     6
  9
$SPLINESEGS
 70
     8
  9
$ATTDIA
 70
     1
  9
$ATTREQ
 70
     1
  9
$HANDLING
 70
     1
  9
$HANDSEED
  5
13B62
  9
$SURFTAB1
 70
     6
  9
$SURFTAB2
 70
     6
  9
$SURFTYPE
 70
     6
  9
$SURFU
 70
     6
  9
$SURFV
 70
     6
  9
$UCSNAME
  2

  9
$UCSORG
 10
0.0
 20
0.0
 30
0.0
  9
$UCSXDIR
 10
1.0
 20
0.0
 30
0.0
  9
$UCSYDIR
 10
0.0
 20
1.0
 30
0.0
  9
$PUCSNAME
  2

  9
$PUCSORG
 10
0.0
 20
0.0
 30
0.0
  9
$PUCSXDIR
 10
1.0
 20
0.0
 30
0.0
  9
$PUCSYDIR
 10
0.0
 20
1.0
 30
0.0
  9
$USERI1
 70
     0
  9
$USERI2
 70
     0
  9
$USERI3
 70
     0
  9
$USERI4
 70
     0
  9
$USERI5
 70
     0
  9
$USERR1
 40
0.0
  9
$USERR2
 40
0.0
  9
$USERR3
 40
0.0
  9
$USERR4
 40
0.0
  9
$USERR5
 40
0.0
  9
$WORLDVIEW
 70
     1
  9
$SHADEDGE
 70
     3
  9
$SHADEDIF
 70
    70
  9
$TILEMODE
 70
     1
  9
$MAXACTVP
 70
    64
  9
$PLIMCHECK
 70
     0
  9
$PEXTMIN
 10
1.0000000000000000E+20
 20
1.0000000000000000E+20
 30
1.0000000000000000E+20
  9
$PEXTMAX
 10
-1.0000000000000000E+20
 20
-1.0000000000000000E+20
 30
-1.0000000000000000E+20
  9
$PLIMMIN
 10
0.0
 20
0.0
  9
$PLIMMAX
 10
12.0
 20
9.0
  9
$UNITMODE
 70
     0
  9
$VISRETAIN
 70
     1
  9
$PLINEGEN
 70
     0
  9
$PSLTSCALE
 70
     1
  0
ENDSEC
  0
SECTION
  2
TABLES
  0
TABLE
  2
VPORT
 70
     1
  0
VPORT
  2
*ACTIVE
 70
     0
 10
0.0
 20
0.0
 11
1.0
 21
1.0
 12
888.5545080126371431
 22
-115.4486875901906018
 13
0.0
 23
0.0
 14
1.0
 24
1.0
 15
0.0
 25
0.0
 16
0.0
 26
0.0
 36
5.1040778033513332
 17
3792.35791015625
 27
120.1806564331053977
 37
0.0
 40
92.2439944752359366
 41
2.000833333333333
 42
50.0
 43
0.0
 44
0.0
 50
0.0
 51
0.0
 71
     0
 72
   100
 73
     1
 74
     1
 75
     0
 76
     0
 77
     0
 78
     0
  0
ENDTAB
  0
TABLE
  2
LTYPE
 70
     2
  0
LTYPE
  2
CONTINUOUS
 70
     0
  3
Solid line
 72
    65
 73
     0
 40
0.0
  0
LTYPE
  2
PHANTOM2
 70
     0
  3
___ _ _ ___ _ _ ___ _ _ ___ _ _
 72
    65
 73
     6
 40
1.25
 49
0.625
 49
-0.125
 49
0.125
 49
-0.125
 49
0.125
 49
-0.125
  0
ENDTAB
  0
TABLE
  2
LAYER
 70
     2
  0
LAYER
  2
0
 70
     0
 62
   255
  6
CONTINUOUS
  0
LAYER
  2
DEFPOINTS
 70
     0
 62
     7
  6
CONTINUOUS
  0
ENDTAB
  0
TABLE
  2
STYLE
 70
     1
  0
STYLE
  2
STANDARD
 70
     0
 40
0.0
 41
0.8
 50
0.0
 71
     0
 42
0.2
  3
txt
  4

  0
ENDTAB
  0
TABLE
  2
VIEW
 70
     0
  0
ENDTAB
  0
TABLE
  2
UCS
 70
     0
  0
ENDTAB
  0
TABLE
  2
APPID
 70
     9
  0
APPID
  2
ACAD
 70
     0
  0
APPID
  2
ACAD_MLEADERVER
 70
     0
  0
APPID
  2
ACAD_EXEMPT_FROM_CAD_STANDARDS
 70
     0
  0
APPID
  2
ACAD_NAV_VCDISPLAY
 70
     0
  0
APPID
  2
ACAECLAYERSTANDARD
 70
     0
  0
APPID
  2
ACCMTRANSPARENCY
 70
     0
  0
APPID
  2
ACAD_DSTYLE_DIMJAG
 70
     0
  0
APPID
  2
ACAD_DSTYLE_DIMTALN
 70
     0
  0
APPID
  2
ACDBATTR
 70
     0
  0
ENDTAB
  0
TABLE
  2
DIMSTYLE
 70
     1
  0
DIMSTYLE
  2
STANDARD
 70
     0
  3

  4

  5

  6

  7

 40
1.0
 41
0.1875
 42
0.0625
 43
0.38
 44
0.125
 45
0.0
 46
0.0
 47
0.01
 48
0.01
140
0.15625
141
0.09
142
0.0
143
25.3999999999999986
144
1.0
145
0.0
146
1.0
147
0.09
 71
     1
 72
     0
 73
     1
 74
     1
 75
     0
 76
     0
 77
     0
 78
     4
170
     0
171
     2
172
     0
173
     0
174
     0
175
     0
176
     0
177
     0
178
     0
  0
ENDTAB
  0
ENDSEC
  0
SECTION
  2
BLOCKS
  0
BLOCK
  8
0
  2
$MODEL_SPACE
 70
     0
 10
0.0
 20
0.0
 30
0.0
  3
$MODEL_SPACE
  1

  0
ENDBLK
  5
21
  8
0
  0
BLOCK
 67
     1
  8
0
  2
$PAPER_SPACE
 70
     0
 10
0.0
 20
0.0
 30
0.0
  3
$PAPER_SPACE
  1

  0
ENDBLK
  5
1D
 67
     1
  8
0
  0
ENDSEC
  0
SECTION
  2
ENTITIES
  0
ATTDEF
  5
3930
  8
DEFPOINTS
 10
4690.5610100424310076
 20
-9.8221382020864212
 30
0.0
 40
0.001
  1
71041110
  3

  2
MODELNUMBER
 70
     0
1001
ACDBATTR
1070
     0
1070
     1
  0
ATTDEF
  5
3931
  8
DEFPOINTS
 10
4690.5610100424310076
 20
-9.8238048687530863
 30
0.0
 40
0.001
  1
PERFORMA
  3

  2
TRADENAME
 70
     0
1001
ACDBATTR
1070
     0
1070
     1
  0
ATTDEF
  5
3932
  8
DEFPOINTS
 10
4690.5610100424310076
 20
-9.8254715354197515
 30
0.0
 40
0.001
  1
BATH
  3

  2
PRODUCT
 70
     0
1001
ACDBATTR
1070
     0
1070
     1
  0
LINE
  5
138B3
  8
0
 10
4663.1069294800518037
 20
6.5049616617337369
 30
0.0
 11
4690.0184550447520451
 21
6.3875657926337359
 31
0.0
  0
ARC
  5
138B4
  8
0
 10
4661.8764295300461526
 20
5.7651782001534277
 30
0.0
 40
0.1250000000201124
 50
275.4345735629125898
 51
314.9999999953649876
  0
ARC
  5
138B5
  8
0
 10
4663.1150925720321538
 20
5.7271906202872032
 30
0.0
 40
0.7778138781119175
 50
90.6013254811569055
 51
134.1501239839608104
  0
LINE
  5
138B6
  8
0
 10
4661.9648178777079011
 20
5.6767898524908906
 30
0.0
 11
4662.5733134963193152
 21
6.2852854707414281
 31
0.0
  0
ARC
  5
138B7
  8
0
 10
4661.8091789284708284
 20
5.2680164973259869
 30
0.0
 40
0.3749999588201977
 50
92.685428526807172
 51
180.0000027031763068
  0
ARC
  5
138B8
  8
0
 10
4661.8095399950416322
 20
5.2526342550379113
 30
0.0
 40
0.3903823915338912
 50
86.1783292626795259
 51
92.6325882311018631
  0
ARC
  5
138B9
  8
0
 10
4661.8764295300507001
 20
5.7651782001335761
 30
0.0
 40
0.1249999999998389
 50
267.4713789551581158
 51
275.434573561290108
  0
ARC
  5
138BA
  8
0
 10
4665.7210173077846775
 20
79.6119830448499783
 30
0.0
 40
74.071811071760564
 50
266.9931536680571185
 51
267.0205388949814846
  0
ARC
  5
138BB
  8
0
 10
4661.7155358044074092
 20
5.5324299334861697
 30
0.0
 40
0.0821992309576002
 50
128.8993588440048939
 51
171.78948896089139
  0
ARC
  5
138BC
  8
0
 10
4661.7826440521121185
 20
5.463009233582496
 30
0.0
 40
0.1782908333814525
 50
100.139749592190995
 51
118.9312745997570033
  0
ARC
  5
138BD
  8
0
 10
4661.7721707806631457
 20
5.4757831191713029
 30
0.0
 40
0.1620720918042823
 50
117.8753499035972965
 51
131.9072775901886132
  0
LINE
  5
138BE
  8
0
 10
4661.6341789696507476
 20
5.5441687716823287
 30
0.0
 11
4661.6341789696507476
 21
-9.4168159733662602
 31
0.0
  0
LINE
  5
138BF
  8
0
 10
4661.6341789696507476
 20
-9.4168159733662602
 30
0.0
 11
4661.5991789696508931
 21
-9.4168159733662602
 31
0.0
  0
LINE
  5
138C0
  8
0
 10
4661.5991789696508931
 20
-9.4168159733662602
 30
0.0
 11
4661.5991789696508931
 21
-9.6668159733662602
 31
0.0
  0
LINE
  5
138C1
  8
0
 10
4661.5991789696508931
 20
-9.6668159733662602
 30
0.0
 11
4661.3291789696522756
 21
-9.6668159733662602
 31
0.0
  0
LINE
  5
138C2
  8
0
 10
4661.3291789696522756
 20
-9.6668159733662602
 30
0.0
 11
4661.3291789696522756
 21
-9.597468581166261
 31
0.0
  0
LINE
  5
138C3
  8
0
 10
4661.434178969651839
 20
-9.4453008947662624
 30
0.0
 11
4661.434178969651839
 21
5.2680164796337356
 31
0.0
  0
LINE
  5
138C4
  8
0
 10
4661.6996544692237876
 20
5.264527498388559
 30
0.0
 11
4662.4708106566522474
 21
-9.4500117473662613
 31
0.0
  0
LINE
  5
138C5
  8
0
 10
4661.6693316841410706
 20
5.2646604513899851
 30
0.0
 11
4662.2682185847843357
 21
5.262046642442491
 31
0.0
  0
LINE
  5
138C6
  8
0
 10
4662.2582827595506387
 20
5.3337967067337351
 30
0.0
 11
4662.3148396338747261
 21
4.9253797637337371
 31
0.0
  0
ARC
  5
138C7
  8
0
 10
4661.6691800609487473
 20
5.2296596885041424
 30
0.0
 40
0.0350010912998888
 50
89.7517964204168663
 51
179.999260040561694
  0
ARC
  5
138C8
  8
0
 10
4661.7547674774659754
 20
5.2890511466050754
 30
0.0
 40
0.0854896121130475
 50
146.426488661005294
 51
179.5387819881686084
  0
ARC
  5
138C9
  8
0
 10
4661.839723614648392
 20
5.2675973935772831
 30
0.0
 40
0.1706379165921791
 50
129.4964192865350014
 51
156.2477251297254099
  0
ARC
  5
138CA
  8
0
 10
4661.8399434673901851
 20
5.2659052819713281
 30
0.0
 40
0.1720858797445187
 50
23.2360785529656688
 51
129.1945728001570899
  0
LINE
  5
138CB
  8
0
 10
4661.6693316841410706
 20
5.2646604513899851
 30
0.0
 11
4661.669280635152063
 21
5.2897393111337356
 31
0.0
  0
LINE
  5
138CC
  8
0
 10
4661.9110024287028864
 20
5.4226349027350764
 30
0.0
 11
4661.8882681601289732
 21
5.640740075598301
 31
0.0
  0
LINE
  5
138CD
  8
0
 10
4662.4917651649147956
 20
4.9253797638662951
 30
0.0
 11
4662.4554420110489446
 21
5.3337967067337351
 31
0.0
  0
LINE
  5
138CE
  8
0
 10
4666.3057974163912149
 20
5.3337967067337351
 30
0.0
 11
4666.3556174674085923
 21
4.9253797637974648
 31
0.0
  0
LINE
  5
138CF
  8
0
 10
4666.5083643228554138
 20
4.9253797638384347
 30
0.0
 11
4666.4760186777539275
 21
5.3337967067337351
 31
0.0
  0
LINE
  5
138D0
  8
0
 10
4670.2993930115426338
 20
5.3337967067337351
 30
0.0
 11
4670.3420875712663474
 21
4.925379763779687
 31
0.0
  0
LINE
  5
138D1
  8
0
 10
4670.4752629944905493
 20
4.9253797637940187
 30
0.0
 11
4670.4478101563408927
 21
5.3337967067337351
 31
0.0
  0
LINE
  5
138D2
  8
0
 10
4670.4502118933551174
 20
5.2980659715810807
 30
0.0
 11
4670.4502118933542079
 21
5.2980659716050829
 31
0.0
  0
LINE
  5
138D3
  8
0
 10
4663.1319013218280816
 20
4.2081840266086203
 30
0.0
 11
4670.1412384233517514
 21
4.2081839342337366
 31
0.0
  0
ARC
  5
138D4
  8
0
 10
4663.1488132297527045
 20
5.0514654411023647
 30
0.0
 40
0.8434509805911975
 50
188.5972481491104986
 51
268.8510940062877239
  0
ARC
  5
138D5
  8
0
 10
4663.2809696518506826
 20
5.000962412471103
 30
0.0
 40
0.7928155265195924
 50
185.4705709583111002
 51
269.4454021383781992
  0
ARC
  5
138D6
  8
0
 10
4667.0779103602681062
 20
4.6451908702414002
 30
0.0
 40
0.4371246112409391
 50
226.2558458915634958
 51
268.6699813670550725
  0
ARC
  5
138D7
  8
0
 10
4667.4015888603953499
 20
4.9680606541512367
 30
0.0
 40
0.8942436652624945
 50
182.735679750534814
 51
225.5772044294272121
  0
ARC
  5
138D8
  8
0
 10
4667.3776463788690307
 20
5.0433834455590443
 30
0.0
 40
1.0288187229527299
 50
186.5862194692778075
 51
214.6099718449953002
  0
ARC
  5
138D9
  8
0
 10
4667.0644019669798581
 20
4.8250289096457086
 30
0.0
 40
0.6469867702892551
 50
214.4509903347133104
 51
240.9378471132118875
  0
ARC
  5
138DA
  8
0
 10
4666.9524020086983001
 20
4.6320647752655901
 30
0.0
 40
0.4239336851575649
 50
241.5007023236601924
 51
269.0945836330104726
  0
ARC
  5
138DB
  8
0
 10
4764.5789557217312904
 20
66.1746377498321579
 30
0.0
 40
112.9527505066136968
 50
212.5910885087743907
 51
213.2713688260126901
  0
ARC
  5
138DC
  8
0
 10
4736.0051083212611047
 20
32.2648051567041207
 30
0.0
 40
69.8327388903856701
 50
202.6841102744718057
 51
203.6888067631923889
  0
LINE
  5
138DD
  8
0
 10
4673.644387899051253
 20
5.2455726672337368
 30
0.0
 11
4676.0120393327515558
 21
5.2352417477337383
 31
0.0
  0
ARC
  5
138DE
  8
0
 10
4672.1410792140623016
 20
5.099908147165336
 30
0.0
 40
1.8074377132955071
 50
185.5411840781580963
 51
198.7752053967732877
  0
ARC
  5
138DF
  8
0
 10
4672.2581379633666074
 20
5.0328036936007052
 30
0.0
 40
1.7861083548682091
 50
183.4480856586885125
 51
196.6956170778736066
  0
ARC
  5
138E0
  8
0
 10
4670.795689843494074
 20
4.3559223962602678
 30
0.0
 40
0.1481435203206785
 50
222.0953740395291902
 51
265.7615838148934131
  0
ARC
  5
138E1
  8
0
 10
4671.4105449712387781
 20
4.7791000326545543
 30
0.0
 40
0.9013603996338124
 50
196.7270192222021876
 51
208.9854440654769974
  0
ARC
  5
138E2
  8
0
 10
4671.210033350300364
 20
4.774817683316555
 30
0.0
 40
0.8213419871919242
 50
198.2081097125171141
 51
216.191719529687191
  0
ARC
  5
138E3
  8
0
 10
4670.7164619548457267
 20
4.3993179524593131
 30
0.0
 40
0.1992595956864675
 50
223.9482636269586919
 51
247.021698896411408
  0
ARC
  5
138E4
  8
0
 10
4670.9761881530457686
 20
4.5389084452942754
 30
0.0
 40
0.4050162385837182
 50
209.0389141033830924
 51
224.1868488481578083
  0
ARC
  5
138E5
  8
0
 10
4670.6793795261755804
 20
4.3197552647630451
 30
0.0
 40
0.1115761799210877
 50
248.60360116520161
 51
269.4607431006469938
  0
ARC
  5
138E6
  8
0
 10
4670.8400645426627307
 20
4.526571146186412
 30
0.0
 40
0.376609387720229
 50
218.9489119475906023
 51
224.8362882643413911
  0
LINE
  5
138E7
  8
0
 10
4670.6783306412053207
 20
4.2081840266603896
 30
0.0
 11
4672.0563991996514233
 21
4.2081834318337741
 31
0.0
  0
LINE
  5
138E8
  8
0
 10
4673.6801953637523184
 20
4.833184026633738
 30
0.0
 11
4675.9781625755522327
 21
4.833184026633738
 31
0.0
  0
LINE
  5
138E9
  8
0
 10
4676.2570550847531194
 20
5.3337967067337351
 30
0.0
 11
4676.1865080145080356
 21
5.0018988364895591
 31
0.0
  0
LINE
  5
138EA
  8
0
 10
4673.4718499247328509
 20
5.0018988365179453
 30
0.0
 11
4673.4013028546805799
 21
5.3337967067337351
 31
0.0
  0
ARC
  5
138EB
  8
0
 10
4673.4288274078871837
 20
5.4149549927586804
 30
0.0
 40
0.2016067785794968
 50
269.4530888891417248
 51
280.6503551032986934
  0
ARC
  5
138EC
  8
0
 10
4673.6450297027886336
 20
4.8500825906452221
 30
0.0
 40
0.3954905973386335
 50
90.0929795949850956
 51
100.2331341312238067
  0
ARC
  5
138ED
  8
0
 10
4671.9671955021931353
 20
12.7437013766772598
 30
0.0
 40
7.6746727353545596
 50
281.2624647579871748
 51
282.0909898238131177
  0
ARC
  5
138EE
  8
0
 10
4673.6801953629892523
 20
5.046184025762229
 30
0.0
 40
0.212999999128484
 50
191.9999998255144078
 51
270.000000204793082
  0
ARC
  5
138EF
  8
0
 10
4675.9862120035086264
 20
4.6117879730902374
 30
0.0
 40
0.6239885228329541
 50
74.0800411123670273
 51
87.6277762669956246
  0
ARC
  5
138F0
  8
0
 10
4675.760569976358056
 20
-103.117363583677303
 30
0.0
 40
108.3195073285491929
 50
89.7477015431382767
 51
89.7522984567368241
  0
ARC
  5
138F1
  8
0
 10
4676.2452026449000186
 20
5.5541043773860599
 30
0.0
 40
0.3533511877924627
 50
255.6068088734587036
 51
267.3484867528645736
  0
ARC
  5
138F2
  8
0
 10
4675.9781625755522327
 20
5.0461840266337381
 30
0.0
 40
0.2130000000000045
 50
270.0
 51
295.8786715302045991
  0
ARC
  5
138F3
  8
0
 10
4675.9781625754521883
 20
5.0461840267901863
 30
0.0
 40
0.2130000001841761
 50
295.8786715359328809
 51
347.9999999521537006
  0
ARC
  5
138F4
  8
0
 10
4661.3341782682382473
 20
-9.4453006903228811
 30
0.0
 40
0.1000007014136941
 50
295.000393098798213
 51
359.9998828633922017
  0
ARC
  5
138F5
  8
0
 10
4661.3892065472027753
 20
-9.5962263801489627
 30
0.0
 40
0.0600404291291724
 50
114.1669128410197942
 51
181.1855004239642142
  0
ARC
  5
138F6
  8
0
 10
4663.8944960191911377
 20
-14.9445244981102601
 30
0.0
 40
5.9660268043551667
 50
114.9650697272515032
 51
115.0902932034926067
  0
LINE
  5
138F7
  8
0
 10
4661.6341789696507476
 20
-9.1660159733662638
 30
0.0
 11
4661.6809273854505591
 21
-9.1632017582662613
 31
0.0
  0
LINE
  5
138F8
  8
0
 10
4661.6809273854505591
 20
-9.1632017582662613
 30
0.0
 11
4661.7089584618515801
 21
-9.4622406254662614
 31
0.0
  0
LINE
  5
138F9
  8
0
 10
4661.7089584618515801
 20
-9.4622406254662614
 30
0.0
 11
4662.0917295645522245
 21
-9.4468128548662627
 31
0.0
  0
LINE
  5
138FA
  8
0
 10
4662.0917295645522245
 20
-9.4468128548662627
 30
0.0
 11
4661.6341789696507476
 21
0.7073173553272838
 31
0.0
  0
ARC
  5
138FB
  8
0
 10
4662.1083540824520242
 20
-9.4263341252662851
 30
0.0
 40
0.0299999242999733
 50
223.5892749816028129
 51
270.0000000000521254
  0
LINE
  5
138FC
  8
0
 10
4662.4708106566522474
 20
-9.4500117473662613
 30
0.0
 11
4662.1083540824520242
 21
-9.4563340495662587
 31
0.0
  0
LINE
  5
138FD
  8
0
 10
4670.1037583960487609
 20
4.2653417008319741
 30
0.0
 11
4670.5730016688021351
 21
4.261030090369025
 31
0.0
  0
LINE
  5
138FE
  8
0
 10
4672.0378200026843842
 20
4.250568667003896
 30
0.0
 11
4680.9539799681679142
 21
4.250717759998337
 31
0.0
  0
ARC
  5
138FF
  8
0
 10
4140.3659213913406347
 20
-76.8503005637293484
 30
0.0
 40
529.931121246500652
 50
7.735805577584224
 51
8.7985261602675369
  0
ARC
  5
13900
  8
0
 10
4668.0803717321114163
 20
-5.0721350029456067
 30
0.0
 40
2.6440675025941478
 50
189.723115297243794
 51
221.9466058038325116
  0
ARC
  5
13901
  8
0
 10
4668.2748726813251778
 20
-4.8918994895880843
 30
0.0
 40
2.8592709063810582
 50
220.6267328214925953
 51
232.9910476796935939
  0
ARC
  5
13902
  8
0
 10
4668.515803207834324
 20
-4.8144488685861901
 30
0.0
 40
2.8799219415209012
 50
226.262663177866699
 51
247.5185109742623126
  0
ARC
  5
13903
  8
0
 10
4669.2031352215044535
 20
-4.496228666785945
 30
0.0
 40
3.1414521802472319
 50
234.2928606699678085
 51
258.9237138702225138
  0
ARC
  5
13904
  8
0
 10
4670.3650050629894395
 20
-3.6759015535139659
 30
0.0
 40
3.9248009759779041
 50
242.546416876498796
 51
250.3334447354772863
  0
ARC
  5
13905
  8
0
 10
4669.0351766946578209
 20
-8.7184081686448138
 30
0.0
 40
1.346680216036944
 50
61.1870020550425906
 51
89.6190539312344754
  0
ARC
  5
13906
  8
0
 10
4670.3257161517067289
 20
-3.7971346236711829
 30
0.0
 40
3.7959150981058971
 50
260.2704103749946967
 51
270.2421386071073925
  0
ARC
  5
13907
  8
0
 10
4667.1996858673019233
 20
-7.4612011359234129
 30
0.0
 40
1.131858129894497
 50
186.0915343160909003
 51
251.1541957254551107
  0
ARC
  5
13908
  8
0
 10
4668.1119609046691039
 20
-5.2873108692030248
 30
0.0
 40
3.4876195216684471
 50
248.5057612068675894
 51
269.4486829119181266
  0
ARC
  5
13909
  8
0
 10
4668.1272537372451552
 20
-5.569813330553103
 30
0.0
 40
3.254761269433704
 50
241.0075727346603003
 51
269.8879508623201104
  0
ARC
  5
1390A
  8
0
 10
4668.2204830431146547
 20
-5.3911586566814966
 30
0.0
 40
3.4831432469030199
 50
251.6184706887927973
 51
269.2946749140995735
  0
ARC
  5
1390B
  8
0
 10
4667.5576974335135674
 20
-7.0798852391476004
 30
0.0
 40
1.6743541839344711
 50
233.8377883588821078
 51
254.92045479373391
  0
ARC
  5
1390C
  8
0
 10
4667.7456824758701259
 20
-6.948665512026718
 30
0.0
 40
1.8797627484669139
 50
239.6837761012901922
 51
253.6273542698332903
  0
ARC
  5
1390D
  8
0
 10
4668.2911621078274038
 20
-5.4596317843809166
 30
0.0
 40
3.463726288203032
 50
251.9129562546837064
 51
269.3147664323998924
  0
ARC
  5
1390E
  8
0
 10
4667.9819360627652713
 20
-6.730823274119345
 30
0.0
 40
2.177309469581084
 50
243.2169785850406925
 51
255.4477356154145014
  0
ARC
  5
1390F
  8
0
 10
4668.3921868646812072
 20
-5.4801239348845243
 30
0.0
 40
3.491948420294793
 50
254.0884544321700957
 51
269.1954813039474175
  0
ARC
  5
13910
  8
0
 10
4668.5034399551232127
 20
-5.6136548686310936
 30
0.0
 40
3.4063938743615561
 50
260.6564058761920819
 51
269.2497512670610718
  0
ARC
  5
13911
  8
0
 10
4668.6424693370054229
 20
-5.6561327450119299
 30
0.0
 40
3.4111290533814751
 50
258.5276298320302999
 51
269.1722478284772819
  0
ARC
  5
13912
  8
0
 10
4668.7985368509944237
 20
-5.6953245898212543
 30
0.0
 40
3.4178797439827511
 50
256.1739616554704071
 51
269.0583477363377938
  0
ARC
  5
13913
  8
0
 10
4668.9302235009499782
 20
-5.7316313232657441
 30
0.0
 40
3.4168242908751161
 50
251.7515437970552057
 51
268.9685044814066828
  0
ARC
  5
13914
  8
0
 10
4669.1425562391223139
 20
-5.7711286303599394
 30
0.0
 40
3.4269987074355881
 50
254.9572700350032051
 51
268.8169619809684718
  0
LINE
  5
13915
  8
0
 10
4669.0441303865163718
 20
-7.3717577182058589
 30
0.0
 11
4669.2842467797900099
 21
-9.8265347918339216
 31
0.0
  0
LINE
  5
13916
  8
0
 10
4669.7815578223817283
 20
-9.8265347918339216
 30
0.0
 11
4669.6842125348521222
 21
-7.5384505073662629
 31
0.0
  0
LINE
  5
13917
  8
0
 10
4668.5555545789584357
 20
-7.15870956528817
 30
0.0
 11
4668.6802492315518975
 21
-8.3486917204662632
 31
0.0
  0
LINE
  5
13918
  8
0
 10
4668.6802492315518975
 20
-8.3486917204662632
 30
0.0
 11
4668.745372546552062
 21
-8.3691325696662631
 31
0.0
  0
LINE
  5
13919
  8
0
 10
4668.6677286395779447
 20
-8.2292055940642772
 30
0.0
 11
4669.2265034859674415
 21
-9.2362089423601184
 31
0.0
  0
LINE
  5
1391A
  8
0
 10
4667.3696505430516481
 20
-7.047121791666263
 30
0.0
 11
4667.4232830676901358
 21
-7.5586627903319359
 31
0.0
  0
LINE
  5
1391B
  8
0
 10
4666.5247594213906268
 20
-6.8952407922823582
 30
0.0
 11
4666.5724334789520071
 21
-7.355317773566262
 31
0.0
  0
LINE
  5
1391C
  8
0
 10
4666.104778734552383
 20
-6.7536519914662634
 30
0.0
 11
4666.1902669465516738
 21
-7.5675664931662601
 31
0.0
  0
LINE
  5
1391D
  8
0
 10
4666.0742186224133548
 20
-7.5813106979405189
 30
0.0
 11
4665.9792028646788822
 21
-6.6771840205182817
 31
0.0
  0
ARC
  5
1391E
  8
0
 10
4672.3909292155813091
 20
-6.8224721782426272
 30
0.0
 40
5.8428432347301014
 50
185.2324322028107133
 51
188.2820726759082106
  0
ARC
  5
1391F
  8
0
 10
4667.3120523406723805
 20
-7.450160865129547
 30
0.0
 40
1.1279124753084131
 50
185.974802344787804
 51
233.975921133087013
  0
ARC
  5
13920
  8
0
 10
4668.5498368309217767
 20
-7.4454359143031921
 30
0.0
 40
1.1322295291923119
 50
185.7393700057338037
 51
258.6753242432690172
  0
ARC
  5
13921
  8
0
 10
4667.7188280585432949
 20
-7.4527516932542808
 30
0.0
 40
1.129754159187069
 50
190.7828208516270934
 51
247.0600587631437008
  0
ARC
  5
13922
  8
0
 10
4668.3405468129858491
 20
-5.4728629679819667
 30
0.0
 40
3.2015856338150042
 50
250.6262526266689008
 51
265.4654302317421184
  0
ARC
  5
13923
  8
0
 10
4667.7352374568827145
 20
-6.6121207568120957
 30
0.0
 40
2.060092950015727
 50
238.1685484410164975
 51
259.0621925016149021
  0
ARC
  5
13924
  8
0
 10
4668.1258103245445454
 20
-5.3038199925150593
 30
0.0
 40
3.4214091173406058
 50
256.7969024471785247
 51
269.4183981085017763
  0
ARC
  5
13925
  8
0
 10
4668.4899334584406461
 20
-5.6281713904203414
 30
0.0
 40
3.3898948601190049
 50
247.5148079205069109
 51
260.8418284331751238
  0
ARC
  5
13926
  8
0
 10
4668.6538376661274015
 20
-5.5678308726503403
 30
0.0
 40
3.499933718074026
 50
250.0399490205278141
 51
258.6327554684133929
  0
ARC
  5
13927
  8
0
 10
4668.3779749096465821
 20
-5.279121275763849
 30
0.0
 40
3.3977511483020391
 50
265.0945526270057826
 51
269.5848351303927188
  0
ARC
  5
13928
  8
0
 10
4669.1032931079880655
 20
-4.6174959954913737
 30
0.0
 40
4.0138112101534977
 50
258.8557219174008992
 51
266.9200449436785902
  0
LINE
  5
13929
  8
0
 10
4668.3533550409511008
 20
-8.6767832259662612
 30
0.0
 11
4668.9182315457683217
 21
-8.6806526606614831
 31
0.0
  0
LINE
  5
1392A
  8
0
 10
4668.0910806488518574
 20
-8.7250528401662635
 30
0.0
 11
4668.9463882045511127
 21
-8.7313955490627961
 31
0.0
  0
LINE
  5
1392B
  8
0
 10
4668.0784025067514449
 20
-8.7747689351662643
 30
0.0
 11
4668.9744140957200216
 21
-8.7819027729090902
 31
0.0
  0
LINE
  5
1392C
  8
0
 10
4668.1208886443182564
 20
-8.8245683761130191
 30
0.0
 11
4669.0022650547189187
 21
-8.8320947404732522
 31
0.0
  0
LINE
  5
1392D
  8
0
 10
4668.1776057791876156
 20
-8.8740379854386973
 30
0.0
 11
4669.0298995234506947
 21
-8.8818965572901618
 31
0.0
  0
LINE
  5
1392E
  8
0
 10
4668.2497383771060413
 20
-8.9231103643813583
 30
0.0
 11
4669.057255938146227
 21
-8.9311972754102058
 31
0.0
  0
LINE
  5
1392F
  8
0
 10
4668.3431562816622318
 20
-8.9717281180542123
 30
0.0
 11
4669.0842480286155478
 21
-8.9798414218970137
 31
0.0
  0
LINE
  5
13930
  8
0
 10
4668.4588368503509628
 20
-9.0197567153662632
 30
0.0
 11
4669.1107518288154097
 21
-9.0276055897295002
 31
0.0
  0
LINE
  5
13931
  8
0
 10
4668.5931904671506345
 20
-9.0669058262662645
 30
0.0
 11
4669.1365843047587987
 21
-9.074159921832031
 31
0.0
  0
LINE
  5
13932
  8
0
 10
4668.8687137598508343
 20
-9.1479019194662641
 30
0.0
 11
4669.1803496058510063
 21
-9.1530321277391558
 31
0.0
  0
LINE
  5
13933
  8
0
 10
4668.7423667571520127
 20
-9.1127427475662621
 30
0.0
 11
4669.1614660802943035
 21
-9.1190009368461595
 31
0.0
  0
LINE
  5
13934
  8
0
 10
4668.8190441945444036
 20
-9.1925444397044593
 30
0.0
 11
4669.2059141016507056
 21
-9.1999715282662642
 31
0.0
  0
ARC
  5
13935
  8
0
 10
4669.3594229139343952
 20
-5.7836649889165841
 30
0.0
 40
3.4514443745154502
 50
258.4350951795943843
 51
267.7869522620183034
  0
LINE
  5
13936
  8
0
 10
4670.2164493516966104
 20
-8.6885424675410547
 30
0.0
 11
4669.7556820696172508
 21
-9.2183296618977142
 31
0.0
  0
ARC
  5
13937
  8
0
 10
4670.4255969330297376
 20
-9.0078235876205301
 30
0.0
 40
0.4134509993739542
 50
88.0173939791128959
 51
97.6677530016118993
  0
ARC
  5
13938
  8
0
 10
4670.4128555942616003
 20
-8.8465464742165061
 30
0.0
 40
0.2520727637887692
 50
99.6892065571728949
 51
141.18417528038961
  0
LINE
  5
13939
  8
0
 10
4670.4940167718523298
 20
-9.1469066646523949
 30
0.0
 11
4670.3083134455955587
 21
-7.2516933498256684
 31
0.0
  0
LINE
  5
1393A
  8
0
 10
4670.3083134455955587
 20
-7.2516933498256684
 30
0.0
 11
4670.4902663389520967
 21
-7.3093577178662619
 31
0.0
  0
LINE
  5
1393B
  8
0
 10
4670.4902663389520967
 20
-7.3093577178662619
 30
0.0
 11
4670.56695038655198
 21
-9.1417047862662635
 31
0.0
  0
LINE
  5
1393C
  8
0
 10
4670.56695038655198
 20
-9.1417047862662635
 30
0.0
 11
4670.4940167718523298
 21
-9.1469066646523949
 31
0.0
  0
LINE
  5
1393D
  8
0
 10
4672.5501984851516681
 20
-9.3438245974662628
 30
0.0
 11
4672.4497766548520303
 21
-9.3414953102662643
 31
0.0
  0
LINE
  5
1393E
  8
0
 10
4672.4497766548520303
 20
-9.3414953102662643
 30
0.0
 11
4672.3953376147519521
 21
-8.562933778316264
 31
0.0
  0
LINE
  5
1393F
  8
0
 10
4672.3953376147519521
 20
-8.562933778316264
 30
0.0
 11
4672.2688773246509299
 21
-7.3038848309662612
 31
0.0
  0
LINE
  5
13940
  8
0
 10
4672.2688773246509299
 20
-7.3038848309662612
 30
0.0
 11
4672.4474597657435879
 21
-7.3389289194899483
 31
0.0
  0
LINE
  5
13941
  8
0
 10
4672.4474597657435879
 20
-7.3389289194899483
 30
0.0
 11
4672.4954396460507269
 21
-8.5609008687662609
 31
0.0
  0
LINE
  5
13942
  8
0
 10
4672.4954396460507269
 20
-8.5609008687662609
 30
0.0
 11
4672.5501984851516681
 21
-9.3438245974662628
 31
0.0
  0
LINE
  5
13943
  8
0
 10
4674.2283749669941244
 20
-7.344677655366886
 30
0.0
 11
4674.4041994702110969
 21
-7.3589429014651051
 31
0.0
  0
LINE
  5
13944
  8
0
 10
4674.4041994702110969
 20
-7.3589429014651051
 30
0.0
 11
4674.4503688851509651
 21
-8.5487148152662602
 31
0.0
  0
LINE
  5
13945
  8
0
 10
4674.4503688851509651
 20
-8.5487148152662602
 30
0.0
 11
4674.5057368985508219
 21
-9.3406534303162623
 31
0.0
  0
LINE
  5
13946
  8
0
 10
4674.5057368985508219
 20
-9.3406534303162623
 30
0.0
 11
4674.4054024237520935
 21
-9.3396436465662624
 31
0.0
  0
LINE
  5
13947
  8
0
 10
4674.4054024237520935
 20
-9.3396436465662624
 30
0.0
 11
4674.3501918968522659
 21
-8.5499225480662631
 31
0.0
  0
LINE
  5
13948
  8
0
 10
4674.3501918968522659
 20
-8.5499225480662631
 30
0.0
 11
4674.2283749669941244
 21
-7.344677655366886
 31
0.0
  0
LINE
  5
13949
  8
0
 10
4670.1877442568520564
 20
-8.7420260633662643
 30
0.0
 11
4670.2826264761170023
 21
-9.8265347918339216
 31
0.0
  0
LINE
  5
1394A
  8
0
 10
4670.8732265331118469
 20
-9.8265347918339216
 30
0.0
 11
4670.810737898127627
 21
-8.7438227023278081
 31
0.0
  0
LINE
  5
1394B
  8
0
 10
4670.8326898280492969
 20
-9.1241737840888746
 30
0.0
 11
4671.0751380470519507
 21
-8.8467601993662601
 31
0.0
  0
LINE
  5
1394C
  8
0
 10
4670.2008178707446859
 20
-8.8914581539140691
 30
0.0
 11
4670.0410277575347209
 21
-8.8902410642410352
 31
0.0
  0
LINE
  5
1394D
  8
0
 10
4669.998010216970215
 20
-8.9397023498192674
 30
0.0
 11
4670.1640143342519877
 21
-8.9410962611662619
 31
0.0
  0
LINE
  5
1394E
  8
0
 10
4670.1590275276521425
 20
-8.8936432799662626
 30
0.0
 11
4670.2570783765104352
 21
-9.8265347918339216
 31
0.0
  0
LINE
  5
1394F
  8
0
 10
4669.7567920915589639
 20
-9.2444205372253094
 30
0.0
 11
4670.196870098702675
 21
-9.2536912931341249
 31
0.0
  0
LINE
  5
13950
  8
0
 10
4670.1931382090506304
 20
-9.2181905317662611
 30
0.0
 11
4669.762573263475133
 21
-9.2104062124654327
 31
0.0
  0
LINE
  5
13951
  8
0
 10
4670.1879325653762862
 20
-9.1686563436666226
 30
0.0
 11
4669.8039006025246636
 21
-9.1628883094859894
 31
0.0
  0
LINE
  5
13952
  8
0
 10
4670.1842086900978757
 20
-9.1332260370668905
 30
0.0
 11
4669.8337796751720816
 21
-9.1285335480209397
 31
0.0
  0
LINE
  5
13953
  8
0
 10
4670.1793441568515846
 20
-9.0869430953662622
 30
0.0
 11
4669.8730720648009083
 21
-9.0833554165193071
 31
0.0
  0
LINE
  5
13954
  8
0
 10
4670.174329007227243
 20
-9.0392271334660172
 30
0.0
 11
4669.9138075831006063
 21
-9.0365179851513702
 31
0.0
  0
LINE
  5
13955
  8
0
 10
4670.1692092687526383
 20
-8.9905160756662781
 30
0.0
 11
4669.9555384413952197
 21
-8.9885361183968584
 31
0.0
  0
LINE
  5
13956
  8
0
 10
4670.5440778954716734
 20
-8.5951720550341655
 30
0.0
 11
4672.3978978904106043
 21
-8.5995496359037062
 31
0.0
  0
LINE
  5
13957
  8
0
 10
4672.4981593568190874
 20
-8.5997863917260098
 30
0.0
 11
4674.3539843231001214
 21
-8.6041687071027901
 31
0.0
  0
LINE
  5
13958
  8
0
 10
4674.4542624731748219
 20
-8.6044055023216366
 30
0.0
 11
4676.4203591564510134
 21
-8.6090482115662592
 31
0.0
  0
LINE
  5
13959
  8
0
 10
4670.2718971729882469
 20
-8.6375694378799022
 30
0.0
 11
4670.4441530217536638
 21
-8.6380173247621101
 31
0.0
  0
LINE
  5
1395A
  8
0
 10
4670.5458820472749721
 20
-8.6382818330293034
 30
0.0
 11
4672.40094341015174
 21
-8.6431052260001344
 31
0.0
  0
LINE
  5
1395B
  8
0
 10
4672.5012073735788363
 20
-8.6433659249215253
 30
0.0
 11
4674.3570620109039737
 21
-8.6481913805057431
 31
0.0
  0
LINE
  5
1395C
  8
0
 10
4674.4573419716725766
 20
-8.6484521210222347
 30
0.0
 11
4676.4234720257518347
 21
-8.6535643065662633
 31
0.0
  0
LINE
  5
1395D
  8
0
 10
4675.6029616030509715
 20
-8.7056207533662615
 30
0.0
 11
4674.4610857715997554
 21
-8.7020003621153066
 31
0.0
  0
LINE
  5
1395E
  8
0
 10
4674.3608016446078182
 20
-8.7016824047980776
 30
0.0
 11
4672.5048745549020168
 21
-8.695798067803711
 31
0.0
  0
LINE
  5
1395F
  8
0
 10
4672.4046056011793553
 20
-8.6954801585943162
 30
0.0
 11
4670.5480294606149982
 21
-8.6895937637421792
 31
0.0
  0
LINE
  5
13960
  8
0
 10
4670.4491760515393253
 20
-8.6892803426087326
 30
0.0
 11
4670.2164493516966104
 21
-8.6885424675396941
 31
0.0
  0
LINE
  5
13961
  8
0
 10
4670.1699780822964385
 20
-8.7419748278490914
 30
0.0
 11
4670.4544197213272128
 21
-8.7427951234301542
 31
0.0
  0
LINE
  5
13962
  8
0
 10
4670.5502675148463823
 20
-8.7430715369740568
 30
0.0
 11
4672.4083079845313478
 21
-8.7484299029007495
 31
0.0
  0
LINE
  5
13963
  8
0
 10
4672.5085759273197255
 20
-8.7487190636251562
 30
0.0
 11
4674.3644642215076601
 21
-8.7540712229357691
 31
0.0
  0
LINE
  5
13964
  8
0
 10
4674.4647465006128186
 20
-8.7543604250043856
 30
0.0
 11
4675.7553683846517742
 21
-8.7580824237662611
 31
0.0
  0
LINE
  5
13965
  8
0
 10
4675.7553683846517742
 20
-8.7580824237662611
 30
0.0
 11
4676.241572242123766
 21
-9.1943124499086082
 31
0.0
  0
ARC
  5
13966
  8
0
 10
4675.6035326740557139
 20
-8.9515715928484667
 30
0.0
 40
0.2459515024632973
 50
51.8778507030729514
 51
90.1330342858984039
  0
LINE
  5
13967
  8
0
 10
4675.8137640664272112
 20
-8.8104759813157258
 30
0.0
 11
4674.4683806504926906
 21
-8.8063403218144778
 31
0.0
  0
LINE
  5
13968
  8
0
 10
4674.3680968771632251
 20
-8.8060320531565779
 30
0.0
 11
4672.5121854658709708
 21
-8.8003270492367331
 31
0.0
  0
LINE
  5
13969
  8
0
 10
4672.4119152154662515
 20
-8.8000188221478126
 30
0.0
 11
4671.144204717278626
 21
-8.7961219263599162
 31
0.0
  0
LINE
  5
1396A
  8
0
 10
4672.4102468706078071
 20
-8.7761589391368275
 30
0.0
 11
4671.2552095277505941
 21
-8.770839780866261
 31
0.0
  0
LINE
  5
1396B
  8
0
 10
4671.0751380470519507
 20
-8.8467601993662601
 30
0.0
 11
4672.4154982373283929
 21
-8.8512615146195195
 31
0.0
  0
LINE
  5
1396C
  8
0
 10
4672.5157714499573558
 20
-8.851598260924554
 30
0.0
 11
4674.3717182198151932
 21
-8.8578310642896483
 31
0.0
  0
LINE
  5
1396D
  8
0
 10
4674.4720041478230996
 20
-8.8581678532965924
 30
0.0
 11
4675.8721602403156794
 21
-8.8628699803977931
 31
0.0
  0
LINE
  5
1396E
  8
0
 10
4675.9305562792605997
 20
-8.9152638584068633
 30
0.0
 11
4674.4756233764346689
 21
-8.9099343285248072
 31
0.0
  0
LINE
  5
1396F
  8
0
 10
4674.3753351503373779
 20
-8.9095669651249132
 30
0.0
 11
4672.5193503614937072
 21
-8.9027683516812566
 31
0.0
  0
LINE
  5
13970
  8
0
 10
4672.4190740449148507
 20
-8.9024010319068267
 30
0.0
 11
4671.0309541158358115
 21
-8.8973162430292554
 31
0.0
  0
LINE
  5
13971
  8
0
 10
4670.9870820208370787
 20
-8.9475154781189872
 30
0.0
 11
4672.4226327910009786
 21
-8.9532965436575864
 31
0.0
  0
LINE
  5
13972
  8
0
 10
4672.5229126224348875
 20
-8.9537003777049549
 30
0.0
 11
4674.3789431237519238
 21
-8.9611747451691741
 31
0.0
  0
LINE
  5
13973
  8
0
 10
4674.4792340629028331
 20
-8.9615786239481139
 30
0.0
 11
4675.9889530244781781
 21
-8.9676583700937211
 31
0.0
  0
LINE
  5
13974
  8
0
 10
4676.0473470129618363
 20
-9.0200504083954236
 30
0.0
 11
4674.4828329600959478
 21
-9.0130542952533972
 31
0.0
  0
LINE
  5
13975
  8
0
 10
4674.3825387423876236
 20
-9.0126058047503577
 30
0.0
 11
4672.5264520438740874
 21
-9.0043058521098516
 31
0.0
  0
LINE
  5
13976
  8
0
 10
4672.4261681376538036
 20
-9.0038574077171951
 30
0.0
 11
4670.9431351660523433
 21
-8.997225657466263
 31
0.0
  0
ARC
  5
13977
  8
0
 10
4671.252821405708346
 20
-9.0166865734640282
 30
0.0
 40
0.2458583912692523
 50
89.4434541563387029
 51
136.2783552482246137
  0
LINE
  5
13978
  8
0
 10
4670.851868935766106
 20
-9.1022287063086011
 30
0.0
 11
4670.8771622616422974
 21
-9.8265347918339216
 31
0.0
  0
LINE
  5
13979
  8
0
 10
4670.85762852435073
 20
-9.2671474727662613
 30
0.0
 11
4672.4466326949868744
 21
-9.2965318758670747
 31
0.0
  0
LINE
  5
1397A
  8
0
 10
4672.4436252464320205
 20
-9.2535207619611874
 30
0.0
 11
4670.8563172118947477
 21
-9.2296106680653125
 31
0.0
  0
LINE
  5
1397B
  8
0
 10
4670.8545187304243882
 20
-9.1781088971658722
 30
0.0
 11
4672.4396918571947026
 21
-9.1972672801906086
 31
0.0
  0
LINE
  5
1397C
  8
0
 10
4672.4369801309885588
 20
-9.1584854481581761
 30
0.0
 11
4670.853246026054876
 21
-9.1416634125663059
 31
0.0
  0
LINE
  5
1397D
  8
0
 10
4670.900764066442207
 20
-9.0462820240356265
 30
0.0
 11
4672.4299943480282309
 21
-9.0585780678123271
 31
0.0
  0
LINE
  5
1397E
  8
0
 10
4672.4317662338007722
 20
-9.0839187442747331
 30
0.0
 11
4670.8795166532818257
 21
-9.0705936938646801
 31
0.0
  0
LINE
  5
1397F
  8
0
 10
4670.8586909697123701
 20
-9.0944228131586335
 30
0.0
 11
4672.4335142087511485
 21
-9.108884525166264
 31
0.0
  0
LINE
  5
13980
  8
0
 10
4672.5302954279113692
 20
-9.0592572829725775
 30
0.0
 11
4674.3864701391848939
 21
-9.0688397726491097
 31
0.0
  0
LINE
  5
13981
  8
0
 10
4674.4867469503524262
 20
-9.0691917061662615
 30
0.0
 11
4676.1057420845290835
 21
-9.0724434184568921
 31
0.0
  0
LINE
  5
13982
  8
0
 10
4676.1641366805888538
 20
-9.1248360018849723
 30
0.0
 11
4674.4903840737943028
 21
-9.1210592272864481
 31
0.0
  0
LINE
  5
13983
  8
0
 10
4674.3900925508605724
 20
-9.1206540749027347
 30
0.0
 11
4672.5336072707350468
 21
-9.1096595380791925
 31
0.0
  0
LINE
  5
13984
  8
0
 10
4672.537298813790585
 20
-9.1593893726429023
 30
0.0
 11
4674.3937008019593122
 21
-9.1722658268911701
 31
0.0
  0
LINE
  5
13985
  8
0
 10
4674.3965622766982051
 20
-9.2131958288408597
 30
0.0
 11
4672.5400206167887518
 21
-9.1983048096223499
 31
0.0
  0
LINE
  5
13986
  8
0
 10
4672.5439749513752759
 20
-9.2548425746547522
 30
0.0
 11
4674.4008273788140286
 21
-9.27420305549904
 31
0.0
  0
LINE
  5
13987
  8
0
 10
4674.4042797530573807
 20
-9.3235851739409181
 30
0.0
 11
4672.5470033013507418
 21
-9.2981409187096151
 31
0.0
  0
LINE
  5
13988
  8
0
 10
4674.4939975272827724
 20
-9.1727430998986463
 30
0.0
 11
4676.2225627120451463
 21
-9.1772567896620174
 31
0.0
  0
LINE
  5
13989
  8
0
 10
4674.4968646334737059
 20
-9.213751833407251
 30
0.0
 11
4676.2083158423056375
 21
-9.2189742430015933
 31
0.0
  0
LINE
  5
1398A
  8
0
 10
4676.2138237654044133
 20
-9.2819300920840675
 30
0.0
 11
4674.5011426809232944
 21
-9.2749415124979571
 31
0.0
  0
LINE
  5
1398B
  8
0
 10
4674.5046043789507166
 20
-9.3245657843662642
 30
0.0
 11
4676.2184021120510806
 21
-9.3342809323662621
 31
0.0
  0
LINE
  5
1398C
  8
0
 10
4676.196335764278956
 20
-8.6529737237052693
 30
0.0
 11
4676.2944033265821417
 21
-9.8265347918339216
 31
0.0
  0
LINE
  5
1398D
  8
0
 10
4676.2775291739217209
 20
-9.8265347918339216
 30
0.0
 11
4676.2207242893318835
 21
-9.1772519891084414
 31
0.0
  0
LINE
  5
1398E
  8
0
 10
4676.2614705027399395
 20
-9.8265347918339216
 30
0.0
 11
4676.204661948577268
 21
-9.1772100465634416
 31
0.0
  0
LINE
  5
1398F
  8
0
 10
4675.4841789715610503
 20
-9.3301187804756829
 30
0.0
 11
4675.4841789714510014
 21
-9.3828159572662635
 31
0.0
  0
LINE
  5
13990
  8
0
 10
4675.4841789714510014
 20
-9.3828159572662635
 30
0.0
 11
4675.5213530532491859
 21
-9.3828159587662618
 31
0.0
  0
LINE
  5
13991
  8
0
 10
4675.5204368081858775
 20
-9.3303243182950908
 30
0.0
 11
4675.5231661522157083
 21
-9.4866883175308914
 31
0.0
  0
LINE
  5
13992
  8
0
 10
4675.5822121578521546
 20
-9.5447126655662551
 30
0.0
 11
4676.2368142616196565
 21
-9.544712666266264
 31
0.0
  0
ARC
  5
13993
  8
0
 10
4675.5822121578976294
 20
-9.4856576654530187
 30
0.0
 40
0.0590550001132388
 50
181.000000726910713
 51
269.9999999550288976
  0
LINE
  5
13994
  8
0
 10
4670.5019392229087316
 20
-7.5882785021441812
 30
0.0
 11
4672.2946129928932351
 21
-7.5601112399273296
 31
0.0
  0
LINE
  5
13995
  8
0
 10
4672.456070510968857
 20
-7.558231032376713
 30
0.0
 11
4674.2484842024168756
 21
-7.5436364808581331
 31
0.0
  0
LINE
  5
13996
  8
0
 10
4674.4113381273482446
 20
-7.5429039452570228
 30
0.0
 11
4676.3139241945673348
 21
-7.5388534801993394
 31
0.0
  0
ARC
  5
13997
  8
0
 10
4666.7786244398412236
 20
-8.1315614034607933
 30
0.0
 40
0.3656705132213784
 50
211.9468623002069023
 51
235.1569369908264946
  0
ARC
  5
13998
  8
0
 10
5827.065305689095112
 20
-176.9969844404888875
 30
0.0
 40
1152.4333629053289769
 50
170.9534421536700961
 51
171.4447373608429928
  0
ARC
  5
13999
  8
0
 10
4684.7936342600405624
 20
-5.043713042299081
 30
0.0
 40
2.7107063295264102
 50
307.2319373950255113
 51
349.0797252329527964
  0
ARC
  5
1399A
  8
0
 10
4684.6544092343037846
 20
-4.8868509834634386
 30
0.0
 40
2.8650272544768631
 50
299.1737962206141219
 51
308.3392154464910959
  0
ARC
  5
1399B
  8
0
 10
4684.8118737019067339
 20
-5.4843724696495144
 30
0.0
 40
2.1104525126967131
 50
281.8054393324921989
 51
305.6844453186225792
  0
ARC
  5
1399C
  8
0
 10
4683.801339494545573
 20
-4.60058318605219
 30
0.0
 40
3.0313801637623592
 50
274.52374587855752
 51
298.292744348135102
  0
ARC
  5
1399D
  8
0
 10
4684.7956532169291677
 20
-5.2889337728820394
 30
0.0
 40
3.4876195216684471
 50
270.5513170880818734
 51
290.7609694905164019
  0
ARC
  5
1399E
  8
0
 10
4684.7803603843540259
 20
-5.5714362342321158
 30
0.0
 40
3.254761269433704
 50
270.1120491376800032
 51
291.436029004811985
  0
ARC
  5
1399F
  8
0
 10
4684.6847835127882718
 20
-5.3666033927643459
 30
0.0
 40
3.5093489136773171
 50
270.7383887032017924
 51
287.3067729204526017
  0
ARC
  5
139A0
  8
0
 10
4684.6229202539916514
 20
-5.5346604010506359
 30
0.0
 40
3.3902530775668911
 50
270.5907634380162108
 51
288.3671738989453956
  0
ARC
  5
139A1
  8
0
 10
4684.5154272569179739
 20
-5.4817468385633674
 30
0.0
 40
3.4919484202949631
 50
270.8045186960525257
 51
287.8711137175989165
  0
ARC
  5
139A2
  8
0
 10
4684.4041741664759684
 20
-5.6152777723101082
 30
0.0
 40
3.4063938743615561
 50
270.7502487329389282
 51
279.3435941238079181
  0
ARC
  5
139A3
  8
0
 10
4684.2651447845937582
 20
-5.6577556486909373
 30
0.0
 40
3.4111290533814751
 50
270.8277521715227181
 51
281.4723701679698138
  0
ARC
  5
139A4
  8
0
 10
4684.1090772706038479
 20
-5.6969474935002671
 30
0.0
 40
3.4178797439827511
 50
270.9416522636622062
 51
283.8260383445294792
  0
ARC
  5
139A5
  8
0
 10
4683.9773906206501124
 20
-5.733254226941475
 30
0.0
 40
3.4168242908784041
 50
271.0314955185933172
 51
288.2326486813548172
  0
ARC
  5
139A6
  8
0
 10
4683.6964770208869595
 20
-5.3476179676099838
 30
0.0
 40
3.855615762163731
 50
268.8992136933489974
 51
284.3872538594130788
  0
LINE
  5
139A7
  8
0
 10
4685.2381430791274397
 20
-7.2698267411656872
 30
0.0
 11
4685.2441374490208545
 21
-7.5750546561094358
 31
0.0
  0
LINE
  5
139A8
  8
0
 10
4686.0429443919520054
 20
-7.198570464166262
 30
0.0
 11
4686.050996519956243
 21
-7.3884355058113611
 31
0.0
  0
LINE
  5
139A9
  8
0
 10
4686.4316315318901616
 20
-7.1340408005145974
 30
0.0
 11
4686.4448879552237486
 21
-7.5634551083613486
 31
0.0
  0
ARC
  5
139AA
  8
0
 10
4684.3001391193656673
 20
-7.4870884243568732
 30
0.0
 40
1.7536345216544249
 50
355.0271641250583912
 51
3.2249487977773121
  0
ARC
  5
139AB
  8
0
 10
4685.3181957003689604
 20
-7.540536069858625
 30
0.0
 40
1.1269253389095719
 50
318.8016104560086887
 51
358.8346568547373181
  0
ARC
  5
139AC
  8
0
 10
4684.0943600362606958
 20
-7.4808507854660924
 30
0.0
 40
1.153630126167553
 50
295.216284128314328
 51
355.3160890332126201
  0
ARC
  5
139AD
  8
0
 10
4684.9255751507353125
 20
-7.5212137495390676
 30
0.0
 40
1.127775832416301
 50
305.8556860683221998
 51
353.9999457558724885
  0
ARC
  5
139AE
  8
0
 10
4684.8363915146883301
 20
-7.3332700842654504
 30
0.0
 40
1.332878374015009
 50
269.3033867295828259
 51
304.2303932166001914
  0
ARC
  5
139AF
  8
0
 10
4685.3424922404647077
 20
-7.569294872425643
 30
0.0
 40
1.0897158714994291
 50
281.6888776147196722
 51
319.0979304448958942
  0
ARC
  5
139B0
  8
0
 10
4684.7818037970528167
 20
-5.305442896194065
 30
0.0
 40
3.4214091173406058
 50
270.58160189149811
 51
283.203097552821589
  0
ARC
  5
139B1
  8
0
 10
4684.609725168775185
 20
-6.4422461264444868
 30
0.0
 40
2.5579441974717918
 50
277.8076861865985165
 51
299.7130175409295134
  0
ARC
  5
139B2
  8
0
 10
4684.2820203783230681
 20
-5.6869586205297216
 30
0.0
 40
3.3791700942567289
 50
281.2904348897718023
 51
289.9029974181004263
  0
ARC
  5
139B3
  8
0
 10
4684.529639211952599
 20
-5.2807441794428618
 30
0.0
 40
3.3977511483020391
 50
270.4151648696072812
 51
274.9054473729942174
  0
ARC
  5
139B4
  8
0
 10
4684.0160718483703022
 20
-6.9935959134567334
 30
0.0
 40
1.6335410381253359
 50
270.1371108958314835
 51
290.4138433243284112
  0
LINE
  5
139B5
  8
0
 10
4684.5542590806471708
 20
-8.6784061296452748
 30
0.0
 11
4682.7619301600825565
 21
-8.6906836799617793
 31
0.0
  0
LINE
  5
139B6
  8
0
 10
4684.8165334727482332
 20
-8.7266757438452771
 30
0.0
 11
4682.8537399604192615
 21
-8.7412312423788165
 31
0.0
  0
LINE
  5
139B7
  8
0
 10
4684.8292116148468267
 20
-8.7763918388452744
 30
0.0
 11
4682.8555165441139252
 21
-8.7921059440664564
 31
0.0
  0
LINE
  5
139B8
  8
0
 10
4684.7867254772800152
 20
-8.8261912797920292
 30
0.0
 11
4682.8572821901952921
 21
-8.8426674334758069
 31
0.0
  0
LINE
  5
139B9
  8
0
 10
4684.7300083424115655
 20
-8.8756608891177073
 30
0.0
 11
4682.859036775255845
 21
-8.8929121767066484
 31
0.0
  0
LINE
  5
139BA
  8
0
 10
4684.6578757444940493
 20
-8.9247332680603702
 30
0.0
 11
4682.8607764651305843
 21
-8.9427303775764813
 31
0.0
  0
LINE
  5
139BB
  8
0
 10
4684.5644578399378588
 20
-8.9733510217332224
 30
0.0
 11
4682.8624964292948789
 21
-8.9919837080504337
 31
0.0
  0
LINE
  5
139BC
  8
0
 10
4684.4487772712482183
 20
-9.0213796190452733
 30
0.0
 11
4682.8641891754759854
 21
-9.0404576173917945
 31
0.0
  0
LINE
  5
139BD
  8
0
 10
4684.3144236544476371
 20
-9.0685287299452746
 30
0.0
 11
4682.8658447368397901
 21
-9.0878666929026224
 31
0.0
  0
LINE
  5
139BE
  8
0
 10
4684.0389003617474373
 20
-9.1495248231452742
 30
0.0
 11
4682.8686706188191238
 21
-9.1687893666354352
 31
0.0
  0
LINE
  5
139BF
  8
0
 10
4684.1652473644480779
 20
-9.1143656512452758
 30
0.0
 11
4682.8674468433737275
 21
-9.1337450223392693
 31
0.0
  0
ARC
  5
139C0
  8
0
 10
4683.4680477098718256
 20
-5.0010677286462411
 30
0.0
 40
4.2365415705151186
 50
269.5516760899166115
 51
280.5004583995350913
  0
LINE
  5
139C1
  8
0
 10
4681.583812753420716
 20
-8.5986361852437838
 30
0.0
 11
4680.506766758177946
 21
-8.6011795044210864
 31
0.0
  0
LINE
  5
139C2
  8
0
 10
4680.4065357480039893
 20
-8.6014161883245208
 30
0.0
 11
4678.5022283197376964
 21
-8.6059129894111752
 31
0.0
  0
LINE
  5
139C3
  8
0
 10
4678.4019852214760249
 20
-8.6061781926296028
 30
0.0
 11
4676.5207862490506159
 21
-8.6116638467662625
 31
0.0
  0
LINE
  5
139C4
  8
0
 10
4681.6269917222807635
 20
-8.6418151540779817
 30
0.0
 11
4680.5098117936458948
 21
-8.6447199624701803
 31
0.0
  0
LINE
  5
139C5
  8
0
 10
4680.4095818513360427
 20
-8.6449805729323863
 30
0.0
 11
4678.505306044484314
 21
-8.6499319296503359
 31
0.0
  0
LINE
  5
139C6
  8
0
 10
4678.4050598424000782
 20
-8.6501568320553641
 30
0.0
 11
4676.5237159794523905
 21
-8.6535609441662622
 31
0.0
  0
LINE
  5
139C7
  8
0
 10
4677.3732066688517079
 20
-8.7055346877662636
 30
0.0
 11
4678.4088024679904265
 21
-8.7036904498278176
 31
0.0
  0
LINE
  5
139C8
  8
0
 10
4678.5090461867057456
 20
-8.7034250489455047
 30
0.0
 11
4680.413246252935096
 21
-8.6973876593537867
 31
0.0
  0
LINE
  5
139C9
  8
0
 10
4680.5134729257406434
 20
-8.6970698841987701
 30
0.0
 11
4681.6785524922352124
 21
-8.6933759240036022
 31
0.0
  0
LINE
  5
139CA
  8
0
 10
4681.7316753697432432
 20
-8.7464988014796567
 30
0.0
 11
4680.51717472337441
 21
-8.7500012757193861
 31
0.0
  0
LINE
  5
139CB
  8
0
 10
4680.4169453063823312
 20
-8.7502903253400106
 30
0.0
 11
4678.5127068845486065
 21
-8.7557819206213452
 31
0.0
  0
LINE
  5
139CC
  8
0
 10
4678.4124634848667483
 20
-8.7560567561539315
 30
0.0
 11
4677.2189727553914054
 21
-8.758939094432705
 31
0.0
  0
LINE
  5
139CD
  8
0
 10
4677.1659280355706869
 20
-8.8118773199145242
 30
0.0
 11
4678.4160973258585727
 21
-8.8080343451592888
 31
0.0
  0
LINE
  5
139CE
  8
0
 10
4678.5163387351558413
 20
-8.8077262067268833
 30
0.0
 11
4680.4205520443047135
 21
-8.8018727245365085
 31
0.0
  0
LINE
  5
139CF
  8
0
 10
4680.5207808459099397
 20
-8.8015646248596831
 30
0.0
 11
4681.7828616029828481
 21
-8.7976850346904278
 31
0.0
  0
LINE
  5
139D0
  8
0
 10
4680.519110575922241
 20
-8.7776817108267267
 30
0.0
 11
4681.7571568495222891
 21
-8.7719802812441401
 31
0.0
  0
LINE
  5
139D1
  8
0
 10
4681.8335560445184456
 20
-8.8483794761953192
 30
0.0
 11
4680.5243623616388504
 21
-8.852776125347507
 31
0.0
  0
LINE
  5
139D2
  8
0
 10
4680.4241348405921599
 20
-8.8531127182070648
 30
0.0
 11
4678.5199591887603674
 21
-8.8595074880373268
 31
0.0
  0
LINE
  5
139D3
  8
0
 10
4678.4197194348189441
 20
-8.8598441219784672
 30
0.0
 11
4677.1179502860668435
 21
-8.8642158374083948
 31
0.0
  0
LINE
  5
139D4
  8
0
 10
4677.0699798454297706
 20
-8.9165463817211048
 30
0.0
 11
4678.4233370018046116
 21
-8.9115889315239301
 31
0.0
  0
LINE
  5
139D5
  8
0
 10
4678.5235749566527375
 20
-8.9112217522714516
 30
0.0
 11
4680.4277102285223009
 21
-8.9042467599462451
 31
0.0
  0
LINE
  5
139D6
  8
0
 10
4680.5279363241861574
 20
-8.9038796241348521
 30
0.0
 11
4681.8840885039062414
 21
-8.8989119355545796
 31
0.0
  0
LINE
  5
139D7
  8
0
 10
4681.9342596682836302
 20
-8.9490830999025945
 30
0.0
 11
4680.5314927342287774
 21
-8.9547321425903803
 31
0.0
  0
LINE
  5
139D8
  8
0
 10
4680.431268482176165
 20
-8.9551357528156146
 30
0.0
 11
4678.5271814695279318
 21
-8.9628036472851775
 31
0.0
  0
LINE
  5
139D9
  8
0
 10
4678.426945729347608
 20
-8.9632073037739133
 30
0.0
 11
4677.0220203015360312
 21
-8.9688650388703142
 31
0.0
  0
LINE
  5
139DA
  8
0
 10
4676.9740784676559997
 20
-9.0211643763169818
 30
0.0
 11
4678.4305422755242034
 21
-9.0146514366802677
 31
0.0
  0
LINE
  5
139DB
  8
0
 10
4678.530775234765315
 20
-9.0142032201096818
 30
0.0
 11
4680.4348032518892069
 21
-9.0056888859565447
 31
0.0
  0
LINE
  5
139DC
  8
0
 10
4680.5350250904302811
 20
-9.0052407191149282
 30
0.0
 11
4681.9839381130977927
 21
-8.9987615446895077
 31
0.0
  0
LINE
  5
139DD
  8
0
 10
4682.1851051524563445
 20
-9.2662716998839336
 30
0.0
 11
4680.555388166879311
 21
-9.2964089781424697
 31
0.0
  0
LINE
  5
139DE
  8
0
 10
4680.5524090980043184
 20
-9.2538117654769607
 30
0.0
 11
4682.1812576447491665
 21
-9.2292759344678501
 31
0.0
  0
LINE
  5
139DF
  8
0
 10
4682.1635731366768596
 20
-9.1783965681638193
 30
0.0
 11
4680.5485000071321338
 21
-9.1979163222564146
 31
0.0
  0
LINE
  5
139E0
  8
0
 10
4680.5458000412072579
 20
-9.1593099564660871
 30
0.0
 11
4682.12768413968206
 21
-9.1425075711895012
 31
0.0
  0
LINE
  5
139E1
  8
0
 10
4682.0328722600588662
 20
-9.0476956916208362
 30
0.0
 11
4680.5388343551639991
 21
-9.0597087649321981
 31
0.0
  0
LINE
  5
139E2
  8
0
 10
4680.5406021223379867
 20
-9.0849857750771683
 30
0.0
 11
4682.0571438219922129
 21
-9.0719672535388547
 31
0.0
  0
LINE
  5
139E3
  8
0
 10
4682.080928379062243
 20
-9.0957518105968198
 30
0.0
 11
4680.5423431713179525
 21
-9.1098807462271871
 31
0.0
  0
LINE
  5
139E4
  8
0
 10
4680.4386401956653572
 20
-9.0605636148030086
 30
0.0
 11
4678.5347038997842901
 21
-9.0703926733443438
 31
0.0
  0
LINE
  5
139E5
  8
0
 10
4678.4344668281619306
 20
-9.0707872952656317
 30
0.0
 11
4676.9258124245070576
 21
-9.0738173908867452
 31
0.0
  0
LINE
  5
139E6
  8
0
 10
4676.8778348367186481
 20
-9.1261557319664171
 30
0.0
 11
4678.4380915927449678
 21
-9.1226350574895498
 31
0.0
  0
LINE
  5
139E7
  8
0
 10
4678.5383229433737142
 20
-9.1221537880238301
 30
0.0
 11
4680.4421583299108534
 21
-9.1108788328775034
 31
0.0
  0
LINE
  5
139E8
  8
0
 10
4680.4456272282250211
 20
-9.1604898945835913
 30
0.0
 11
4678.5419265714817811
 21
-9.1736944238639815
 31
0.0
  0
LINE
  5
139E9
  8
0
 10
4678.5447829923086829
 20
-9.2145481804632396
 30
0.0
 11
4680.4483395094021034
 21
-9.1992800627087767
 31
0.0
  0
LINE
  5
139EA
  8
0
 10
4680.4522734027568731
 20
-9.2555413330782024
 30
0.0
 11
4678.5490366235862894
 21
-9.2753854405908776
 31
0.0
  0
LINE
  5
139EB
  8
0
 10
4678.5524730641864153
 20
-9.3245348889233775
 30
0.0
 11
4680.4552748420683201
 21
-9.2984669473164168
 31
0.0
  0
LINE
  5
139EC
  8
0
 10
4678.4417030631666421
 20
-9.1742926632095596
 30
0.0
 11
4676.8337436324645751
 21
-9.1784914230169719
 31
0.0
  0
LINE
  5
139ED
  8
0
 10
4678.4445679657355868
 20
-9.2152715416571276
 30
0.0
 11
4676.8360906821890239
 21
-9.2201797313586695
 31
0.0
  0
LINE
  5
139EE
  8
0
 10
4676.8396250910582239
 20
-9.2829579184540343
 30
0.0
 11
4678.4488409671394038
 21
-9.2763915277096451
 31
0.0
  0
LINE
  5
139EF
  8
0
 10
4678.4523028351286484
 20
-9.3259092561849144
 30
0.0
 11
4676.8425570032359246
 21
-9.3350345565031372
 31
0.0
  0
LINE
  5
139F0
  8
0
 10
4678.2795067067509081
 20
-7.3800930548662613
 30
0.0
 11
4678.4524274354889712
 21
-7.3674726887473412
 31
0.0
  0
LINE
  5
139F1
  8
0
 10
4678.4524274354889712
 20
-7.3674726887473412
 30
0.0
 11
4678.4982509131523329
 21
-8.5490264133662635
 31
0.0
  0
LINE
  5
139F2
  8
0
 10
4678.4982509131523329
 20
-8.5490264133662635
 30
0.0
 11
4678.5534564835506899
 21
-9.3386001747662633
 31
0.0
  0
LINE
  5
139F3
  8
0
 10
4678.5534564835506899
 20
-9.3386001747662633
 30
0.0
 11
4678.4532711755509808
 21
-9.3397601650662612
 31
0.0
  0
LINE
  5
139F4
  8
0
 10
4678.4532711755509808
 20
-9.3397601650662612
 30
0.0
 11
4678.398094270151887
 21
-8.5505229591662602
 31
0.0
  0
LINE
  5
139F5
  8
0
 10
4678.398094270151887
 20
-8.5505229591662602
 30
0.0
 11
4678.2795067067509081
 21
-7.3800930548662613
 31
0.0
  0
LINE
  5
139F6
  8
0
 10
4680.285486819050675
 20
-7.392433211466261
 30
0.0
 11
4680.4571806703552284
 21
-7.3644795705800021
 31
0.0
  0
LINE
  5
139F7
  8
0
 10
4680.4571806703552284
 20
-7.3644795705800021
 30
0.0
 11
4680.4946674175507724
 21
-8.4281730358662621
 31
0.0
  0
LINE
  5
139F8
  8
0
 10
4680.4946674175507724
 20
-8.4281730358662621
 30
0.0
 11
4680.5583143623507567
 21
-9.3382501627662613
 31
0.0
  0
LINE
  5
139F9
  8
0
 10
4680.5583143623507567
 20
-9.3382501627662613
 30
0.0
 11
4680.4582192484522238
 21
-9.3405768950662633
 31
0.0
  0
LINE
  5
139FA
  8
0
 10
4680.4582192484522238
 20
-9.3405768950662633
 30
0.0
 11
4680.3952179994075777
 21
-8.4395534085345396
 31
0.0
  0
LINE
  5
139FB
  8
0
 10
4680.3952179994075777
 20
-8.4395534085345396
 30
0.0
 11
4680.285486819050675
 21
-7.392433211466261
 31
0.0
  0
LINE
  5
139FC
  8
0
 10
4676.29624187720583
 20
-7.3642489434110772
 30
0.0
 11
4676.4704558021521734
 21
-7.3644514333662618
 31
0.0
  0
LINE
  5
139FD
  8
0
 10
4676.4704558021521734
 20
-7.3644514333662618
 30
0.0
 11
4676.5161768776506506
 21
-8.5454433317662648
 31
0.0
  0
LINE
  5
139FE
  8
0
 10
4676.5161768776506506
 20
-8.5454433317662648
 30
0.0
 11
4676.5257887553207183
 21
-8.6832025333913343
 31
0.0
  0
LINE
  5
139FF
  8
0
 10
4676.5257887553207183
 20
-8.6832025333913343
 30
0.0
 11
4676.5446016265514118
 21
-9.2055010592662612
 31
0.0
  0
LINE
  5
13A00
  8
0
 10
4676.5446016265514118
 20
-9.2055010592662612
 30
0.0
 11
4676.480568086319181
 21
-9.21217197697149
 31
0.0
  0
LINE
  5
13A01
  8
0
 10
4676.480568086319181
 20
-9.21217197697149
 30
0.0
 11
4676.4255316449462043
 21
-8.6830185649017189
 31
0.0
  0
LINE
  5
13A02
  8
0
 10
4676.4255311351507771
 20
-8.6830185639662645
 30
0.0
 11
4676.4203591564510134
 21
-8.6090482115662592
 31
0.0
  0
LINE
  5
13A03
  8
0
 10
4676.4203591564510134
 20
-8.6090482115662592
 30
0.0
 11
4676.4160212421520555
 21
-8.5470136289662602
 31
0.0
  0
LINE
  5
13A04
  8
0
 10
4676.4160212421520555
 20
-8.5470136289662602
 30
0.0
 11
4676.29624187720583
 21
-7.3642489434110772
 31
0.0
  0
LINE
  5
13A05
  8
0
 10
4676.4772071979996326
 20
-7.5388424272793868
 30
0.0
 11
4678.2959221992696257
 21
-7.5421099037313084
 31
0.0
  0
LINE
  5
13A06
  8
0
 10
4678.459230375216066
 20
-7.5428857997442647
 30
0.0
 11
4680.3027492835926751
 21
-7.5571619167847848
 31
0.0
  0
LINE
  5
13A07
  8
0
 10
4676.8041615033253038
 20
-8.6530535047645323
 30
0.0
 11
4676.8702284424853133
 21
-9.8265347918339216
 31
0.0
  0
LINE
  5
13A08
  8
0
 10
4676.8543618704989058
 20
-9.5447126648717102
 30
0.0
 11
4677.2861457840508592
 21
-9.5447126623662601
 31
0.0
  0
LINE
  5
13A09
  8
0
 10
4677.3478889177040401
 20
-9.3321699393763051
 30
0.0
 11
4677.3451917897509702
 21
-9.4866883140662637
 31
0.0
  0
LINE
  5
13A0A
  8
0
 10
4677.3470048881763432
 20
-9.3828159628662622
 30
0.0
 11
4677.3841789714506376
 21
-9.3828159629431767
 31
0.0
  0
LINE
  5
13A0B
  8
0
 10
4677.3841789714506376
 20
-9.3828159629431767
 30
0.0
 11
4677.384178971556139
 21
-9.3319642189244032
 31
0.0
  0
ARC
  5
13A0C
  8
0
 10
4677.2861457840508592
 20
-9.4856576623662612
 30
0.0
 40
0.0590550000000081
 50
270.0000003324631166
 51
358.9999996239980078
  0
ARC
  5
13A0D
  8
0
 10
4677.3734634976290181
 20
-8.9556952624768016
 30
0.0
 40
0.2501607065478657
 50
90.0588230173843556
 51
128.1386065892538113
  0
ARC
  5
13A0E
  8
0
 10
4677.5134355320187751
 20
-9.1070390604767546
 30
0.0
 40
0.4559406904186337
 50
130.2283626118762925
 51
139.6564929363231897
  0
LINE
  5
13A0F
  8
0
 10
4677.1659280355706869
 20
-8.8118773199145242
 30
0.0
 11
4676.833518893911787
 21
-9.1744996157828176
 31
0.0
  0
LINE
  5
13A10
  8
0
 10
4680.496554049351289
 20
-8.4551498234662645
 30
0.0
 11
4681.1876134247959271
 21
-8.3605829179276299
 31
0.0
  0
LINE
  5
13A11
  8
0
 10
4681.4249177040519498
 20
-8.4397411359662602
 30
0.0
 11
4682.1920635300712092
 21
-9.2068869615414428
 31
0.0
  0
LINE
  5
13A12
  8
0
 10
4682.1774047281323874
 20
-9.1922281596097921
 30
0.0
 11
4682.2431211820521639
 21
-9.8265347918339216
 31
0.0
  0
LINE
  5
13A13
  8
0
 10
4682.2431211820521639
 20
-9.8265347918339216
 30
0.0
 11
4682.0086608349511152
 21
-6.9897219155662631
 31
0.0
  0
ARC
  5
13A14
  8
0
 10
4679.468305987770691
 20
-0.581203781891766
 30
0.0
 40
6.893657042472344
 50
278.2588708720584805
 51
291.6235156392252748
  0
LINE
  5
13A15
  8
0
 10
4682.2431211820521639
 20
-9.8265347918339216
 30
0.0
 11
4682.8916395947353521
 21
-9.8265347918339216
 31
0.0
  0
LINE
  5
13A16
  8
0
 10
4682.8916395947353521
 20
-9.8265347918339216
 30
0.0
 11
4682.851953266327655
 21
-8.690067016801418
 31
0.0
  0
LINE
  5
13A17
  8
0
 10
4682.8214575944293756
 20
-9.8265347918339216
 30
0.0
 11
4682.6599281486505788
 21
-6.7443693566662608
 31
0.0
  0
ARC
  5
13A18
  8
0
 10
4682.6335896657810736
 20
-7.2632007867217183
 30
0.0
 40
0.6821486172988774
 50
124.8763275484738955
 51
156.3650427098330908
  0
ARC
  5
13A19
  8
0
 10
4682.4957619837214224
 20
-6.7548704587327961
 30
0.0
 40
0.1645016803940034
 50
3.6600125491751099
 51
121.6154839821066957
  0
LINE
  5
13A1A
  8
0
 10
4682.1983461236522999
 20
-6.2579772918662613
 30
0.0
 11
4682.3886876788283189
 21
-6.0735606802066391
 31
0.0
  0
LINE
  5
13A1B
  8
0
 10
4682.3886876788283189
 20
-6.0735606802066391
 30
0.0
 11
4682.5039613964054297
 21
-9.0672790858961179
 31
0.0
  0
LINE
  5
13A1C
  8
0
 10
4682.5039613964054297
 20
-9.0672790858961179
 30
0.0
 11
4682.4829913815392501
 21
-9.0649625892766501
 31
0.0
  0
LINE
  5
13A1D
  8
0
 10
4682.4829913815392501
 20
-9.0649625892766501
 30
0.0
 11
4682.1983461244517457
 21
-6.2579772918662613
 31
0.0
  0
LINE
  5
13A1E
  8
0
 10
4682.2354838920900875
 20
-6.7092707107759892
 30
0.0
 11
4682.4829913815392501
 21
-9.0649625892766501
 31
0.0
  0
LINE
  5
13A1F
  8
0
 10
4682.4176584933520644
 20
-6.6100925334662639
 30
0.0
 11
4682.5039613963926968
 21
-9.0672790858947678
 31
0.0
  0
LINE
  5
13A20
  8
0
 10
4682.3281658900896218
 20
-7.5381748865421327
 30
0.0
 11
4682.4447690018378125
 21
-7.5300218097480238
 31
0.0
  0
LINE
  5
13A21
  8
0
 10
4682.3299124907798614
 20
-7.5553987198408663
 30
0.0
 11
4682.4457403298038116
 21
-7.5552477022850786
 31
0.0
  0
LINE
  5
13A22
  8
0
 10
4682.3438501503451334
 20
-7.6928427998198892
 30
0.0
 11
4682.449231538593267
 21
-7.645916210505451
 31
0.0
  0
LINE
  5
13A23
  8
0
 10
4682.3467341327632312
 20
-7.7212827475945316
 30
0.0
 11
4682.4500108759521027
 21
-7.66615600708759
 31
0.0
  0
ARC
  5
13A24
  8
0
 10
4682.6091629779130017
 20
-3.6026011963848461
 30
0.0
 40
3.9904056131392358
 50
271.3667732709652114
 51
291.094609994942175
  0
ARC
  5
13A25
  8
0
 10
4682.775931565161045
 20
-6.2839551446001556
 30
0.0
 40
2.3089443556263238
 50
269.5252825156744052
 51
280.0678555137682793
  0
ARC
  5
13A26
  8
0
 10
4682.9210488630287728
 20
-7.4554904113181202
 30
0.0
 40
1.1317755152733771
 50
283.2040258145361804
 51
6.5902161793798486
  0
ARC
  5
13A27
  8
0
 10
4685.420647662203919
 20
-7.56603695052027
 30
0.0
 40
1.1395680441651801
 50
333.9563100494178229
 51
1.9008677847624611
  0
ARC
  5
13A28
  8
0
 10
4685.4080097166288397
 20
-7.5985515964834986
 30
0.0
 40
1.137178397419609
 50
293.5061235568877009
 51
335.708030266343485
  0
ARC
  5
13A29
  8
0
 10
4685.363082088293595
 20
-7.6486727517858561
 30
0.0
 40
1.1292471023463351
 50
288.8950058268865746
 51
302.5015899865948086
  0
ARC
  5
13A2A
  8
0
 10
4685.2037479239888853
 20
-7.4829053624088502
 30
0.0
 40
1.3596810143900511
 50
291.0087171995336917
 51
312.9659368347395798
  0
ARC
  5
13A2B
  8
0
 10
4681.2289107165488531
 20
-8.6320600770258658
 30
0.0
 40
0.2746002808048107
 50
44.4558618978160567
 51
98.6495611212129262
  0
LINE
  5
13A2C
  8
0
 10
4682.8714891790887123
 20
-9.2495023740586184
 30
0.0
 11
4683.4348982612282271
 21
-9.2374796057843938
 31
0.0
  0
LINE
  5
13A2D
  8
0
 10
4683.6224061560506016
 20
-9.2025221703662616
 30
0.0
 11
4682.8702738455704093
 21
-9.2146997649076106
 31
0.0
  0
LINE
  5
13A2E
  8
0
 10
4684.0199809680862018
 20
-8.6271322742466161
 30
0.0
 11
4682.7591019341170977
 21
-8.6367179137069563
 31
0.0
  0
LINE
  5
13A2F
  8
0
 10
4686.559588617650661
 20
-7.5282371186662607
 30
0.0
 11
4686.5441257695601962
 21
-7.11342516721822
 31
0.0
  0
ARC
  5
13A30
  8
0
 10
6051.5019602141401265
 20
-481.9696281326970961
 30
0.0
 40
1454.2393169338809003
 50
160.421889916178003
 51
160.468952530661511
  0
LINE
  5
13A31
  8
0
 10
4682.3158352180516886
 20
4.208184026633738
 30
0.0
 11
4680.9388911665519117
 21
4.2081836596337894
 31
0.0
  0
ARC
  5
13A32
  8
0
 10
4680.5430648716046562
 20
4.7851125235987899
 30
0.0
 40
1.88076522583394
 50
354.8888616556816942
 51
4.2770834479631343
  0
ARC
  5
13A33
  8
0
 10
4680.7580065543188539
 20
4.853387375546788
 30
0.0
 40
1.795223743267538
 50
350.4765241953605823
 51
2.2983020254170619
  0
ARC
  5
13A34
  8
0
 10
4682.1588397345285557
 20
4.4028781218962081
 30
0.0
 40
0.2038970254440512
 50
287.279923762721296
 51
343.2089940374559092
  0
ARC
  5
13A35
  8
0
 10
4681.4430894897059261
 20
4.6953313790056859
 30
0.0
 40
0.9763646506268329
 50
338.9083540491433268
 51
355.4312644118073194
  0
ARC
  5
13A36
  8
0
 10
4681.807730473956326
 20
4.6614353942818161
 30
0.0
 40
0.7283761212740857
 50
327.859456954515224
 51
351.7059434493513095
  0
ARC
  5
13A37
  8
0
 10
4682.315343290832061
 20
4.3118500544644851
 30
0.0
 40
0.1036671949972366
 50
270.2718840739208872
 51
295.7253439964233053
  0
ARC
  5
13A38
  8
0
 10
4682.2801377254691033
 20
4.3759876931022461
 30
0.0
 40
0.1767715976548863
 50
296.9819857989169805
 51
324.740484830665423
  0
LINE
  5
13A39
  8
0
 10
4682.4185922470787773
 20
4.9253797637778538
 30
0.0
 11
4682.388908862549215
 21
5.3337967067337351
 31
0.0
  0
LINE
  5
13A3A
  8
0
 10
4682.551786190851999
 20
4.9253797637337371
 30
0.0
 11
4682.5373466476266913
 21
5.3337967067337351
 31
0.0
  0
LINE
  5
13A3B
  8
0
 10
4686.3689148023413509
 20
5.2286070863337812
 30
0.0
 11
4686.3689148023458984
 21
5.228607086250185
 31
0.0
  0
LINE
  5
13A3C
  8
0
 10
4686.3625301825322822
 20
5.3337967067337351
 30
0.0
 11
4686.3873195761489114
 21
4.9253797637825301
 31
0.0
  0
LINE
  5
13A3D
  8
0
 10
4686.5401073004532009
 20
4.9253797636785128
 30
0.0
 11
4686.5327969882819161
 21
5.3337967067337351
 31
0.0
  0
LINE
  5
13A3E
  8
0
 10
4690.559178969651839
 20
6.4256259247337359
 30
0.0
 11
4690.559178969651839
 21
4.958184026633738
 31
0.0
  0
LINE
  5
13A3F
  8
0
 10
4689.9793887533505767
 20
4.2081819650337371
 30
0.0
 11
4682.8708497062507377
 21
4.2081839330337374
 31
0.0
  0
LINE
  5
13A40
  8
0
 10
4682.8708497062507377
 20
4.2081839330337374
 30
0.0
 11
4683.6164599755447853
 21
5.3337967067337351
 31
0.0
  0
LINE
  5
13A41
  8
0
 10
4682.4143128433188394
 20
4.260899746351356
 30
0.0
 11
4682.9086521192011787
 21
4.2652524588368124
 31
0.0
  0
ARC
  5
13A42
  8
0
 10
4689.8073307779886818
 20
4.9585235385968636
 30
0.0
 40
0.751848268319026
 50
318.4409780121054041
 51
359.9741269561131958
  0
ARC
  5
13A43
  8
0
 10
4689.5375140814030601
 20
4.9292216874164998
 30
0.0
 40
0.9556656116636373
 50
330.5774360126405895
 51
1.739634765473957
  0
LINE
  5
13A44
  8
0
 10
4690.4039951362055945
 20
4.9466612578097928
 30
0.0
 11
4690.3856593553409766
 21
5.3337967067337351
 31
0.0
  0
LINE
  5
13A45
  8
0
 10
4690.4930752132058842
 20
4.943352671324603
 30
0.0
 11
4690.484259552938056
 21
5.3337967067337351
 31
0.0
  0
ARC
  5
13A46
  8
0
 10
4689.9061254823709533
 20
4.5971879093102066
 30
0.0
 40
0.3890372661779453
 50
270.7272774172388949
 51
303.1604128224951182
  0
ARC
  5
13A47
  8
0
 10
4689.4337702698830981
 20
4.9064830897696501
 30
0.0
 40
0.9710564228805203
 50
337.3581749538636814
 51
3.0519814228834932
  0
ARC
  5
13A48
  8
0
 10
4689.7918448223235828
 20
4.7517244044460929
 30
0.0
 40
0.5810229307792254
 50
304.2590220626310042
 51
337.8496322615894769
  0
ARC
  5
13A49
  8
0
 10
4689.908852254948215
 20
4.7233039687610443
 30
0.0
 40
0.5310748741489619
 50
291.5689524873873211
 51
330.2472847207421864
  0
ARC
  5
13A4A
  8
0
 10
4689.9786501278667856
 20
4.5892622059057677
 30
0.0
 40
0.3810809566885873
 50
270.1110529104503257
 51
289.2177384266146873
  0
ARC
  5
13A4B
  8
0
 10
4690.6777451831158032
 20
3.8699237114565861
 30
0.0
 40
2.5584510450515019
 50
92.6562077998890459
 51
98.2838333852312331
  0
ARC
  5
13A4C
  8
0
 10
4690.0184550447511356
 20
9.3875657926619027
 30
0.0
 40
3.0000000000281668
 50
270.0
 51
275.5602299728956268
  0
ARC
  5
13A4D
  8
0
 10
4685.9258994337942568
 20
4.5823777505678152
 30
0.0
 40
0.3742002920115147
 50
270.3394722698873807
 51
310.3965351695744062
  0
ARC
  5
13A4E
  8
0
 10
4686.0483090023608383
 20
4.5886619833184019
 30
0.0
 40
0.3804827072163574
 50
270.2863141163376213
 51
304.4897904098880872
  0
ARC
  5
13A4F
  8
0
 10
4685.8792859370687438
 20
4.7921699329657343
 30
0.0
 40
0.644380270555282
 50
306.6309533294107155
 51
347.6789137845403275
  0
ARC
  5
13A50
  8
0
 10
4685.7456312582144164
 20
4.766030974491513
 30
0.0
 40
0.6311579524675858
 50
312.0550540429945841
 51
347.875505829242627
  0
ARC
  5
13A51
  8
0
 10
4685.5424263434633758
 20
4.9035046948321499
 30
0.0
 40
0.997920743604766
 50
345.5605036492128193
 51
1.256061195066775
  0
ARC
  5
13A52
  8
0
 10
4685.4054220685266046
 20
4.8611616913699294
 30
0.0
 40
0.9839952624126588
 50
346.6204633363461198
 51
3.741930045891356
  0
LINE
  5
13A53
  8
0
 10
4669.2842467797900099
 20
-9.8265347918339216
 30
0.0
 11
4669.7815578223817283
 21
-9.8265347918339216
 31
0.0
  0
LINE
  5
13A54
  8
0
 10
4670.2570783765104352
 20
-9.8265347918339216
 30
0.0
 11
4670.8771622616422974
 21
-9.8265347918339216
 31
0.0
  0
LINE
  5
13A55
  8
0
 10
4676.2614705027399395
 20
-9.8265347918339216
 30
0.0
 11
4676.8702284424853133
 21
-9.8265347918339216
 31
0.0
  0
LINE
  5
13A57
  8
0
 10
4661.681923063623799
 20
5.3337967067337351
 30
0.0
 11
4666.3057974163912149
 21
5.3337967067337351
 31
0.0
  0
LINE
  5
13A58
  8
0
 10
4666.4760186777539275
 20
5.3337967067337351
 30
0.0
 11
4670.2993930115426338
 21
5.3337967067337351
 31
0.0
  0
LINE
  5
13A59
  8
0
 10
4670.4478101563408927
 20
5.3337967067337351
 30
0.0
 11
4682.388908862549215
 21
5.3337967067337351
 31
0.0
  0
LINE
  5
13A5A
  8
0
 10
4682.5373466476266913
 20
5.3337967067337351
 30
0.0
 11
4686.3625301825322822
 21
5.3337967067337351
 31
0.0
  0
LINE
  5
13A5B
  8
0
 10
4686.5327969882819161
 20
5.3337967067337351
 30
0.0
 11
4690.3856593553409766
 21
5.3337967067337351
 31
0.0
  0
LINE
  5
13A5C
  8
0
 10
4690.484259552938056
 20
5.3337967067337351
 30
0.0
 11
4690.559178969651839
 21
5.3337967067337351
 31
0.0
  0
ENDSEC
  0
EOF
