  0
SECTION
  2
HEADER
  9
$ACADVER
  1
AC1009
  9
$INSBASE
 10
4718.2701518632511579
 20
-12.3237091116172408
 30
0.0
  9
$EXTMIN
 10
4688.2701311926557537
 20
-41.5537091734775501
 30
0.0
  9
$EXTMAX
 10
4748.2701733457643059
 20
-12.3191665056295996
 30
0.0
  9
$LIMMIN
 10
0.0
 20
0.0
  9
$LIMMAX
 10
11.6929133858000007
 20
8.2677165353999982
  9
$ORTHOMODE
 70
     0
  9
$REGENMODE
 70
     1
  9
$FILLMODE
 70
     1
  9
$QTEXTMODE
 70
     0
  9
$MIRRTEXT
 70
     0
  9
$DRAGMODE
 70
     2
  9
$LTSCALE
 40
0.6431102362
  9
$OSMODE
 70
  4095
  9
$ATTMODE
 70
     1
  9
$TEXTSIZE
 40
0.2
  9
$TRACEWID
 40
0.05
  9
$TEXTSTYLE
  7
STANDARD
  9
$CLAYER
  8
0
  9
$CELTYPE
  6
BYLAYER
  9
$CECOLOR
 62
   256
  9
$DIMSCALE
 40
1.0
  9
$DIMASZ
 40
0.1875
  9
$DIMEXO
 40
0.0625
  9
$DIMDLI
 40
0.4443307087
  9
$DIMRND
 40
0.0
  9
$DIMDLE
 40
0.0
  9
$DIMEXE
 40
0.125
  9
$DIMTP
 40
0.01
  9
$DIMTM
 40
0.01
  9
$DIMTXT
 40
2.0
  9
$DIMCEN
 40
0.1052362205
  9
$DIMTSZ
 40
0.0
  9
$DIMTOL
 70
     1
  9
$DIMLIM
 70
     0
  9
$DIMTIH
 70
     1
  9
$DIMTOH
 70
     1
  9
$DIMSE1
 70
     0
  9
$DIMSE2
 70
     0
  9
$DIMTAD
 70
     0
  9
$DIMZIN
 70
     0
  9
$DIMBLK
  1

  9
$DIMASO
 70
     1
  9
$DIMSHO
 70
     1
  9
$DIMPOST
  1
\X
  9
$DIMAPOST
  1

  9
$DIMALT
 70
     1
  9
$DIMALTD
 70
     2
  9
$DIMALTF
 40
25.3999999999999986
  9
$DIMLFAC
 40
1.0
  9
$DIMTOFL
 70
     0
  9
$DIMTVP
 40
0.0
  9
$DIMTIX
 70
     0
  9
$DIMSOXD
 70
     0
  9
$DIMSAH
 70
     0
  9
$DIMBLK1
  1

  9
$DIMBLK2
  1

  9
$DIMSTYLE
  2
STANDARD
  9
$DIMCLRD
 70
     0
  9
$DIMCLRE
 70
     0
  9
$DIMCLRT
 70
     0
  9
$DIMTFAC
 40
1.0
  9
$DIMGAP
 40
0.09
  9
$LUNITS
 70
     2
  9
$LUPREC
 70
     4
  9
$SKETCHINC
 40
0.1
  9
$FILLETRAD
 40
0.0
  9
$AUNITS
 70
     0
  9
$AUPREC
 70
     0
  9
$MENU
  1
.
  9
$ELEVATION
 40
0.0
  9
$PELEVATION
 40
0.0
  9
$THICKNESS
 40
0.0
  9
$LIMCHECK
 70
     0
  9
$BLIPMODE
 70
     0
  9
$CHAMFERA
 40
0.0
  9
$CHAMFERB
 40
0.0
  9
$SKPOLY
 70
     0
  9
$TDCREATE
 40
2458060.468368056230247
  9
$TDUPDATE
 40
2459446.6412731488235295
  9
$TDINDWG
 40
0.4633982639
  9
$TDUSRTIMER
 40
0.4633982639
  9
$USRTIMER
 70
     1
  9
$ANGBASE
 50
0.0
  9
$ANGDIR
 70
     0
  9
$PDMODE
 70
     0
  9
$PDSIZE
 40
0.3125
  9
$PLINEWID
 40
0.0
  9
$COORDS
 70
     1
  9
$SPLFRAME
 70
     0
  9
$SPLINETYPE
 70
     6
  9
$SPLINESEGS
 70
     8
  9
$ATTDIA
 70
     1
  9
$ATTREQ
 70
     1
  9
$HANDLING
 70
     1
  9
$HANDSEED
  5
13792
  9
$SURFTAB1
 70
     6
  9
$SURFTAB2
 70
     6
  9
$SURFTYPE
 70
     6
  9
$SURFU
 70
     6
  9
$SURFV
 70
     6
  9
$UCSNAME
  2

  9
$UCSORG
 10
0.0
 20
0.0
 30
0.0
  9
$UCSXDIR
 10
1.0
 20
0.0
 30
0.0
  9
$UCSYDIR
 10
0.0
 20
1.0
 30
0.0
  9
$PUCSNAME
  2

  9
$PUCSORG
 10
0.0
 20
0.0
 30
0.0
  9
$PUCSXDIR
 10
1.0
 20
0.0
 30
0.0
  9
$PUCSYDIR
 10
0.0
 20
1.0
 30
0.0
  9
$USERI1
 70
     0
  9
$USERI2
 70
     0
  9
$USERI3
 70
     0
  9
$USERI4
 70
     0
  9
$USERI5
 70
     0
  9
$USERR1
 40
0.0
  9
$USERR2
 40
0.0
  9
$USERR3
 40
0.0
  9
$USERR4
 40
0.0
  9
$USERR5
 40
0.0
  9
$WORLDVIEW
 70
     1
  9
$SHADEDGE
 70
     3
  9
$SHADEDIF
 70
    70
  9
$TILEMODE
 70
     1
  9
$MAXACTVP
 70
    64
  9
$PLIMCHECK
 70
     0
  9
$PEXTMIN
 10
1.0000000000000000E+20
 20
1.0000000000000000E+20
 30
1.0000000000000000E+20
  9
$PEXTMAX
 10
-1.0000000000000000E+20
 20
-1.0000000000000000E+20
 30
-1.0000000000000000E+20
  9
$PLIMMIN
 10
0.0
 20
0.0
  9
$PLIMMAX
 10
12.0
 20
9.0
  9
$UNITMODE
 70
     0
  9
$VISRETAIN
 70
     1
  9
$PLINEGEN
 70
     0
  9
$PSLTSCALE
 70
     1
  0
ENDSEC
  0
SECTION
  2
TABLES
  0
TABLE
  2
VPORT
 70
     1
  0
VPORT
  2
*ACTIVE
 70
     0
 10
0.0
 20
0.0
 11
1.0
 21
1.0
 12
931.9633292328287553
 22
-138.3876928198174028
 13
0.0
 23
0.0
 14
1.0
 24
1.0
 15
0.0
 25
0.0
 16
0.0
 26
0.0
 36
5.1040778033513332
 17
3792.35791015625
 27
120.1806564331053977
 37
0.0
 40
124.7390856491735036
 41
2.000833333333333
 42
50.0
 43
0.0
 44
0.0
 50
0.0
 51
0.0
 71
     0
 72
   100
 73
     1
 74
     1
 75
     0
 76
     0
 77
     0
 78
     0
  0
ENDTAB
  0
TABLE
  2
LTYPE
 70
     2
  0
LTYPE
  2
CONTINUOUS
 70
     0
  3
Solid line
 72
    65
 73
     0
 40
0.0
  0
LTYPE
  2
PHANTOM2
 70
     0
  3
___ _ _ ___ _ _ ___ _ _ ___ _ _
 72
    65
 73
     6
 40
1.25
 49
0.625
 49
-0.125
 49
0.125
 49
-0.125
 49
0.125
 49
-0.125
  0
ENDTAB
  0
TABLE
  2
LAYER
 70
     2
  0
LAYER
  2
0
 70
     0
 62
   255
  6
CONTINUOUS
  0
LAYER
  2
DEFPOINTS
 70
     0
 62
     7
  6
CONTINUOUS
  0
ENDTAB
  0
TABLE
  2
STYLE
 70
     1
  0
STYLE
  2
STANDARD
 70
     0
 40
0.0
 41
0.8
 50
0.0
 71
     0
 42
0.2
  3
txt
  4

  0
ENDTAB
  0
TABLE
  2
VIEW
 70
     0
  0
ENDTAB
  0
TABLE
  2
UCS
 70
     0
  0
ENDTAB
  0
TABLE
  2
APPID
 70
     9
  0
APPID
  2
ACAD
 70
     0
  0
APPID
  2
ACAD_MLEADERVER
 70
     0
  0
APPID
  2
ACAD_EXEMPT_FROM_CAD_STANDARDS
 70
     0
  0
APPID
  2
ACAD_NAV_VCDISPLAY
 70
     0
  0
APPID
  2
ACAECLAYERSTANDARD
 70
     0
  0
APPID
  2
ACCMTRANSPARENCY
 70
     0
  0
APPID
  2
ACAD_DSTYLE_DIMJAG
 70
     0
  0
APPID
  2
ACAD_DSTYLE_DIMTALN
 70
     0
  0
APPID
  2
ACDBATTR
 70
     0
  0
ENDTAB
  0
TABLE
  2
DIMSTYLE
 70
     1
  0
DIMSTYLE
  2
STANDARD
 70
     0
  3

  4

  5

  6

  7

 40
1.0
 41
0.1875
 42
0.0625
 43
0.38
 44
0.125
 45
0.0
 46
0.0
 47
0.01
 48
0.01
140
0.15625
141
0.09
142
0.0
143
25.3999999999999986
144
1.0
145
0.0
146
1.0
147
0.09
 71
     1
 72
     0
 73
     1
 74
     1
 75
     0
 76
     0
 77
     0
 78
     4
170
     0
171
     2
172
     0
173
     0
174
     0
175
     0
176
     0
177
     0
178
     0
  0
ENDTAB
  0
ENDSEC
  0
SECTION
  2
BLOCKS
  0
BLOCK
  8
0
  2
$MODEL_SPACE
 70
     0
 10
0.0
 20
0.0
 30
0.0
  3
$MODEL_SPACE
  1

  0
ENDBLK
  5
21
  8
0
  0
BLOCK
 67
     1
  8
0
  2
$PAPER_SPACE
 70
     0
 10
0.0
 20
0.0
 30
0.0
  3
$PAPER_SPACE
  1

  0
ENDBLK
  5
1D
 67
     1
  8
0
  0
ENDSEC
  0
SECTION
  2
ENTITIES
  0
ATTDEF
  5
3930
  8
DEFPOINTS
 10
4718.2709381498771108
 20
-12.3201665056296008
 30
0.0
 40
0.001
  1
71041110
  3

  2
MODELNUMBER
 70
     0
1001
ACDBATTR
1070
     0
1070
     1
  0
ATTDEF
  5
3931
  8
DEFPOINTS
 10
4718.2709381498771108
 20
-12.3218331722962695
 30
0.0
 40
0.001
  1
PERFORMA
  3

  2
TRADENAME
 70
     0
1001
ACDBATTR
1070
     0
1070
     1
  0
ATTDEF
  5
3932
  8
DEFPOINTS
 10
4718.2709381498771108
 20
-12.3234998389629293
 30
0.0
 40
0.001
  1
BATH
  3

  2
PRODUCT
 70
     0
1001
ACDBATTR
1070
     0
1070
     1
  0
ARC
  5
13608
  8
0
 10
4688.5184639745266395
 20
-12.5730564848869406
 30
0.0
 40
0.2493474569484334
 50
89.9530600434379153
 51
148.673330394159791
  0
ARC
  5
13609
  8
0
 10
4688.6444837714207097
 20
-12.6051937288506508
 30
0.0
 40
0.3756382672249718
 50
154.4897379136529878
 51
175.1993410413653862
  0
LINE
  5
1360A
  8
0
 10
4688.2701632820007944
 20
-12.5737568237149606
 30
0.0
 11
4688.2701632820007944
 21
-12.8775229643099198
 31
0.0
  0
LINE
  5
1360B
  8
0
 10
4688.2701632820007944
 20
-12.8775229644172295
 30
0.0
 11
4688.2701632820007944
 21
-39.7759586012172406
 31
0.0
  0
ARC
  5
1360C
  8
0
 10
4701.3479241885797819
 20
-39.8049295282857472
 30
0.0
 40
13.0777929959246997
 50
179.8730739041531876
 51
182.2114750075917868
  0
ARC
  5
1360D
  8
0
 10
4987.8414238836712684
 20
-27.4421056018931502
 30
0.0
 40
299.837781923835621
 50
182.4595904671994049
 51
182.575979822278498
  0
LINE
  5
1360E
  8
0
 10
4688.3066281636092754
 20
-40.9180702036119328
 30
0.0
 11
4688.3082600339021155
 21
-41.0130005458172278
 31
0.0
  0
ARC
  5
1360F
  8
0
 10
4688.5210973836037738
 20
-41.1867317783392082
 30
0.0
 40
0.2509348194711254
 50
167.3155661978533999
 51
179.8629497726388138
  0
ARC
  5
13610
  8
0
 10
4687.960094696847591
 20
-40.9765275097094275
 30
0.0
 40
0.3481688832381591
 50
339.6335316022497182
 51
347.1292260037257051
  0
ARC
  5
13611
  8
0
 10
4688.5205284217327062
 20
-41.1866271809052122
 30
0.0
 40
0.2503567769704155
 50
159.193806448315712
 51
167.3103279801096903
  0
ARC
  5
13612
  8
0
 10
4687.9591473500659049
 20
-40.9761918047095435
 30
0.0
 40
0.3491672264841009
 50
347.1101508587138937
 51
353.948712121644121
  0
LINE
  5
13613
  8
0
 10
4688.3063689920018078
 20
-41.0130005458172633
 30
0.0
 11
4688.4651054458017825
 21
-41.0130005458172633
 31
0.0
  0
LINE
  5
13614
  8
0
 10
4688.3898582028386954
 20
-40.3095608635026394
 30
0.0
 11
4688.4651054458017825
 21
-40.9180702052346135
 31
0.0
  0
LINE
  5
13615
  8
0
 10
4688.4651054458017825
 20
-40.9180702052346135
 30
0.0
 11
4688.4651054459018269
 21
-41.0130005458172278
 31
0.0
  0
ARC
  5
13616
  8
0
 10
4693.2699217166536982
 20
-39.8021002438549871
 30
0.0
 40
4.9063770930655091
 50
179.6947213255880058
 51
185.936649663173398
  0
LINE
  5
13617
  8
0
 10
4688.3636142666009619
 20
-39.7759586063172321
 30
0.0
 11
4688.3636191006471563
 21
-12.8775229643172207
 31
0.0
  0
ARC
  5
13618
  8
0
 10
4688.5128870606922646
 20
-12.5609802177535492
 30
0.0
 40
0.1440523948333621
 50
89.2644238692370777
 51
125.3015075871861939
  0
ARC
  5
13619
  8
0
 10
4688.5174205132816496
 20
-12.5720510785164894
 30
0.0
 40
0.1557307284581097
 50
124.308907147913402
 51
180.3380708426643935
  0
ARC
  5
1361A
  8
0
 10
4664.3237932633601304
 20
-12.8773165077281195
 30
0.0
 40
24.0398258381735417
 50
359.9995079377324032
 51
0.7253895672298216
  0
ARC
  5
1361B
  8
0
 10
4688.7320206392487307
 20
-25.8667809240218602
 30
0.0
 40
0.8379766613973814
 50
261.4709877632168968
 51
269.9079751282690722
  0
ARC
  5
1361C
  8
0
 10
4688.7529763372604066
 20
-26.8306757874287101
 30
0.0
 40
0.1258459000534883
 50
359.3373463547027882
 51
89.3271295369937235
  0
LINE
  5
1361D
  8
0
 10
4688.7306747345019176
 20
-26.7047565045652995
 30
0.0
 11
4688.7544542130008267
 21
-26.7048385654172407
 31
0.0
  0
LINE
  5
1361E
  8
0
 10
4688.8788138208019518
 20
-26.8321312242172283
 30
0.0
 11
4688.8795606985650011
 21
-29.2770019010681395
 31
0.0
  0
ARC
  5
1361F
  8
0
 10
4688.7536937404665878
 20
-29.2786633766125313
 30
0.0
 40
0.1258779235682611
 50
270.7215729286277224
 51
0.7562747944849675
  0
ARC
  5
13620
  8
0
 10
4688.5341105153966055
 20
-29.4918701070022387
 30
0.0
 40
0.0552211786064413
 50
112.8013287308059063
 51
148.3277955327912139
  0
ARC
  5
13621
  8
0
 10
4688.6403227852279088
 20
-29.715023443366011
 30
0.0
 40
0.3023134221183503
 50
98.6932354110982999
 51
114.9684994696528975
  0
ARC
  5
13622
  8
0
 10
4688.731556756525606
 20
-30.2207266655568212
 30
0.0
 40
0.8161123406100825
 50
90.0619230304129701
 51
99.6587355960419643
  0
LINE
  5
13623
  8
0
 10
4688.7306747345019176
 20
-29.4046148015741906
 30
0.0
 11
4688.7552789829023823
 21
-29.404531317917229
 31
0.0
  0
ARC
  5
13624
  8
0
 10
4688.6701570195709792
 20
-26.2696905565765206
 30
0.0
 40
0.4303502003641861
 50
251.7894965679697918
 51
261.6605572809070281
  0
ARC
  5
13625
  8
0
 10
4688.5222350753720093
 20
-26.6276000597496498
 30
0.0
 40
0.0401414245662888
 50
208.4753884585099968
 51
234.8540583654219915
  0
ARC
  5
13626
  8
0
 10
4688.5798981532980179
 20
-26.5430192911427483
 30
0.0
 40
0.142504842875191
 50
235.4730156447272122
 51
251.9183674347910085
  0
LINE
  5
13627
  8
0
 10
4688.4810490610007037
 20
-12.6081615878172304
 30
0.0
 11
4688.4789067980009349
 21
-39.5424997885172402
 31
0.0
  0
ARC
  5
13628
  8
0
 10
4604.8587651378120427
 20
-39.3913778980765272
 30
0.0
 40
83.6202782170450405
 50
358.953867554209296
 51
359.8964527337990944
  0
LINE
  5
13629
  8
0
 10
4688.2995132459718661
 20
-41.0540831280639935
 30
0.0
 11
4748.2407904805304497
 21
-41.0540831280639935
 31
0.0
  0
LINE
  5
1362A
  8
0
 10
4688.2701632820007944
 20
-41.1861315484167818
 30
0.0
 11
4688.2701632820007944
 21
-41.2487549163691227
 31
0.0
  0
LINE
  5
1362B
  8
0
 10
4688.2701632820007944
 20
-41.2487549163691227
 30
0.0
 11
4688.4051000875024329
 21
-41.5193733760172208
 31
0.0
  0
LINE
  5
1362C
  8
0
 10
4688.460588677981832
 20
-41.5537091732699722
 30
0.0
 11
4748.0797150485213933
 21
-41.5537091116172306
 31
0.0
  0
ARC
  5
1362D
  8
0
 10
4688.4605861762502172
 20
-41.4917089674715527
 30
0.0
 40
0.0620002060060012
 50
206.5000539624116982
 51
270.0046885483221217
  0
ARC
  5
1362E
  8
0
 10
4691.8988858536249609
 20
-17.1445059172019008
 30
0.0
 40
1.1284357842075829
 50
104.929425364840796
 51
157.0552194011488041
  0
ARC
  5
1362F
  8
0
 10
4691.7527099302269562
 20
-17.0982113161744813
 30
0.0
 40
0.5106745644129155
 50
100.4091289155801974
 51
162.2080392443326105
  0
ARC
  5
13630
  8
0
 10
4692.1117977671847257
 20
-17.1521915353257306
 30
0.0
 40
1.32836126706913
 50
165.7409564201228989
 51
175.9352063794443097
  0
ARC
  5
13631
  8
0
 10
4692.6913757825650464
 20
-17.3080116562971504
 30
0.0
 40
1.9284808571466781
 50
161.7659844592402862
 51
165.4953725438647041
  0
ARC
  5
13632
  8
0
 10
4784.2258525716733857
 20
-23.9933938829103184
 30
0.0
 40
93.696104079239845
 50
175.7550981841118016
 51
179.8962372366391094
  0
ARC
  5
13633
  8
0
 10
4770.9827984119247049
 20
-28.6379533623808413
 30
0.0
 40
80.4662799033943941
 50
179.6160304737281876
 51
185.1749992213086102
  0
ARC
  5
13634
  8
0
 10
4841.3383441556788966
 20
-26.3696167113949791
 30
0.0
 40
150.829930129948707
 50
179.0328403120279859
 51
180.6568452196893872
  0
ARC
  5
13635
  8
0
 10
4691.8704707802871781
 20
-35.804828071277818
 30
0.0
 40
1.06718784954368
 50
215.3395296402707118
 51
260.2197818412018933
  0
ARC
  5
13636
  8
0
 10
4692.0655586920120186
 20
-35.8365937714146412
 30
0.0
 40
1.2158978405587311
 50
190.6345860289081884
 51
208.7867961641279919
  0
ARC
  5
13637
  8
0
 10
4692.2333001178540144
 20
-35.7615150148131775
 30
0.0
 40
1.3952711714595121
 50
185.5250326343052905
 51
192.393785564254614
  0
ARC
  5
13638
  8
0
 10
5711.8366990205377078
 20
7355.0072552231740701
 30
0.0
 40
7461.9267490955026005
 50
262.1422742602625817
 51
262.1674507038048887
  0
ARC
  5
13639
  8
0
 10
4728.6969644422715646
 20
210.4567176688655934
 30
0.0
 40
250.0502200932668018
 50
262.2407266851113263
 51
266.17343406687678
  0
ARC
  5
1363A
  8
0
 10
4723.9963807183157769
 20
141.0452753399057997
 30
0.0
 40
180.4798299774975874
 50
266.1917914367327853
 51
269.3197354110184278
  0
ARC
  5
1363B
  8
0
 10
4723.3923686277194065
 20
75.8777653254338986
 30
0.0
 40
115.309866815569805
 50
269.2353956464183966
 51
273.4158140031876201
  0
ARC
  5
1363C
  8
0
 10
4734.4112041901998964
 20
-27.844472358576251
 30
0.0
 40
10.9500237126257094
 50
289.6893534770707106
 51
304.0700782465802945
  0
ARC
  5
1363D
  8
0
 10
4734.220990413277832
 20
-27.1817531191741786
 30
0.0
 40
11.63816664016319
 50
274.704534038174188
 51
289.4717965760546008
  0
ARC
  5
1363E
  8
0
 10
4725.5790037787928668
 20
39.5517182004148822
 30
0.0
 40
78.9180740645726644
 50
273.4024728741360946
 51
276.9845111668165032
  0
ARC
  5
1363F
  8
0
 10
4733.9472845403433894
 20
-27.1398220689079714
 30
0.0
 40
11.7936182641121192
 50
304.0192594487002111
 51
318.2216664926340854
  0
ARC
  5
13640
  8
0
 10
4733.1119619040264297
 20
-26.4940324194598986
 30
0.0
 40
12.8470180664770002
 50
318.5559373876267273
 51
359.987903163910687
  0
ARC
  5
13641
  8
0
 10
4732.6927824663307547
 20
-26.7639773909653691
 30
0.0
 40
11.9536227606026593
 50
327.4540414316804799
 51
1.511041562759442
  0
ARC
  5
13642
  8
0
 10
4733.5074563861699062
 20
-27.1627831886336502
 30
0.0
 40
11.0528087123876499
 50
304.6346147180883008
 51
326.9247784552047165
  0
ARC
  5
13643
  8
0
 10
4730.7778812676397138
 20
-12.93451252294002
 30
0.0
 40
25.4927483878820986
 50
274.6585445572969775
 51
282.6221870404036167
  0
ARC
  5
13644
  8
0
 10
4733.7676350884448766
 20
-27.5120542092080314
 30
0.0
 40
10.6175721129929599
 50
284.0685689887334888
 51
304.55060354000301
  0
ARC
  5
13645
  8
0
 10
4723.5230347112110394
 20
58.1341835990128786
 30
0.0
 40
96.9268619025076816
 50
272.5333551587307852
 51
275.5209474756571808
  0
ARC
  5
13646
  8
0
 10
4723.6337912041335585
 20
54.7202303619425692
 30
0.0
 40
93.5113583793925756
 50
268.757479045879677
 51
272.5580180538649984
  0
ARC
  5
13647
  8
0
 10
4765.9019682289399498
 20
624.457414472560572
 30
0.0
 40
665.162421964776172
 50
264.479477770108474
 51
264.8323618670490873
  0
ARC
  5
13648
  8
0
 10
4724.4064039074683024
 20
177.3767789130239976
 30
0.0
 40
216.1640588972213095
 50
265.1128777468928206
 51
269.2577274339602127
  0
ARC
  5
13649
  8
0
 10
4703.1827511708097518
 20
-20.3031812685233604
 30
0.0
 40
17.3532792266693292
 50
259.102475171671415
 51
261.5031218072803085
  0
ARC
  5
1364A
  8
0
 10
4703.8295762095058308
 20
-15.9917916754184297
 30
0.0
 40
21.7129187822572582
 50
261.4960134263524196
 51
264.932867484833821
  0
ARC
  5
1364B
  8
0
 10
4844.3040384045825704
 20
1133.7387306093789903
 30
0.0
 40
1179.9515339166550802
 50
262.5712201054358275
 51
262.9705920889365984
  0
ARC
  5
1364C
  8
0
 10
4691.7628762512604226
 20
-35.8239370749664303
 30
0.0
 40
0.4460666553969205
 50
183.7175108849166065
 51
211.9650624085504944
  0
ARC
  5
1364D
  8
0
 10
4691.8123542958146572
 20
-35.8255993534711834
 30
0.0
 40
0.4879438174477614
 50
208.7219883419618043
 51
261.9160852652589142
  0
ARC
  5
1364E
  8
0
 10
4765.4080488745639741
 20
-29.1281056772633704
 30
0.0
 40
74.3948584302580116
 50
181.7610632026060102
 51
185.1862000268166923
  0
ARC
  5
1364F
  8
0
 10
4746.0906300422639106
 20
-26.9457383947372513
 30
0.0
 40
55.0995051543425802
 50
179.4831538809534948
 51
181.1990164256083915
  0
ARC
  5
13650
  8
0
 10
4776.942001288443862
 20
-28.9080792546669585
 30
0.0
 40
85.932624721102485
 50
180.1104301227335043
 51
181.6713313965180987
  0
ARC
  5
13651
  8
0
 10
4655.0818583187292461
 20
-28.8200620259555116
 30
0.0
 40
35.9285731698322905
 50
359.5955118842308025
 51
1.078085087002653
  0
ARC
  5
13652
  8
0
 10
4789.0576159411857589
 20
-23.7725715018719299
 30
0.0
 40
98.0437786793640242
 50
176.0938654066704885
 51
178.5693966602418072
  0
ARC
  5
13653
  8
0
 10
4782.5059682104383683
 20
-26.2400155754726185
 30
0.0
 40
91.5128395129980845
 50
178.9985495154247985
 51
180.1306633068780059
  0
ARC
  5
13654
  8
0
 10
4763.0987024264450156
 20
-23.4269073231327916
 30
0.0
 40
72.0849615992817832
 50
178.3289279831539034
 51
180.1896682737659035
  0
ARC
  5
13655
  8
0
 10
4815.9599982202007595
 20
-25.0537733807635909
 30
0.0
 40
124.9535743833486947
 50
179.3634276531894898
 51
179.8105353667733937
  0
ARC
  5
13656
  8
0
 10
4698.0293853301973286
 20
-27.9847371928191215
 30
0.0
 40
7.0271203289749291
 50
180.9293181006561042
 51
205.0566954996951949
  0
ARC
  5
13657
  8
0
 10
4702.1595308628347993
 20
-25.6522612559611503
 30
0.0
 40
11.7620397040917304
 50
206.8290719481435076
 51
247.2353042980132045
  0
ARC
  5
13658
  8
0
 10
4704.5821716486307196
 20
-21.1116198630463714
 30
0.0
 40
16.8931416225212416
 50
245.6175000061084859
 51
253.9162567408820053
  0
ARC
  5
13659
  8
0
 10
4732.5635858093255592
 20
-26.1488685795825617
 30
0.0
 40
12.0823851241383995
 50
358.5777165372040258
 51
32.2740599387163698
  0
ARC
  5
1365A
  8
0
 10
4732.3928635623060472
 20
-26.7097040190727988
 30
0.0
 40
12.5320552647998706
 50
34.025512639955501
 51
53.7061931351751127
  0
ARC
  5
1365B
  8
0
 10
4730.5272663707646643
 20
-40.570767316502419
 30
0.0
 40
26.1582373168919808
 50
77.1320907538113829
 51
84.90036152726924
  0
ARC
  5
1365C
  8
0
 10
4732.9710088640431422
 20
-27.3194773104047997
 30
0.0
 40
12.7082408495531993
 50
57.4370479350521919
 51
74.5670104299845633
  0
ARC
  5
1365D
  8
0
 10
4723.5087083660437202
 20
-103.3024452909116064
 30
0.0
 40
89.2766747911774132
 50
83.9924122975104268
 51
87.2379298679405935
  0
ARC
  5
1365E
  8
0
 10
4723.3197014656770989
 20
-97.1427246354171103
 30
0.0
 40
83.1346364430295353
 50
86.9032454606387006
 51
91.1822222011651604
  0
ARC
  5
1365F
  8
0
 10
4675.5838304017561313
 20
272.3959343606749144
 30
0.0
 40
288.8758725738945827
 50
275.2291640956585752
 51
276.0417476344965166
  0
ARC
  5
13660
  8
0
 10
4724.6975146440408935
 20
-214.8105871140263901
 30
0.0
 40
200.8086250475593886
 50
90.8825643194913084
 51
95.3457921521632841
  0
ARC
  5
13661
  8
0
 10
4703.0781981010395612
 20
-32.0691314807124712
 30
0.0
 40
16.78439172681286
 50
98.4087111167564217
 51
100.8857686230144992
  0
ARC
  5
13662
  8
0
 10
4693.2573031432857533
 20
39.6600950581751235
 30
0.0
 40
55.615281426747373
 50
277.6114115131277913
 51
278.9524168782521087
  0
ARC
  5
13663
  8
0
 10
4742.8062639447125548
 20
-400.4003344549316807
 30
0.0
 40
387.1972460360569244
 50
96.3608934936230384
 51
97.5905219414594427
  0
ARC
  5
13664
  8
0
 10
4698.0403929577269082
 20
-24.9165888165738814
 30
0.0
 40
7.0386996065949603
 50
154.9532641429800037
 51
177.7526816104781915
  0
ARC
  5
13665
  8
0
 10
4702.8155608401139034
 20
-27.7383790592199517
 30
0.0
 40
12.5708322174766494
 50
115.3325919594172007
 51
152.5148418246016888
  0
ARC
  5
13666
  8
0
 10
4702.0770103690501855
 20
-26.6377863219578614
 30
0.0
 40
11.2617846179285994
 50
101.1022266509043988
 51
114.3322214694059937
  0
ARC
  5
13667
  8
0
 10
4692.0260031283360149
 20
-17.144639895332709
 30
0.0
 40
0.7860665947119153
 50
165.0737751394350141
 51
176.2787524269558901
  0
ARC
  5
13668
  8
0
 10
4654.8648404172499795
 20
254.3133413098067876
 30
0.0
 40
272.8528153073041835
 50
277.7391648279007086
 51
278.4449338096559927
  0
ARC
  5
13669
  8
0
 10
4726.9696299222905509
 20
-244.0755919708450961
 30
0.0
 40
230.7291185070210133
 50
93.7180502084594309
 51
97.9806067524217639
  0
ARC
  5
1366A
  8
0
 10
4723.5293397643963544
 20
-191.4330517627273878
 30
0.0
 40
177.9742879199108074
 50
90.5395001639177792
 51
93.7118191968033329
  0
ARC
  5
1366B
  8
0
 10
4723.1474997439863728
 20
-128.7810811846555055
 30
0.0
 40
115.3216871398019947
 50
86.4629340648259301
 51
90.6428927167990679
  0
ARC
  5
1366C
  8
0
 10
4734.7082695165900077
 20
-25.6302544223300686
 30
0.0
 40
11.4224395691341893
 50
58.8221911002574416
 51
72.6906210554666501
  0
ARC
  5
1366D
  8
0
 10
4733.6485106671252652
 20
-29.3310922912623013
 30
0.0
 40
15.2712469611277903
 50
73.0258527173107694
 51
84.2705310415586126
  0
ARC
  5
1366E
  8
0
 10
4725.4166432046331465
 20
-92.3522118444932403
 30
0.0
 40
78.8222201293753102
 50
82.8898351247217136
 51
86.4755599008840932
  0
ARC
  5
1366F
  8
0
 10
4735.0791444344586125
 20
-24.9487244693109282
 30
0.0
 40
10.6474054060366292
 50
42.6087740343516899
 51
58.6310636908823568
  0
ARC
  5
13670
  8
0
 10
4733.2607669412673204
 20
-26.0032977138778385
 30
0.0
 40
12.7077966971557004
 50
357.7746303255465818
 51
40.557494609393629
  0
ARC
  5
13671
  8
0
 10
4691.6307868865987984
 20
-26.4499135566352983
 30
0.0
 40
0.2979846870373792
 50
160.2326621681644099
 51
199.3719594677654072
  0
ARC
  5
13672
  8
0
 10
4691.0353666939590767
 20
-26.4478591540431616
 30
0.0
 40
0.3301032272898533
 50
342.2027779139706922
 51
17.4018437219402315
  0
ARC
  5
13673
  8
0
 10
4714.9987813875095526
 20
-26.0862246844887302
 30
0.0
 40
22.1649063402150013
 50
172.8513852143827023
 51
180.9370558359507868
  0
ARC
  5
13674
  8
0
 10
4698.7817134767401512
 20
-24.5239780882821705
 30
0.0
 40
5.8980842221004606
 50
133.2112484003760926
 51
168.3002631714772122
  0
ARC
  5
13675
  8
0
 10
4702.6637555192855871
 20
-27.9434696086191714
 30
0.0
 40
11.0590981670168702
 50
109.6486043951565961
 51
135.7407127052478018
  0
ARC
  5
13676
  8
0
 10
4706.5156496403033088
 20
-44.3229467468322369
 30
0.0
 40
27.843583214355931
 50
92.1242412291026938
 51
105.777043354383494
  0
ARC
  5
13677
  8
0
 10
4724.9331908687436226
 20
-222.6560328056125115
 30
0.0
 40
207.0729737921932951
 50
92.4418558869458877
 51
95.3895270745578756
  0
ARC
  5
13678
  8
0
 10
4724.9334449001953544
 20
-195.0822094348881137
 30
0.0
 40
179.5280445644038139
 50
90.580904006625417
 51
92.8168721954733655
  0
ARC
  5
13679
  8
0
 10
4723.6181022965211014
 20
-26.4497975884134213
 30
0.0
 40
11.2098218104870497
 50
0.0055634815802772
 51
31.8393080136864697
  0
ARC
  5
1367A
  8
0
 10
4723.5508577887158026
 20
-29.2113171865887686
 30
0.0
 40
13.6549377036932995
 50
69.0683558283993619
 51
91.8363071600064131
  0
ARC
  5
1367B
  8
0
 10
4724.6707159707739265
 20
-25.5608079214569806
 30
0.0
 40
9.8486469184027285
 50
30.6761108235441995
 51
67.5660545710125859
  0
ARC
  5
1367C
  8
0
 10
4728.8917639945511837
 20
-26.0573709761015486
 30
0.0
 40
36.0570484360315433
 50
180.6218607971387087
 51
185.5896982311884074
  0
ARC
  5
1367D
  8
0
 10
4698.7817134767401512
 20
-28.3734401349523004
 30
0.0
 40
5.8980842221004606
 50
191.6997368285227878
 51
226.7887515996237937
  0
ARC
  5
1367E
  8
0
 10
4702.6637555192855871
 20
-24.9539486146153102
 30
0.0
 40
11.0590981670168702
 50
224.259287294752113
 51
250.3513956048433897
  0
ARC
  5
1367F
  8
0
 10
4706.5156496403033088
 20
-8.5744714764022234
 30
0.0
 40
27.843583214355931
 50
254.222956645616506
 51
267.8757587708972778
  0
ARC
  5
13680
  8
0
 10
4724.9331908687436226
 20
169.7586145823779873
 30
0.0
 40
207.0729737921932951
 50
264.6104729254420818
 51
267.5581441130540838
  0
ARC
  5
13681
  8
0
 10
4724.9334449001953544
 20
142.1847912116535895
 30
0.0
 40
179.5280445644038139
 50
267.1831278045265776
 51
269.419095993374583
  0
ARC
  5
13682
  8
0
 10
4722.9228742130926548
 20
-26.2492853473844896
 30
0.0
 40
11.9067200165493396
 50
329.1148113450129244
 51
359.0403172508259217
  0
ARC
  5
13683
  8
0
 10
4723.5508577887158026
 20
-23.6861010366456988
 30
0.0
 40
13.6549377036932995
 50
268.1636928399934732
 51
290.9316441716006238
  0
ARC
  5
13684
  8
0
 10
4724.6707159707739265
 20
-27.3366103017774904
 30
0.0
 40
9.8486469184027285
 50
292.4339454289873856
 51
329.3238891764557934
  0
CIRCLE
  5
13685
  8
0
 10
4697.5201518633011801
 20
-26.4487091116172301
 30
0.0
 40
1.3874999999999991
  0
CIRCLE
  5
13686
  8
0
 10
4697.520151864701802
 20
-26.4487091103172283
 30
0.0
 40
1.923224556099997
  0
ARC
  5
13687
  8
0
 10
4748.0218448955383792
 20
-12.5730564848869406
 30
0.0
 40
0.2493474569484334
 50
31.3266696058405785
 51
90.0469399565620847
  0
ARC
  5
13688
  8
0
 10
4747.9943430504008575
 20
-12.57849832986048
 30
0.0
 40
0.2758381490528601
 50
0.9849314607739696
 51
29.3217765492412603
  0
LINE
  5
13689
  8
0
 10
4748.2701404445024309
 20
-12.5737568237149606
 30
0.0
 11
4748.2701404445024309
 21
-12.8775229643099198
 31
0.0
  0
LINE
  5
1368A
  8
0
 10
4748.2701404445024309
 20
-12.8775229644172295
 30
0.0
 11
4748.2701404445024309
 21
-39.7759586012172406
 31
0.0
  0
ARC
  5
1368B
  8
0
 10
4735.2047209250849846
 20
-39.805279901686383
 30
0.0
 40
13.0654524206786
 50
357.7879728067351266
 51
0.1285824725237622
  0
ARC
  5
1368C
  8
0
 10
4448.6988849863946598
 20
-27.4421056018931502
 30
0.0
 40
299.837781923835621
 50
357.4240201777211041
 51
357.5404095328004814
  0
LINE
  5
1368D
  8
0
 10
4748.2336807064566528
 20
-40.9180702036119328
 30
0.0
 11
4748.2320488361638127
 21
-41.0130005458172278
 31
0.0
  0
ARC
  5
1368E
  8
0
 10
4748.0196348918698277
 20
-41.1866605632934011
 30
0.0
 40
0.2505061112138595
 50
0.1209964183542775
 51
12.6898075493404594
  0
ARC
  5
1368F
  8
0
 10
4748.5802141732174277
 20
-40.9765275097094275
 30
0.0
 40
0.3481688832381591
 50
192.8707739962738117
 51
200.3664683977499124
  0
ARC
  5
13690
  8
0
 10
4748.0197804483323125
 20
-41.1866271809052122
 30
0.0
 40
0.2503567769704155
 50
12.6896720198899597
 51
20.8061935516842489
  0
ARC
  5
13691
  8
0
 10
4748.5811615199991138
 20
-40.9761918047095435
 30
0.0
 40
0.3491672264841009
 50
186.0512878783555095
 51
192.8898491412857084
  0
LINE
  5
13692
  8
0
 10
4748.2339398780650299
 20
-41.0130005458172633
 30
0.0
 11
4748.0752034242641457
 21
-41.0130005458172633
 31
0.0
  0
LINE
  5
13693
  8
0
 10
4748.1504506672263233
 20
-40.3095608635026394
 30
0.0
 11
4748.0752034242641457
 21
-40.9180702052346135
 31
0.0
  0
LINE
  5
13694
  8
0
 10
4748.0752034242641457
 20
-40.9180702052346135
 30
0.0
 11
4748.0752034241631918
 21
-41.0130005458172278
 31
0.0
  0
ARC
  5
13695
  8
0
 10
4743.27038715341223
 20
-39.8021002438549871
 30
0.0
 40
4.9063770930655091
 50
354.0633503368264883
 51
0.3052786744120004
  0
LINE
  5
13696
  8
0
 10
4748.1766946034640569
 20
-39.7759586063172321
 30
0.0
 11
4748.1766897694196814
 21
-12.8775229643172207
 31
0.0
  0
ARC
  5
13697
  8
0
 10
4748.0274218093736636
 20
-12.5609802177535492
 30
0.0
 40
0.1440523948333621
 50
54.6984924128137706
 51
90.7355761307629365
  0
ARC
  5
13698
  8
0
 10
4748.0228883567833691
 20
-12.5720510785164894
 30
0.0
 40
0.1557307284581097
 50
359.6619291573352939
 51
55.6910928520866122
  0
ARC
  5
13699
  8
0
 10
4772.2165156067057978
 20
-12.8773165077281195
 30
0.0
 40
24.0398258381735417
 50
179.2746104327702028
 51
180.0004920622671989
  0
ARC
  5
1369A
  8
0
 10
4747.8082882308171975
 20
-25.8667809240218602
 30
0.0
 40
0.8379766613973814
 50
270.0920248717308141
 51
278.5290122367829895
  0
ARC
  5
1369B
  8
0
 10
4747.7873325328046121
 20
-26.8306757874287101
 30
0.0
 40
0.1258459000534883
 50
90.6728704630063049
 51
180.6626536452972971
  0
LINE
  5
1369C
  8
0
 10
4747.8096341355631012
 20
-26.7047565045652995
 30
0.0
 11
4747.785854657064192
 21
-26.7048385654172407
 31
0.0
  0
LINE
  5
1369D
  8
0
 10
4747.6614950492648859
 20
-26.8321312242172283
 30
0.0
 11
4747.6607481715000176
 21
-29.2770019010681395
 31
0.0
  0
ARC
  5
1369E
  8
0
 10
4747.7866151295984309
 20
-29.2786633766125313
 30
0.0
 40
0.1258779235682611
 50
179.2437252055150054
 51
269.2784270713722776
  0
ARC
  5
1369F
  8
0
 10
4748.0061983546693227
 20
-29.4918701070022387
 30
0.0
 40
0.0552211786064413
 50
31.672204467208811
 51
67.1986712691941506
  0
ARC
  5
136A0
  8
0
 10
4747.8999860848380195
 20
-29.715023443366011
 30
0.0
 40
0.3023134221183503
 50
65.0315005303471168
 51
81.3067645889016859
  0
ARC
  5
136A1
  8
0
 10
4747.8087521135412317
 20
-30.2207266655568212
 30
0.0
 40
0.8161123406100825
 50
80.3412644039580215
 51
89.9380769695870441
  0
LINE
  5
136A2
  8
0
 10
4747.8096341355649201
 20
-29.4046148015741906
 30
0.0
 11
4747.7850298871635459
 21
-29.404531317917229
 31
0.0
  0
ARC
  5
136A3
  8
0
 10
4747.8701518504940395
 20
-26.2696905565765206
 30
0.0
 40
0.4303502003641861
 50
278.3394427190929719
 51
288.2105034320301797
  0
ARC
  5
136A4
  8
0
 10
4748.0180737946930094
 20
-26.6276000597496498
 30
0.0
 40
0.0401414245662888
 50
305.14594163457798
 51
331.5246115414898895
  0
ARC
  5
136A5
  8
0
 10
4747.9604107167679103
 20
-26.5430192911427483
 30
0.0
 40
0.142504842875191
 50
288.08163256520902
 51
304.5269843552728162
  0
LINE
  5
136A6
  8
0
 10
4748.0592544043456655
 20
-12.6081617182379606
 30
0.0
 11
4748.0614020720640838
 21
-39.5424997885172402
 31
0.0
  0
ARC
  5
136A7
  8
0
 10
4831.6815437322538855
 20
-39.3913778980765272
 30
0.0
 40
83.6202782170450405
 50
180.103547266200394
 51
181.0461324457901924
  0
LINE
  5
136A8
  8
0
 10
4748.2701404445024309
 20
-41.1861315484172366
 30
0.0
 11
4748.2701404445024309
 21
-41.2487549163691227
 31
0.0
  0
LINE
  5
136A9
  8
0
 10
4748.2701404445024309
 20
-41.2487549163691227
 30
0.0
 11
4748.1352087825653143
 21
-41.5193733760172208
 31
0.0
  0
ARC
  5
136AA
  8
0
 10
4748.0797228520023054
 20
-41.49170911179489
 30
0.0
 40
0.0620000000430649
 50
269.9951652523203052
 51
333.5000001705021759
  0
ARC
  5
136AB
  8
0
 10
4688.6060696978784108
 20
-12.6079271856259201
 30
0.0
 40
0.1250208566178
 50
90.8128676821397818
 51
180.1074241890717076
  0
LINE
  5
136AC
  8
0
 10
4688.5186656823198064
 20
-12.3237091116172408
 30
0.0
 11
4748.0216380441843285
 21
-12.3237091116172408
 31
0.0
  0
LINE
  5
136AD
  8
0
 10
4748.0255673362507878
 20
-12.4169396941172092
 30
0.0
 11
4688.5147363902524376
 21
-12.4169396941185006
 31
0.0
  0
LINE
  5
136AE
  8
0
 10
4688.6042960832019162
 20
-12.4829191522172191
 30
0.0
 11
4747.9360076433013091
 21
-12.4829188975172194
 31
0.0
  0
ARC
  5
136AF
  8
0
 10
4747.9342340316952686
 20
-12.6079269074572906
 30
0.0
 40
0.1250205931602392
 50
359.8923883315048897
 51
89.1870826489150943
  0
ARC
  5
136B0
  8
0
 10
4707.8663477474883621
 20
-12.7102833494554908
 30
0.0
 40
0.6528671786183738
 50
171.3481474998741021
 51
182.2003085526509949
  0
ARC
  5
136B1
  8
0
 10
4707.0873610573962651
 20
-12.7573588978746901
 30
0.0
 40
0.1265311780203591
 50
268.7828891565060871
 51
359.198671825850397
  0
LINE
  5
136B2
  8
0
 10
4707.213961921527698
 20
-12.7353490033352497
 30
0.0
 11
4707.2138798606765704
 21
-12.7591284818351003
 31
0.0
  0
LINE
  5
136B3
  8
0
 10
4707.0846734094020576
 20
-12.8838615285172207
 30
0.0
 11
4704.6436303175014473
 21
-12.8838615285172509
 31
0.0
  0
ARC
  5
136B4
  8
0
 10
4704.6420510562702475
 20
-12.7578210969310106
 30
0.0
 40
0.1260503251105506
 50
180.9633384070681075
 51
270.7178670159493095
  0
ARC
  5
136B5
  8
0
 10
4704.4221486818141784
 20
-12.5382735307865705
 30
0.0
 40
0.0637635978029608
 50
20.9112035417197895
 51
60.2408865954024932
  0
ARC
  5
136B6
  8
0
 10
4704.1690031082280257
 20
-12.6490057424880202
 30
0.0
 40
0.3400101880608102
 50
8.4855666476467562
 51
23.1168812972737996
  0
ARC
  5
136B7
  8
0
 10
4703.6740503030423497
 20
-12.7317610347682901
 30
0.0
 40
0.8418023149872563
 50
359.756626490959718
 51
9.0854874808829251
  0
LINE
  5
136B8
  8
0
 10
4704.5158450238513979
 20
-12.7353367216510396
 30
0.0
 11
4704.5160185474069294
 21
-12.7599403350207208
 31
0.0
  0
ARC
  5
136B9
  8
0
 10
4707.6646998128790074
 20
-12.6734206517976098
 30
0.0
 40
0.4480102643713379
 50
162.5868930772610952
 51
172.12948719584179
  0
ARC
  5
136BA
  8
0
 10
4707.2950173610415732
 20
-12.5268103881630601
 30
0.0
 40
0.0479182738114231
 50
113.6572901180080066
 51
147.789958014414708
  0
ARC
  5
136BB
  8
0
 10
4707.396304158570274
 20
-12.5884745028167195
 30
0.0
 40
0.1664953834661075
 50
148.4143430158534045
 51
162.8392750718275863
  0
ARC
  5
136BC
  8
0
 10
4732.6153477474881583
 20
-12.7102833494554908
 30
0.0
 40
0.6528671786183738
 50
171.3481474998741021
 51
182.2003085526509949
  0
ARC
  5
136BD
  8
0
 10
4731.8363610573951519
 20
-12.7573588978746901
 30
0.0
 40
0.1265311780203591
 50
268.7828891565060871
 51
359.198671825850397
  0
LINE
  5
136BE
  8
0
 10
4731.9629619215293133
 20
-12.7353490033352497
 30
0.0
 11
4731.9628798606763667
 21
-12.7591284818351003
 31
0.0
  0
LINE
  5
136BF
  8
0
 10
4731.8336734094009444
 20
-12.8838615285172207
 30
0.0
 11
4729.3926303175012436
 21
-12.8838615285172509
 31
0.0
  0
ARC
  5
136C0
  8
0
 10
4729.3910510562700438
 20
-12.7578210969310106
 30
0.0
 40
0.1260503251105506
 50
180.9633384070681075
 51
270.7178670159493095
  0
ARC
  5
136C1
  8
0
 10
4729.1711486818130652
 20
-12.5382735307865705
 30
0.0
 40
0.0637635978029608
 50
20.9112035417197895
 51
60.2408865954024932
  0
ARC
  5
136C2
  8
0
 10
4728.9180031082278219
 20
-12.6490057424880202
 30
0.0
 40
0.3400101880608102
 50
8.4855666476467562
 51
23.1168812972737996
  0
ARC
  5
136C3
  8
0
 10
4728.4230503030412365
 20
-12.7317610347682901
 30
0.0
 40
0.8418023149872563
 50
359.756626490959718
 51
9.0854874808829251
  0
LINE
  5
136C4
  8
0
 10
4729.2648450238511941
 20
-12.7353367216510396
 30
0.0
 11
4729.2650185474058162
 21
-12.7599403350207208
 31
0.0
  0
ARC
  5
136C5
  8
0
 10
4732.4136998128788036
 20
-12.6734206517976098
 30
0.0
 40
0.4480102643713379
 50
162.5868930772610952
 51
172.12948719584179
  0
ARC
  5
136C6
  8
0
 10
4732.0440173610422789
 20
-12.5268103881630601
 30
0.0
 40
0.0479182738114231
 50
113.6572901180080066
 51
147.7899580144143101
  0
ARC
  5
136C7
  8
0
 10
4732.1453041585700703
 20
-12.5884745028167195
 30
0.0
 40
0.1664953834661075
 50
148.4143430158534045
 51
162.8392750718275863
  0
ARC
  5
136C9
  8
0
 10
4747.9529652806922968
 20
-26.6027455802373005
 30
0.0
 40
0.1096097380952313
 50
336.3366640179551155
 51
348.4933561635310753
  0
ARC
  5
136CA
  8
0
 10
4748.0129034138071802
 20
-29.4894863991587606
 30
0.0
 40
0.0482861961976506
 50
8.9639245241116541
 51
33.4427058008914031
  0
ARC
  5
136CB
  8
0
 10
4688.5816898384109663
 20
-26.603632821503961
 30
0.0
 40
0.1040854439114319
 50
192.1454313850946107
 51
204.4651515992831037
  0
ARC
  5
136CC
  8
0
 10
4688.5704444145167145
 20
-29.5047407038507501
 30
0.0
 40
0.0932560523594871
 50
153.3252718368395051
 51
166.6539187473036066
  0
ENDSEC
  0
EOF
