  0
SECTION
  2
HEADER
  9
$ACADVER
  1
AC1009
  9
$INSBASE
 10
4653.0964147022386896
 20
-2.6861992932556968
 30
0.0
  9
$EXTMIN
 10
4623.0964147022878024
 20
-2.686199293310565
 30
0.0
  9
$EXTMAX
 10
4683.0964147021877579
 20
13.6452971715431808
 30
0.0
  9
$LIMMIN
 10
0.0
 20
0.0
  9
$LIMMAX
 10
11.6929133858000007
 20
8.2677165353999982
  9
$ORTHOMODE
 70
     0
  9
$REGENMODE
 70
     1
  9
$FILLMODE
 70
     1
  9
$QTEXTMODE
 70
     0
  9
$MIRRTEXT
 70
     0
  9
$DRAGMODE
 70
     2
  9
$LTSCALE
 40
0.6431102362
  9
$OSMODE
 70
  4095
  9
$ATTMODE
 70
     1
  9
$TEXTSIZE
 40
0.2
  9
$TRACEWID
 40
0.05
  9
$TEXTSTYLE
  7
STANDARD
  9
$CLAYER
  8
0
  9
$CELTYPE
  6
BYLAYER
  9
$CECOLOR
 62
   256
  9
$DIMSCALE
 40
1.0
  9
$DIMASZ
 40
0.1875
  9
$DIMEXO
 40
0.0625
  9
$DIMDLI
 40
0.4443307087
  9
$DIMRND
 40
0.0
  9
$DIMDLE
 40
0.0
  9
$DIMEXE
 40
0.125
  9
$DIMTP
 40
0.01
  9
$DIMTM
 40
0.01
  9
$DIMTXT
 40
2.0
  9
$DIMCEN
 40
0.1052362205
  9
$DIMTSZ
 40
0.0
  9
$DIMTOL
 70
     1
  9
$DIMLIM
 70
     0
  9
$DIMTIH
 70
     1
  9
$DIMTOH
 70
     1
  9
$DIMSE1
 70
     0
  9
$DIMSE2
 70
     0
  9
$DIMTAD
 70
     0
  9
$DIMZIN
 70
     0
  9
$DIMBLK
  1

  9
$DIMASO
 70
     1
  9
$DIMSHO
 70
     1
  9
$DIMPOST
  1
\X
  9
$DIMAPOST
  1

  9
$DIMALT
 70
     1
  9
$DIMALTD
 70
     2
  9
$DIMALTF
 40
25.3999999999999986
  9
$DIMLFAC
 40
1.0
  9
$DIMTOFL
 70
     0
  9
$DIMTVP
 40
0.0
  9
$DIMTIX
 70
     0
  9
$DIMSOXD
 70
     0
  9
$DIMSAH
 70
     0
  9
$DIMBLK1
  1

  9
$DIMBLK2
  1

  9
$DIMSTYLE
  2
STANDARD
  9
$DIMCLRD
 70
     0
  9
$DIMCLRE
 70
     0
  9
$DIMCLRT
 70
     0
  9
$DIMTFAC
 40
1.0
  9
$DIMGAP
 40
0.09
  9
$LUNITS
 70
     2
  9
$LUPREC
 70
     4
  9
$SKETCHINC
 40
0.1
  9
$FILLETRAD
 40
0.0
  9
$AUNITS
 70
     0
  9
$AUPREC
 70
     0
  9
$MENU
  1
.
  9
$ELEVATION
 40
0.0
  9
$PELEVATION
 40
0.0
  9
$THICKNESS
 40
0.0
  9
$LIMCHECK
 70
     0
  9
$BLIPMODE
 70
     0
  9
$CHAMFERA
 40
0.0
  9
$CHAMFERB
 40
0.0
  9
$SKPOLY
 70
     0
  9
$TDCREATE
 40
2458060.468368056230247
  9
$TDUPDATE
 40
2459446.6411805558018386
  9
$TDINDWG
 40
0.461696875
  9
$TDUSRTIMER
 40
0.461696875
  9
$USRTIMER
 70
     1
  9
$ANGBASE
 50
0.0
  9
$ANGDIR
 70
     0
  9
$PDMODE
 70
     0
  9
$PDSIZE
 40
0.3125
  9
$PLINEWID
 40
0.0
  9
$COORDS
 70
     1
  9
$SPLFRAME
 70
     0
  9
$SPLINETYPE
 70
     6
  9
$SPLINESEGS
 70
     8
  9
$ATTDIA
 70
     1
  9
$ATTREQ
 70
     1
  9
$HANDLING
 70
     1
  9
$HANDSEED
  5
13513
  9
$SURFTAB1
 70
     6
  9
$SURFTAB2
 70
     6
  9
$SURFTYPE
 70
     6
  9
$SURFU
 70
     6
  9
$SURFV
 70
     6
  9
$UCSNAME
  2

  9
$UCSORG
 10
0.0
 20
0.0
 30
0.0
  9
$UCSXDIR
 10
1.0
 20
0.0
 30
0.0
  9
$UCSYDIR
 10
0.0
 20
1.0
 30
0.0
  9
$PUCSNAME
  2

  9
$PUCSORG
 10
0.0
 20
0.0
 30
0.0
  9
$PUCSXDIR
 10
1.0
 20
0.0
 30
0.0
  9
$PUCSYDIR
 10
0.0
 20
1.0
 30
0.0
  9
$USERI1
 70
     0
  9
$USERI2
 70
     0
  9
$USERI3
 70
     0
  9
$USERI4
 70
     0
  9
$USERI5
 70
     0
  9
$USERR1
 40
0.0
  9
$USERR2
 40
0.0
  9
$USERR3
 40
0.0
  9
$USERR4
 40
0.0
  9
$USERR5
 40
0.0
  9
$WORLDVIEW
 70
     1
  9
$SHADEDGE
 70
     3
  9
$SHADEDIF
 70
    70
  9
$TILEMODE
 70
     1
  9
$MAXACTVP
 70
    64
  9
$PLIMCHECK
 70
     0
  9
$PEXTMIN
 10
1.0000000000000000E+20
 20
1.0000000000000000E+20
 30
1.0000000000000000E+20
  9
$PEXTMAX
 10
-1.0000000000000000E+20
 20
-1.0000000000000000E+20
 30
-1.0000000000000000E+20
  9
$PLIMMIN
 10
0.0
 20
0.0
  9
$PLIMMAX
 10
12.0
 20
9.0
  9
$UNITMODE
 70
     0
  9
$VISRETAIN
 70
     1
  9
$PLINEGEN
 70
     0
  9
$PSLTSCALE
 70
     1
  0
ENDSEC
  0
SECTION
  2
TABLES
  0
TABLE
  2
VPORT
 70
     1
  0
VPORT
  2
*ACTIVE
 70
     0
 10
0.0
 20
0.0
 11
1.0
 21
1.0
 12
950.3134449016267808
 22
-69.4131064566939529
 13
0.0
 23
0.0
 14
1.0
 24
1.0
 15
0.0
 25
0.0
 16
0.0
 26
0.0
 36
5.1040778033513332
 17
3792.35791015625
 27
120.1806564331053977
 37
0.0
 40
481.9552395562641891
 41
2.000833333333333
 42
50.0
 43
0.0
 44
0.0
 50
0.0
 51
0.0
 71
     0
 72
   100
 73
     1
 74
     1
 75
     0
 76
     0
 77
     0
 78
     0
  0
ENDTAB
  0
TABLE
  2
LTYPE
 70
     2
  0
LTYPE
  2
CONTINUOUS
 70
     0
  3
Solid line
 72
    65
 73
     0
 40
0.0
  0
LTYPE
  2
PHANTOM2
 70
     0
  3
___ _ _ ___ _ _ ___ _ _ ___ _ _
 72
    65
 73
     6
 40
1.25
 49
0.625
 49
-0.125
 49
0.125
 49
-0.125
 49
0.125
 49
-0.125
  0
ENDTAB
  0
TABLE
  2
LAYER
 70
     2
  0
LAYER
  2
0
 70
     0
 62
   255
  6
CONTINUOUS
  0
LAYER
  2
DEFPOINTS
 70
     0
 62
     7
  6
CONTINUOUS
  0
ENDTAB
  0
TABLE
  2
STYLE
 70
     1
  0
STYLE
  2
STANDARD
 70
     0
 40
0.0
 41
0.8
 50
0.0
 71
     0
 42
0.2
  3
txt
  4

  0
ENDTAB
  0
TABLE
  2
VIEW
 70
     0
  0
ENDTAB
  0
TABLE
  2
UCS
 70
     0
  0
ENDTAB
  0
TABLE
  2
APPID
 70
     9
  0
APPID
  2
ACAD
 70
     0
  0
APPID
  2
ACAD_MLEADERVER
 70
     0
  0
APPID
  2
ACAD_EXEMPT_FROM_CAD_STANDARDS
 70
     0
  0
APPID
  2
ACAD_NAV_VCDISPLAY
 70
     0
  0
APPID
  2
ACAECLAYERSTANDARD
 70
     0
  0
APPID
  2
ACCMTRANSPARENCY
 70
     0
  0
APPID
  2
ACAD_DSTYLE_DIMJAG
 70
     0
  0
APPID
  2
ACAD_DSTYLE_DIMTALN
 70
     0
  0
APPID
  2
ACDBATTR
 70
     0
  0
ENDTAB
  0
TABLE
  2
DIMSTYLE
 70
     1
  0
DIMSTYLE
  2
STANDARD
 70
     0
  3

  4

  5

  6

  7

 40
1.0
 41
0.1875
 42
0.0625
 43
0.38
 44
0.125
 45
0.0
 46
0.0
 47
0.01
 48
0.01
140
0.15625
141
0.09
142
0.0
143
25.3999999999999986
144
1.0
145
0.0
146
1.0
147
0.09
 71
     1
 72
     0
 73
     1
 74
     1
 75
     0
 76
     0
 77
     0
 78
     4
170
     0
171
     2
172
     0
173
     0
174
     0
175
     0
176
     0
177
     0
178
     0
  0
ENDTAB
  0
ENDSEC
  0
SECTION
  2
BLOCKS
  0
BLOCK
  8
0
  2
$MODEL_SPACE
 70
     0
 10
0.0
 20
0.0
 30
0.0
  3
$MODEL_SPACE
  1

  0
ENDBLK
  5
21
  8
0
  0
BLOCK
 67
     1
  8
0
  2
$PAPER_SPACE
 70
     0
 10
0.0
 20
0.0
 30
0.0
  3
$PAPER_SPACE
  1

  0
ENDBLK
  5
1D
 67
     1
  8
0
  0
ENDSEC
  0
SECTION
  2
ENTITIES
  0
ATTDEF
  5
3930
  8
DEFPOINTS
 10
4653.09798336429958
 20
-2.682432339691359
 30
0.0
 40
0.001
  1
71041110
  3

  2
MODELNUMBER
 70
     0
1001
ACDBATTR
1070
     0
1070
     1
  0
ATTDEF
  5
3931
  8
DEFPOINTS
 10
4653.09798336429958
 20
-2.684099006358025
 30
0.0
 40
0.001
  1
PERFORMA
  3

  2
TRADENAME
 70
     0
1001
ACDBATTR
1070
     0
1070
     1
  0
ATTDEF
  5
3932
  8
DEFPOINTS
 10
4653.09798336429958
 20
-2.6857656730246902
 30
0.0
 40
0.001
  1
BATH
  3

  2
PRODUCT
 70
     0
1001
ACDBATTR
1070
     0
1070
     1
  0
LINE
  5
13383
  8
0
 10
4623.0964375396888499
 20
12.7593807818119593
 30
0.0
 11
4623.0964147022878024
 21
-2.2764804747880372
 31
0.0
  0
LINE
  5
13384
  8
0
 10
4623.0964147022878024
 20
-2.2764804747880372
 30
0.0
 11
4623.1138650585889991
 21
-2.2764804747880372
 31
0.0
  0
LINE
  5
13385
  8
0
 10
4623.1138650585889991
 20
-2.2764804747880372
 30
0.0
 11
4623.1138650585889991
 21
-2.5264804747880372
 31
0.0
  0
LINE
  5
13386
  8
0
 10
4623.1138650584880452
 20
-2.5264804747880372
 30
0.0
 11
4683.0789643459884246
 21
-2.5264804747880372
 31
0.0
  0
LINE
  5
13387
  8
0
 10
4623.1206891313886445
 20
12.7833521451500207
 30
0.0
 11
4683.0721402730887348
 21
12.7833521451500207
 31
0.0
  0
ARC
  5
13388
  8
0
 10
4623.1428717443614005
 20
12.7600948593977694
 30
0.0
 40
0.0464396949858785
 50
167.8609791469002914
 51
180.8810403326862115
  0
ARC
  5
13389
  8
0
 10
4623.1123076100038816
 20
12.7674078227442092
 30
0.0
 40
0.0150385200714784
 50
130.4534460468968859
 51
170.6139002425942977
  0
ARC
  5
1338A
  8
0
 10
4623.1215623360612881
 20
12.7328843368493203
 30
0.0
 40
0.0504753619211963
 50
90.9912447643152547
 51
103.0569827393535007
  0
ARC
  5
1338B
  8
0
 10
4623.1148839109109758
 20
12.7601948869871897
 30
0.0
 40
0.0223646333432785
 50
102.1967668930032005
 51
123.4689005009208955
  0
ARC
  5
1338C
  8
0
 10
4623.1899062041702564
 20
13.6153246525876295
 30
0.0
 40
0.0299725189555549
 50
6.9776472289941402
 51
90.0496009088898717
  0
ARC
  5
1338D
  8
0
 10
4623.5455940400906911
 20
13.0151596768348607
 30
0.0
 40
0.2492111033782263
 50
187.0113134047880123
 51
212.8951292380729114
  0
ARC
  5
1338E
  8
0
 10
4623.5446857377501146
 20
13.0144263630656898
 30
0.0
 40
0.2480501980084873
 50
212.8668482022594048
 51
248.6796765820982955
  0
LINE
  5
1338F
  8
0
 10
4623.1343783108814023
 20
12.7833521451500207
 30
0.0
 11
4623.0964147022878024
 21
13.6452971603119604
 31
0.0
  0
LINE
  5
13390
  8
0
 10
4623.0964147022878024
 20
13.6452971603119604
 30
0.0
 11
4623.1898802569894542
 21
13.6452971603119604
 31
0.0
  0
LINE
  5
13391
  8
0
 10
4623.2196567352893908
 20
13.6189657775119599
 30
0.0
 11
4623.2982465202876483
 21
12.9847396424119594
 31
0.0
  0
LINE
  5
13392
  8
0
 10
4623.2270325785466412
 20
13.5594421057928507
 30
0.0
 11
4682.9657968259298286
 21
13.5594421057928507
 31
0.0
  0
ARC
  5
13393
  8
0
 10
4652.0241371559868639
 20
195.406988721313013
 30
0.0
 40
195.4149769789011089
 50
263.083373473216227
 51
264.4255043641963994
  0
ARC
  5
13394
  8
0
 10
4652.8719413595090373
 20
205.7038696206577129
 30
0.0
 40
205.7455763160766935
 50
264.4690704407677799
 51
270.0625110776762767
  0
ARC
  5
13395
  8
0
 10
4628.5257228876644149
 20
1.8589665595007849
 30
0.0
 40
0.4447132925565647
 50
193.7701138087616073
 51
260.6489147330381115
  0
ARC
  5
13396
  8
0
 10
4628.5811429605073499
 20
1.886690427513251
 30
0.0
 40
0.5053262507772427
 50
189.9104994039678047
 51
195.3276968017308093
  0
ARC
  5
13397
  8
0
 10
4628.5551331166470845
 20
1.9384570445062499
 30
0.0
 40
0.5281716765220001
 50
258.9017449683821042
 51
263.0589132853605179
  0
ARC
  5
13398
  8
0
 10
4793.0754162675048065
 20
31.4962394806671995
 30
0.0
 40
167.6432607055583048
 50
188.1787417491073029
 51
190.2032841520531008
  0
ARC
  5
13399
  8
0
 10
4706.9400267579658248
 20
17.6910847508619895
 30
0.0
 40
80.4323794592254586
 50
186.0012355112569082
 51
187.1735843405483024
  0
LINE
  5
1339A
  8
0
 10
4626.9484461226093117
 20
9.2818868094636002
 30
0.0
 11
4679.2443832818689771
 21
9.2818930482508506
 31
0.0
  0
LINE
  5
1339B
  8
0
 10
4636.7752615269891976
 20
-2.5264804747880372
 30
0.0
 11
4636.7780528071889421
 21
-2.6861992932556968
 31
0.0
  0
LINE
  5
1339C
  8
0
 10
4637.3547765974890353
 20
-2.686199293310565
 30
0.0
 11
4637.3575678776878704
 21
-2.5264804747880372
 31
0.0
  0
LINE
  5
1339D
  8
0
 10
4683.0963918647894388
 20
12.7593807818119593
 30
0.0
 11
4683.0964147021877579
 21
-2.2764804747880372
 31
0.0
  0
LINE
  5
1339E
  8
0
 10
4683.0964147021877579
 20
-2.2764804747880372
 30
0.0
 11
4683.0789643458883802
 21
-2.2764804747880372
 31
0.0
  0
LINE
  5
1339F
  8
0
 10
4683.0789643458883802
 20
-2.2764804747880372
 30
0.0
 11
4683.0789643458883802
 21
-2.5264804747880372
 31
0.0
  0
ARC
  5
133A0
  8
0
 10
4683.0499576601159788
 20
12.7600948593977694
 30
0.0
 40
0.0464396949858785
 50
359.1189596673137885
 51
12.1390208530996802
  0
ARC
  5
133A1
  8
0
 10
4683.0805217944744072
 20
12.7674078227442092
 30
0.0
 40
0.0150385200714784
 50
9.3860997574056988
 51
49.5465539531030572
  0
ARC
  5
133A2
  8
0
 10
4683.0712670684160912
 20
12.7328843368493203
 30
0.0
 40
0.0504753619211935
 50
76.9430172606469966
 51
89.0087552356847738
  0
ARC
  5
133A3
  8
0
 10
4683.0779454935664035
 20
12.7601948869871897
 30
0.0
 40
0.0223646333432785
 50
56.5310994990790974
 51
77.8032331069967569
  0
ARC
  5
133A4
  8
0
 10
4683.0029232003071229
 20
13.6153246525876295
 30
0.0
 40
0.0299725189555549
 50
89.9503990911101141
 51
173.0223527710058988
  0
ARC
  5
133A5
  8
0
 10
4682.6472353643848692
 20
13.0151596768348607
 30
0.0
 40
0.2492111033782263
 50
327.1048707619269749
 51
352.9886865952119024
  0
ARC
  5
133A6
  8
0
 10
4682.6481436667263551
 20
13.0144263630657004
 30
0.0
 40
0.2480501980084943
 50
291.3203234179015908
 51
327.133151797739913
  0
LINE
  5
133A7
  8
0
 10
4683.058451093594158
 20
12.7833521451068801
 30
0.0
 11
4683.0964147021877579
 21
13.6452971603119604
 31
0.0
  0
LINE
  5
133A8
  8
0
 10
4683.0964147021877579
 20
13.6452971603119604
 30
0.0
 11
4683.0029491474879251
 21
13.6452971603119604
 31
0.0
  0
LINE
  5
133A9
  8
0
 10
4682.9731726691879885
 20
13.6189657775119599
 30
0.0
 11
4682.8945828841888215
 21
12.9847396424119594
 31
0.0
  0
ARC
  5
133AA
  8
0
 10
4654.1686922484886964
 20
195.406988721313013
 30
0.0
 40
195.4149769789011089
 50
275.5744956358034869
 51
276.916626526783773
  0
ARC
  5
133AB
  8
0
 10
4653.3208880449692515
 20
205.7038696206477937
 30
0.0
 40
205.7455763160668027
 50
269.9374889223236096
 51
275.5309295592322201
  0
ARC
  5
133AC
  8
0
 10
4677.6671065168129644
 20
1.8589665595007849
 30
0.0
 40
0.4447132925565647
 50
279.3510852669618885
 51
346.229886191238279
  0
ARC
  5
133AD
  8
0
 10
4677.6116864439691199
 20
1.886690427513251
 30
0.0
 40
0.5053262507772427
 50
344.6723031982692191
 51
350.0895005960322237
  0
ARC
  5
133AE
  8
0
 10
4677.6376962878302948
 20
1.9384570445062499
 30
0.0
 40
0.5281716765220001
 50
276.9410867146394821
 51
281.0982550316178958
  0
ARC
  5
133AF
  8
0
 10
4513.1174131369716633
 20
31.4962394806671995
 30
0.0
 40
167.6432607055583048
 50
349.7967158479469276
 51
351.8212582508921855
  0
ARC
  5
133B0
  8
0
 10
4599.252802646510645
 20
17.6910847508619895
 30
0.0
 40
80.4323794592254586
 50
352.8264156594515839
 51
353.9987644887431202
  0
LINE
  5
133B1
  8
0
 10
4667.5285678776890563
 20
-2.5264804747880372
 30
0.0
 11
4667.5257766001877826
 21
-2.6861992932557039
 31
0.0
  0
LINE
  5
133B2
  8
0
 10
4666.9490528071892186
 20
-2.6861992932556902
 30
0.0
 11
4666.9462615269876551
 21
-2.5264804747880372
 31
0.0
  0
LINE
  5
133B3
  8
0
 10
4639.7838443547889256
 20
-2.5264804747880372
 30
0.0
 11
4639.7866352934561291
 21
-2.6861992932556968
 31
0.0
  0
LINE
  5
133B4
  8
0
 10
4639.7866352934561291
 20
-2.6861992932556968
 30
0.0
 11
4640.3461919432556897
 21
-2.6861992932556968
 31
0.0
  0
LINE
  5
133B5
  8
0
 10
4640.3461919432556897
 20
-2.6861992932556968
 30
0.0
 11
4640.3489850497890075
 21
-2.5264804747880372
 31
0.0
  0
LINE
  5
133B6
  8
0
 10
4636.7780528071889421
 20
-2.6861992932556968
 30
0.0
 11
4637.3547765974890353
 21
-2.6861992932556968
 31
0.0
  0
LINE
  5
133B7
  8
0
 10
4641.1930798059884182
 20
-2.5264804747880372
 30
0.0
 11
4641.1986709297943889
 21
-2.6861992932556968
 31
0.0
  0
LINE
  5
133B8
  8
0
 10
4641.6881584130478586
 20
-2.6861992932556968
 30
0.0
 11
4641.6937495353877239
 21
-2.5264804747880372
 31
0.0
  0
LINE
  5
133B9
  8
0
 10
4642.7765416423890201
 20
-2.5264804747880372
 30
0.0
 11
4642.7793363524388042
 21
-2.6861992932556968
 31
0.0
  0
LINE
  5
133BA
  8
0
 10
4642.7793363524388042
 20
-2.6861992932556968
 30
0.0
 11
4643.3534930520154376
 21
-2.6861992932556968
 31
0.0
  0
LINE
  5
133BB
  8
0
 10
4643.3534930520154376
 20
-2.6861992932556968
 30
0.0
 11
4643.3562877621889129
 21
-2.5264804747880372
 31
0.0
  0
LINE
  5
133BC
  8
0
 10
4645.74832378778774
 20
-2.5264804747880372
 30
0.0
 11
4645.7539147022889665
 21
-2.6861992932566281
 31
0.0
  0
LINE
  5
133BD
  8
0
 10
4645.7539147022889665
 20
-2.6861992932556968
 30
0.0
 11
4646.3789147022889665
 21
-2.6861992932556968
 31
0.0
  0
LINE
  5
133BE
  8
0
 10
4646.3789147022889665
 20
-2.6861992932556968
 30
0.0
 11
4646.3845056175878199
 21
-2.5264804747880372
 31
0.0
  0
LINE
  5
133BF
  8
0
 10
4651.7515366578891189
 20
-2.5264804747880372
 30
0.0
 11
4651.7571277829838436
 21
-2.6861992932556968
 31
0.0
  0
LINE
  5
133C0
  8
0
 10
4652.3757016221343292
 20
-2.6861992932556968
 30
0.0
 11
4652.3812927462877269
 21
-2.5264804747880372
 31
0.0
  0
LINE
  5
133C1
  8
0
 10
4651.7571277829838436
 20
-2.6861992932556968
 30
0.0
 11
4652.3757016221343292
 21
-2.6861992932556968
 31
0.0
  0
LINE
  5
133C2
  8
0
 10
4657.7483181474890443
 20
-2.5264804747880372
 30
0.0
 11
4657.7539147022889665
 21
-2.6861992932556968
 31
0.0
  0
LINE
  5
133C3
  8
0
 10
4657.7539147022889665
 20
-2.6861992932556968
 30
0.0
 11
4658.3789201334111567
 21
-2.6861992932556968
 31
0.0
  0
LINE
  5
133C4
  8
0
 10
4658.3789201334111567
 20
-2.6861992932556968
 30
0.0
 11
4658.3845112571889331
 21
-2.5264804747880372
 31
0.0
  0
LINE
  5
133C5
  8
0
 10
4660.7765819213891518
 20
-2.5264804747880372
 30
0.0
 11
4660.7793766315080575
 21
-2.6861992932556968
 31
0.0
  0
LINE
  5
133C6
  8
0
 10
4661.3532582747457127
 20
-2.6861992932556968
 30
0.0
 11
4661.3562444740891806
 21
-2.5264804747880372
 31
0.0
  0
LINE
  5
133C7
  8
0
 10
4664.4965098053880865
 20
-2.5264804747880372
 30
0.0
 11
4664.5004051197247463
 21
-2.6861992932556968
 31
0.0
  0
LINE
  5
133C8
  8
0
 10
4664.9967284754311549
 20
-2.6861992932556968
 30
0.0
 11
4665.0023195992889669
 21
-2.5264804747880372
 31
0.0
  0
LINE
  5
133C9
  8
0
 10
4666.9490528071892186
 20
-2.6861992932556902
 30
0.0
 11
4667.5257766001877826
 21
-2.6861992932557039
 31
0.0
  0
LINE
  5
133CA
  8
0
 10
4660.7793766315080575
 20
-2.6861992932556968
 30
0.0
 11
4661.3532582747457127
 21
-2.6861992932556968
 31
0.0
  0
LINE
  5
133CB
  8
0
 10
4664.5004051197247463
 20
-2.6861992932556968
 30
0.0
 11
4664.9967284754311549
 21
-2.6861992932556968
 31
0.0
  0
LINE
  5
133CC
  8
0
 10
4641.1986709297943889
 20
-2.6861992932556968
 30
0.0
 11
4641.6881584130478586
 21
-2.6861992932556968
 31
0.0
  0
ENDSEC
  0
EOF
