  0
SECTION
  2
HEADER
  9
$ACADVER
  1
AC1009
  9
$INSBASE
 10
43.823651149486949
 20
-16.688328426913841
 30
0.0
  9
$EXTMIN
 10
19.823651149486949
 20
-16.696608687979019
 30
0.0
  9
$EXTMAX
 10
67.823651149486949
 20
48.2906600523064
 30
0.0
  9
$LIMMIN
 10
0.0
 20
0.0
  9
$LIMMAX
 10
22.0
 20
17.0
  9
$ORTHOMODE
 70
     0
  9
$REGENMODE
 70
     1
  9
$FILLMODE
 70
     1
  9
$QTEXTMODE
 70
     0
  9
$MIRRTEXT
 70
     0
  9
$DRAGMODE
 70
     2
  9
$LTSCALE
 40
1.2099999999999991
  9
$OSMODE
 70
  3071
  9
$ATTMODE
 70
     1
  9
$TEXTSIZE
 40
0.2
  9
$TRACEWID
 40
0.05
  9
$TEXTSTYLE
  7
STANDARD
  9
$CLAYER
  8
0
  9
$CELTYPE
  6
BYLAYER
  9
$CECOLOR
 62
   256
  9
$DIMSCALE
 40
1.0
  9
$DIMASZ
 40
0.1875
  9
$DIMEXO
 40
0.0625
  9
$DIMDLI
 40
0.8359999999999999
  9
$DIMRND
 40
0.0
  9
$DIMDLE
 40
0.0
  9
$DIMEXE
 40
0.125
  9
$DIMTP
 40
0.0
  9
$DIMTM
 40
0.0
  9
$DIMTXT
 40
2.0
  9
$DIMCEN
 40
0.198
  9
$DIMTSZ
 40
0.0
  9
$DIMTOL
 70
     0
  9
$DIMLIM
 70
     0
  9
$DIMTIH
 70
     1
  9
$DIMTOH
 70
     1
  9
$DIMSE1
 70
     0
  9
$DIMSE2
 70
     0
  9
$DIMTAD
 70
     0
  9
$DIMZIN
 70
     0
  9
$DIMBLK
  1

  9
$DIMASO
 70
     1
  9
$DIMSHO
 70
     1
  9
$DIMPOST
  1
\X
  9
$DIMAPOST
  1

  9
$DIMALT
 70
     1
  9
$DIMALTD
 70
     2
  9
$DIMALTF
 40
25.399999999999999
  9
$DIMLFAC
 40
1.0
  9
$DIMTOFL
 70
     0
  9
$DIMTVP
 40
0.0
  9
$DIMTIX
 70
     0
  9
$DIMSOXD
 70
     0
  9
$DIMSAH
 70
     0
  9
$DIMBLK1
  1

  9
$DIMBLK2
  1

  9
$DIMSTYLE
  2
STANDARD
  9
$DIMCLRD
 70
     0
  9
$DIMCLRE
 70
     0
  9
$DIMCLRT
 70
     0
  9
$DIMTFAC
 40
1.0
  9
$DIMGAP
 40
0.09
  9
$LUNITS
 70
     2
  9
$LUPREC
 70
     4
  9
$SKETCHINC
 40
0.1
  9
$FILLETRAD
 40
0.0
  9
$AUNITS
 70
     0
  9
$AUPREC
 70
     0
  9
$MENU
  1
.
  9
$ELEVATION
 40
0.0
  9
$PELEVATION
 40
0.0
  9
$THICKNESS
 40
0.0
  9
$LIMCHECK
 70
     0
  9
$BLIPMODE
 70
     0
  9
$CHAMFERA
 40
0.0
  9
$CHAMFERB
 40
0.0
  9
$SKPOLY
 70
     0
  9
$TDCREATE
 40
2458138.761494502
  9
$TDUPDATE
 40
2458150.6361084948
  9
$TDINDWG
 40
0.0742186111
  9
$TDUSRTIMER
 40
0.0742186111
  9
$USRTIMER
 70
     1
  9
$ANGBASE
 50
0.0
  9
$ANGDIR
 70
     0
  9
$PDMODE
 70
     0
  9
$PDSIZE
 40
0.3125
  9
$PLINEWID
 40
0.0
  9
$COORDS
 70
     1
  9
$SPLFRAME
 70
     0
  9
$SPLINETYPE
 70
     6
  9
$SPLINESEGS
 70
     8
  9
$ATTDIA
 70
     1
  9
$ATTREQ
 70
     1
  9
$HANDLING
 70
     1
  9
$HANDSEED
  5
E10
  9
$SURFTAB1
 70
     6
  9
$SURFTAB2
 70
     6
  9
$SURFTYPE
 70
     6
  9
$SURFU
 70
     6
  9
$SURFV
 70
     6
  9
$UCSNAME
  2

  9
$UCSORG
 10
0.0
 20
0.0
 30
0.0
  9
$UCSXDIR
 10
1.0
 20
0.0
 30
0.0
  9
$UCSYDIR
 10
0.0
 20
1.0
 30
0.0
  9
$PUCSNAME
  2

  9
$PUCSORG
 10
0.0
 20
0.0
 30
0.0
  9
$PUCSXDIR
 10
1.0
 20
0.0
 30
0.0
  9
$PUCSYDIR
 10
0.0
 20
1.0
 30
0.0
  9
$USERI1
 70
     0
  9
$USERI2
 70
     0
  9
$USERI3
 70
     0
  9
$USERI4
 70
     0
  9
$USERI5
 70
     0
  9
$USERR1
 40
0.0
  9
$USERR2
 40
0.0
  9
$USERR3
 40
0.0
  9
$USERR4
 40
0.0
  9
$USERR5
 40
0.0
  9
$WORLDVIEW
 70
     1
  9
$SHADEDGE
 70
     3
  9
$SHADEDIF
 70
    70
  9
$TILEMODE
 70
     1
  9
$MAXACTVP
 70
    48
  9
$PLIMCHECK
 70
     0
  9
$PEXTMIN
 10
1.0000000000000000E+020
 20
1.0000000000000000E+020
 30
1.0000000000000000E+020
  9
$PEXTMAX
 10
-1.0000000000000000E+020
 20
-1.0000000000000000E+020
 30
-1.0000000000000000E+020
  9
$PLIMMIN
 10
0.0
 20
0.0
  9
$PLIMMAX
 10
12.0
 20
9.0
  9
$UNITMODE
 70
     0
  9
$VISRETAIN
 70
     1
  9
$PLINEGEN
 70
     0
  9
$PSLTSCALE
 70
     1
  0
ENDSEC
  0
SECTION
  2
TABLES
  0
TABLE
  2
VPORT
 70
     1
  0
VPORT
  2
*ACTIVE
 70
     0
 10
0.0
 20
0.0
 11
1.0
 21
1.0
 12
0.0
 22
0.0
 13
0.0
 23
0.0
 14
1.0
 24
1.0
 15
0.0
 25
0.0
 16
-0.0000000000000497
 26
0.0
 36
227.18588091133299
 17
43.823651149486949
 27
15.797025682163691
 37
0.0
 40
80.839378122087084
 41
2.0983240223463682
 42
50.0
 43
0.0
 44
0.0
 50
0.0
 51
0.0
 71
     0
 72
   100
 73
     1
 74
     1
 75
     0
 76
     0
 77
     0
 78
     0
  0
ENDTAB
  0
TABLE
  2
LTYPE
 70
     2
  0
LTYPE
  2
CONTINUOUS
 70
     0
  3
Solid line
 72
    65
 73
     0
 40
0.0
  0
LTYPE
  2
PHANTOM2
 70
     0
  3
___ _ _ ___ _ _ ___ _ _ ___ _ _
 72
    65
 73
     6
 40
1.25
 49
0.625
 49
-0.125
 49
0.125
 49
-0.125
 49
0.125
 49
-0.125
  0
ENDTAB
  0
TABLE
  2
LAYER
 70
     2
  0
LAYER
  2
0
 70
     0
 62
     7
  6
CONTINUOUS
  0
LAYER
  2
DEFPOINTS
 70
     0
 62
     7
  6
CONTINUOUS
  0
ENDTAB
  0
TABLE
  2
STYLE
 70
     1
  0
STYLE
  2
STANDARD
 70
     0
 40
0.0
 41
0.8
 50
0.0
 71
     0
 42
0.2
  3
txt
  4

  0
ENDTAB
  0
TABLE
  2
VIEW
 70
     0
  0
ENDTAB
  0
TABLE
  2
UCS
 70
     0
  0
ENDTAB
  0
TABLE
  2
APPID
 70
     7
  0
APPID
  2
ACAD
 70
     0
  0
APPID
  2
ACAD_MLEADERVER
 70
     0
  0
APPID
  2
ACAD_NAV_VCDISPLAY
 70
     0
  0
APPID
  2
ACDBATTR
 70
     0
  0
APPID
  2
ACAD_DSTYLE_DIMJAG
 70
     0
  0
APPID
  2
ACAD_DSTYLE_DIMTALN
 70
     0
  0
APPID
  2
ACAD_EXEMPT_FROM_CAD_STANDARDS
 70
     0
  0
ENDTAB
  0
TABLE
  2
DIMSTYLE
 70
     1
  0
DIMSTYLE
  2
STANDARD
 70
     0
  3

  4

  5

  6

  7

 40
1.0
 41
0.1875
 42
0.0625
 43
0.38
 44
0.125
 45
0.0
 46
0.0
 47
1.5
 48
1.5
140
0.15625
141
0.09
142
0.0
143
25.399999999999999
144
1.0
145
0.0
146
1.0
147
0.09
 71
     0
 72
     0
 73
     1
 74
     1
 75
     0
 76
     0
 77
     0
 78
     4
170
     0
171
     2
172
     0
173
     0
174
     0
175
     0
176
     0
177
     0
178
     0
  0
ENDTAB
  0
ENDSEC
  0
SECTION
  2
BLOCKS
  0
BLOCK
  8
0
  2
$MODEL_SPACE
 70
     0
 10
0.0
 20
0.0
 30
0.0
  3
$MODEL_SPACE
  1

  0
ENDBLK
  5
21
  8
0
  0
BLOCK
 67
     1
  8
0
  2
$PAPER_SPACE
 70
     0
 10
0.0
 20
0.0
 30
0.0
  3
$PAPER_SPACE
  1

  0
ENDBLK
  5
1D
 67
     1
  8
0
  0
ENDSEC
  0
SECTION
  2
ENTITIES
  0
LINE
  5
D67
  8
0
 10
67.823651149486949
 20
48.2906600523064
 30
0.0
 11
67.823651149486949
 21
-16.688328426913831
 31
0.0
  0
LINE
  5
D68
  8
0
 10
67.823651149486949
 20
48.2906600523064
 30
0.0
 11
67.823651149486949
 21
48.290660052306379
 31
0.0
  0
LINE
  5
D69
  8
0
 10
67.823651149486949
 20
48.290660052306379
 30
0.0
 11
19.823651149486949
 21
48.290660052306379
 31
0.0
  0
LINE
  5
D6A
  8
0
 10
19.823651149486949
 20
-16.688328426913831
 30
0.0
 11
19.823651149486949
 21
48.290660052306379
 31
0.0
  0
LINE
  5
D6B
  8
0
 10
19.823651149486949
 20
47.308671491485789
 30
0.0
 11
67.823651149486949
 21
47.308660058785811
 31
0.0
  0
LINE
  5
D6C
  8
0
 10
19.823651149486949
 20
46.183671491485768
 30
0.0
 11
67.823651149486949
 21
46.183660058785833
 31
0.0
  0
LINE
  5
D6D
  8
0
 10
66.918651149486934
 20
46.183660058785819
 30
0.0
 11
66.918651149486934
 21
16.114708033485819
 31
0.0
  0
LINE
  5
D6E
  8
0
 10
67.167774430086951
 20
-16.688339941214181
 30
0.0
 11
67.167774430086922
 21
46.183660058785819
 31
0.0
  0
LINE
  5
D6F
  8
0
 10
66.75353435638695
 20
16.114708033485819
 30
0.0
 11
67.167774430086979
 21
16.114708033485819
 31
0.0
  0
LINE
  5
D70
  8
0
 10
66.75353435638695
 20
16.114708033485819
 30
0.0
 11
66.75353435638695
 21
14.614708033485821
 31
0.0
  0
LINE
  5
D71
  8
0
 10
66.75353435638695
 20
14.614708033485821
 30
0.0
 11
67.167774430086979
 21
14.614708033485821
 31
0.0
  0
LINE
  5
D72
  8
0
 10
66.918651149486934
 20
14.614708033485821
 30
0.0
 11
66.918651149486934
 21
-15.72333994121418
 31
0.0
  0
LINE
  5
D73
  8
0
 10
20.72865114948695
 20
46.183671491485789
 30
0.0
 11
20.72865114948695
 21
15.797219466185791
 31
0.0
  0
LINE
  5
D74
  8
0
 10
20.479527868886951
 20
-16.688328508514211
 30
0.0
 11
20.479527868886979
 21
46.183671491485789
 31
0.0
  0
LINE
  5
D75
  8
0
 10
21.48261267368693
 20
15.797219466185791
 30
0.0
 11
21.48261267368693
 21
14.93221946618579
 31
0.0
  0
LINE
  5
D76
  8
0
 10
44.78765114948694
 20
14.932219466185799
 30
0.0
 11
20.479527868886919
 21
14.93221946618579
 31
0.0
  0
LINE
  5
D77
  8
0
 10
20.72865114948695
 20
14.93221946618579
 30
0.0
 11
20.72865114948695
 21
-15.7233285085142
 31
0.0
  0
LINE
  5
D78
  8
0
 10
21.84565114948694
 20
15.797219466185791
 30
0.0
 11
21.84565114948694
 21
14.93221946618579
 31
0.0
  0
LINE
  5
D79
  8
0
 10
20.479651149486951
 20
15.797219466185791
 30
0.0
 11
44.78765114948694
 21
15.797219466185799
 31
0.0
  0
LINE
  5
D7A
  8
0
 10
44.78765114948694
 20
15.797219466185799
 30
0.0
 11
44.78765114948694
 21
14.932219466185799
 31
0.0
  0
LINE
  5
D7B
  8
0
 10
43.03165114948694
 20
15.797219466185799
 30
0.0
 11
43.03165114948694
 21
14.932219466185799
 31
0.0
  0
LINE
  5
D7C
  8
0
 10
43.394689625186921
 20
15.797219466185799
 30
0.0
 11
43.394689625186921
 21
14.932219466185799
 31
0.0
  0
LINE
  5
D7D
  8
0
 10
67.823651149486949
 20
-16.688328426913841
 30
0.0
 11
19.823651149486949
 21
-16.688328426913841
 31
0.0
  0
LINE
  5
D7E
  8
0
 10
20.479527868886951
 20
-15.723328508514211
 30
0.0
 11
67.167774430086979
 21
-15.72333994121418
 31
0.0
  0
LINE
  5
D7F
  8
0
 10
66.918651149486934
 20
-15.53279196651418
 30
0.0
 11
44.747651149486927
 21
-15.532780533814201
 31
0.0
  0
LINE
  5
D80
  8
0
 10
44.747651149486927
 20
-15.7233285085142
 30
0.0
 11
44.74765114948692
 21
14.932219466185799
 31
0.0
  0
LINE
  5
D81
  8
0
 10
44.747651149486927
 20
15.797219466185799
 30
0.0
 11
44.747651149486927
 21
46.183671491485811
 31
0.0
  0
LINE
  5
D82
  8
0
 10
44.14865114948693
 20
46.183671491485789
 30
0.0
 11
44.14865114948693
 21
15.797219466185799
 31
0.0
  0
LINE
  5
D83
  8
0
 10
44.14865114948693
 20
14.932219466185799
 30
0.0
 11
44.14865114948693
 21
-15.7233285085142
 31
0.0
  0
LINE
  5
D84
  8
0
 10
44.14865114948693
 20
-15.532780533814201
 30
0.0
 11
20.72865114948695
 21
-15.532780533814201
 31
0.0
  0
ATTDEF
  5
D86
  8
DEFPOINTS
 10
43.82062074358749
 20
-16.696608687979019
 30
0.0
 40
0.001
  1
ALUMINUM/GLASS
  3

  2
MATERIAL
 70
     0
1001
ACDBATTR
1070
     0
1070
     1
  0
ATTDEF
  5
D87
  8
DEFPOINTS
 10
43.82062074358749
 20
-16.694942021312361
 30
0.0
 40
0.001
  1
SHOWER DOOR
  3

  2
PRODUCT
 70
     0
1001
ACDBATTR
1070
     0
1070
     1
  0
ATTDEF
  5
D88
  8
DEFPOINTS
 10
43.82062074358749
 20
-16.693275354645689
 30
0.0
 40
0.001
  1
STANDARD
  3

  2
TRADENAME
 70
     0
1001
ACDBATTR
1070
     0
1070
     1
  0
ATTDEF
  5
D89
  8
DEFPOINTS
 10
43.82062074358749
 20
-16.69160868797902
 30
0.0
 40
0.001
  1
695B-48
  3

  2
MODELNUMBER
 70
     0
1001
ACDBATTR
1070
     0
1070
     1
  0
ENDSEC
  0
EOF
