  0
SECTION
  2
HEADER
  9
$ACADVER
  1
AC1009
  9
$INSBASE
 10
49.215689377000011
 20
-22.251237760999999
 30
0.0
  9
$EXTMIN
 10
47.216120877790587
 20
-22.27465581748541
 30
-0.0015258207003583
  9
$EXTMAX
 10
50.18180239947489
 20
42.732591443582407
 30
0.0000000349246037
  9
$LIMMIN
 10
0.0
 20
0.0
  9
$LIMMAX
 10
22.0
 20
17.0
  9
$ORTHOMODE
 70
     0
  9
$REGENMODE
 70
     1
  9
$FILLMODE
 70
     1
  9
$QTEXTMODE
 70
     0
  9
$MIRRTEXT
 70
     0
  9
$DRAGMODE
 70
     2
  9
$LTSCALE
 40
1.2099999999999991
  9
$OSMODE
 70
    39
  9
$ATTMODE
 70
     1
  9
$TEXTSIZE
 40
0.2
  9
$TRACEWID
 40
0.05
  9
$TEXTSTYLE
  7
STANDARD
  9
$CLAYER
  8
0
  9
$CELTYPE
  6
BYLAYER
  9
$CECOLOR
 62
   256
  9
$DIMSCALE
 40
1.0
  9
$DIMASZ
 40
0.1875
  9
$DIMEXO
 40
0.0625
  9
$DIMDLI
 40
0.8359999999999999
  9
$DIMRND
 40
0.0
  9
$DIMDLE
 40
0.0
  9
$DIMEXE
 40
0.125
  9
$DIMTP
 40
0.0
  9
$DIMTM
 40
0.0
  9
$DIMTXT
 40
2.0
  9
$DIMCEN
 40
0.198
  9
$DIMTSZ
 40
0.0
  9
$DIMTOL
 70
     0
  9
$DIMLIM
 70
     0
  9
$DIMTIH
 70
     1
  9
$DIMTOH
 70
     1
  9
$DIMSE1
 70
     0
  9
$DIMSE2
 70
     0
  9
$DIMTAD
 70
     0
  9
$DIMZIN
 70
     0
  9
$DIMBLK
  1

  9
$DIMASO
 70
     1
  9
$DIMSHO
 70
     1
  9
$DIMPOST
  1
\X
  9
$DIMAPOST
  1

  9
$DIMALT
 70
     1
  9
$DIMALTD
 70
     2
  9
$DIMALTF
 40
25.399999999999999
  9
$DIMLFAC
 40
1.0
  9
$DIMTOFL
 70
     0
  9
$DIMTVP
 40
0.0
  9
$DIMTIX
 70
     0
  9
$DIMSOXD
 70
     0
  9
$DIMSAH
 70
     0
  9
$DIMBLK1
  1

  9
$DIMBLK2
  1

  9
$DIMSTYLE
  2
STANDARD
  9
$DIMCLRD
 70
     0
  9
$DIMCLRE
 70
     0
  9
$DIMCLRT
 70
     0
  9
$DIMTFAC
 40
1.0
  9
$DIMGAP
 40
0.09
  9
$LUNITS
 70
     2
  9
$LUPREC
 70
     4
  9
$SKETCHINC
 40
0.1
  9
$FILLETRAD
 40
0.0
  9
$AUNITS
 70
     0
  9
$AUPREC
 70
     0
  9
$MENU
  1
.
  9
$ELEVATION
 40
0.0
  9
$PELEVATION
 40
0.0
  9
$THICKNESS
 40
0.0
  9
$LIMCHECK
 70
     0
  9
$BLIPMODE
 70
     0
  9
$CHAMFERA
 40
0.0
  9
$CHAMFERB
 40
0.0
  9
$SKPOLY
 70
     0
  9
$TDCREATE
 40
2458127.4949089009
  9
$TDUPDATE
 40
2458135.6365798269
  9
$TDINDWG
 40
0.0510489468
  9
$TDUSRTIMER
 40
0.0510489468
  9
$USRTIMER
 70
     1
  9
$ANGBASE
 50
0.0
  9
$ANGDIR
 70
     0
  9
$PDMODE
 70
     0
  9
$PDSIZE
 40
0.3125
  9
$PLINEWID
 40
0.0
  9
$COORDS
 70
     1
  9
$SPLFRAME
 70
     0
  9
$SPLINETYPE
 70
     6
  9
$SPLINESEGS
 70
     8
  9
$ATTDIA
 70
     1
  9
$ATTREQ
 70
     1
  9
$HANDLING
 70
     1
  9
$HANDSEED
  5
DF6
  9
$SURFTAB1
 70
     6
  9
$SURFTAB2
 70
     6
  9
$SURFTYPE
 70
     6
  9
$SURFU
 70
     6
  9
$SURFV
 70
     6
  9
$UCSNAME
  2

  9
$UCSORG
 10
0.0
 20
0.0
 30
0.0
  9
$UCSXDIR
 10
1.0
 20
0.0
 30
0.0
  9
$UCSYDIR
 10
0.0
 20
1.0
 30
0.0
  9
$PUCSNAME
  2

  9
$PUCSORG
 10
0.0
 20
0.0
 30
0.0
  9
$PUCSXDIR
 10
1.0
 20
0.0
 30
0.0
  9
$PUCSYDIR
 10
0.0
 20
1.0
 30
0.0
  9
$USERI1
 70
     0
  9
$USERI2
 70
     0
  9
$USERI3
 70
     0
  9
$USERI4
 70
     0
  9
$USERI5
 70
     0
  9
$USERR1
 40
0.0
  9
$USERR2
 40
0.0
  9
$USERR3
 40
0.0
  9
$USERR4
 40
0.0
  9
$USERR5
 40
0.0
  9
$WORLDVIEW
 70
     1
  9
$SHADEDGE
 70
     3
  9
$SHADEDIF
 70
    70
  9
$TILEMODE
 70
     1
  9
$MAXACTVP
 70
    48
  9
$PLIMCHECK
 70
     0
  9
$PEXTMIN
 10
1.0000000000000000E+020
 20
1.0000000000000000E+020
 30
1.0000000000000000E+020
  9
$PEXTMAX
 10
-1.0000000000000000E+020
 20
-1.0000000000000000E+020
 30
-1.0000000000000000E+020
  9
$PLIMMIN
 10
0.0
 20
0.0
  9
$PLIMMAX
 10
12.0
 20
9.0
  9
$UNITMODE
 70
     0
  9
$VISRETAIN
 70
     1
  9
$PLINEGEN
 70
     0
  9
$PSLTSCALE
 70
     1
  0
ENDSEC
  0
SECTION
  2
TABLES
  0
TABLE
  2
VPORT
 70
     1
  0
VPORT
  2
*ACTIVE
 70
     0
 10
0.0
 20
0.0
 11
1.0
 21
1.0
 12
48.698961638632717
 22
10.2289678130485
 13
0.0
 23
0.0
 14
1.0
 24
1.0
 15
0.0
 25
0.0
 16
0.0
 26
0.0
 36
1.0
 17
0.0
 27
0.0
 37
0.0
 40
65.452863642272945
 41
2.1638418079096038
 42
50.0
 43
0.0
 44
0.0
 50
0.0
 51
0.0
 71
     0
 72
   100
 73
     1
 74
     1
 75
     0
 76
     0
 77
     0
 78
     0
  0
ENDTAB
  0
TABLE
  2
LTYPE
 70
     2
  0
LTYPE
  2
CONTINUOUS
 70
     0
  3
Solid line
 72
    65
 73
     0
 40
0.0
  0
LTYPE
  2
PHANTOM2
 70
     0
  3
___ _ _ ___ _ _ ___ _ _ ___ _ _
 72
    65
 73
     6
 40
1.25
 49
0.625
 49
-0.125
 49
0.125
 49
-0.125
 49
0.125
 49
-0.125
  0
ENDTAB
  0
TABLE
  2
LAYER
 70
     2
  0
LAYER
  2
0
 70
     0
 62
     7
  6
CONTINUOUS
  0
LAYER
  2
DEFPOINTS
 70
     0
 62
     7
  6
CONTINUOUS
  0
ENDTAB
  0
TABLE
  2
STYLE
 70
     1
  0
STYLE
  2
STANDARD
 70
     0
 40
0.0
 41
0.8
 50
0.0
 71
     0
 42
0.2
  3
txt
  4

  0
ENDTAB
  0
TABLE
  2
VIEW
 70
     0
  0
ENDTAB
  0
TABLE
  2
UCS
 70
     0
  0
ENDTAB
  0
TABLE
  2
APPID
 70
     7
  0
APPID
  2
ACAD
 70
     0
  0
APPID
  2
ACAD_MLEADERVER
 70
     0
  0
APPID
  2
ACAD_DSTYLE_DIMJAG
 70
     0
  0
APPID
  2
ACAD_DSTYLE_DIMTALN
 70
     0
  0
APPID
  2
ACAD_NAV_VCDISPLAY
 70
     0
  0
APPID
  2
ACAD_EXEMPT_FROM_CAD_STANDARDS
 70
     0
  0
APPID
  2
ACDBATTR
 70
     0
  0
ENDTAB
  0
TABLE
  2
DIMSTYLE
 70
     1
  0
DIMSTYLE
  2
STANDARD
 70
     0
  3

  4

  5

  6

  7

 40
1.0
 41
0.1875
 42
0.0625
 43
0.38
 44
0.125
 45
0.0
 46
0.0
 47
1.5
 48
1.5
140
0.15625
141
0.09
142
0.0
143
25.399999999999999
144
1.0
145
0.0
146
1.0
147
0.09
 71
     0
 72
     0
 73
     1
 74
     1
 75
     0
 76
     0
 77
     0
 78
     4
170
     0
171
     2
172
     0
173
     0
174
     0
175
     0
176
     0
177
     0
178
     0
  0
ENDTAB
  0
ENDSEC
  0
SECTION
  2
BLOCKS
  0
BLOCK
  8
0
  2
$MODEL_SPACE
 70
     0
 10
0.0
 20
0.0
 30
0.0
  3
$MODEL_SPACE
  1

  0
ENDBLK
  5
21
  8
0
  0
BLOCK
 67
     1
  8
0
  2
$PAPER_SPACE
 70
     0
 10
0.0
 20
0.0
 30
0.0
  3
$PAPER_SPACE
  1

  0
ENDBLK
  5
1D
 67
     1
  8
0
  0
ENDSEC
  0
SECTION
  2
ENTITIES
  0
LINE
  5
AFA
  8
0
 10
49.733432047900017
 20
42.375800282500002
 30
0.0
 11
49.733432047900017
 21
41.684820144900002
 31
0.0
  0
LINE
  5
AFB
  8
0
 10
49.763432047900018
 20
42.405800474699987
 30
0.0
 11
49.763432047900018
 21
41.654819952657782
 31
0.0
  0
LINE
  5
AFC
  8
0
 10
49.953432047900023
 20
41.654819952700009
 30
0.0
 11
49.953432047900023
 21
42.405800474699987
 31
0.0
  0
LINE
  5
AFD
  8
0
 10
49.983432047900017
 20
41.684820144900002
 30
0.0
 11
49.983432047900017
 21
42.375800282500002
 31
0.0
  0
LINE
  5
AFE
  8
0
 10
49.983432047900017
 20
42.375800282500002
 30
0.0
 11
49.953432047900023
 21
42.405800474699987
 31
0.0
  0
LINE
  5
AFF
  8
0
 10
49.733432047900017
 20
42.375800282500002
 30
0.0
 11
49.763432047900018
 21
42.405800474699987
 31
0.0
  0
LINE
  5
B00
  8
0
 10
49.763432047900018
 20
42.405800474699987
 30
0.0
 11
49.953432047900023
 21
42.405800474699987
 31
0.0
  0
LINE
  5
B01
  8
0
 10
49.733432047900017
 20
42.249550474699987
 30
0.0
 11
49.623432047900039
 21
42.249550474699987
 31
0.0
  0
LINE
  5
B02
  8
0
 10
49.623432047900039
 20
42.249550474699987
 30
0.0
 11
49.608432047900017
 21
42.234550474699986
 31
0.0
  0
LINE
  5
B03
  8
0
 10
49.608432047900017
 20
42.234550474699986
 30
0.0
 11
49.608432047900017
 21
41.592762239000002
 31
0.0
  0
LINE
  5
B04
  8
0
 10
49.558432047900041
 20
41.592762239000002
 30
0.0
 11
49.558432047900041
 21
42.214310213700003
 31
0.0
  0
LINE
  5
B05
  8
0
 10
49.592432047900033
 20
42.230310213699987
 30
0.0
 11
49.574432047900032
 21
42.230310213699987
 31
0.0
  0
ARC
  5
B06
  8
0
 10
49.574432047900032
 20
42.214310213700003
 30
0.0
 40
0.0159999999999983
 50
89.999999999973952
 51
180.0
  0
ARC
  5
B07
  8
0
 10
49.59243204790009
 20
42.214310213700038
 30
0.0
 40
0.0159999999999556
 50
359.99999999984732
 51
90.000000000203556
  0
LINE
  5
B08
  8
0
 10
49.558432047900041
 20
42.187310213700002
 30
0.0
 11
49.52043204790003
 21
42.187310213699988
 31
0.0
  0
ARC
  5
B09
  8
0
 10
49.520432047900059
 20
42.135310213699988
 30
0.0
 40
0.0520000000000067
 50
90.000000000006509
 51
179.99999999999201
  0
LINE
  5
B0A
  8
0
 10
49.558432047900041
 20
41.873310213699988
 30
0.0
 11
49.52043204790003
 21
41.873310213699988
 31
0.0
  0
LINE
  5
B0B
  8
0
 10
49.468432047900031
 20
42.135310213699988
 30
0.0
 11
49.468432047900031
 21
41.925311961400013
 31
0.0
  0
ARC
  5
B0C
  8
0
 10
49.520433795629437
 20
41.925311961400013
 30
0.0
 40
0.0520017477294061
 50
179.99999999997979
 51
269.99807434319939
  0
LINE
  5
B0D
  8
0
 10
49.608432047900017
 20
41.82606995270001
 30
0.0
 11
49.623432047900039
 21
41.811069952699988
 31
0.0
  0
LINE
  5
B0E
  8
0
 10
49.623432047900039
 20
41.811069952699988
 30
0.0
 11
49.733432047900017
 21
41.811069952699988
 31
0.0
  0
ARC
  5
B0F
  8
0
 10
49.693432047900032
 20
41.737762238999977
 30
0.0
 40
0.0250000000000057
 50
0.0000000000651378
 51
179.9999999999348
  0
LINE
  5
B10
  8
0
 10
49.718432047900038
 20
41.737762238999998
 30
0.0
 11
49.718432047900123
 21
41.674550936199999
 31
0.0
  0
ARC
  5
B11
  8
0
 10
49.728432047900171
 20
41.674550936200013
 30
0.0
 40
0.0100000000000478
 50
180.0000000001119
 51
254.99999999765879
  0
LINE
  5
B12
  8
0
 10
49.72584385744873
 20
41.664891677937177
 30
0.0
 11
49.808432047899501
 21
41.642762238997932
 31
0.0
  0
LINE
  5
B13
  8
0
 10
49.808432047899501
 20
41.642762238997932
 30
0.0
 11
49.908432047900028
 21
41.642762239
 31
0.0
  0
LINE
  5
B14
  8
0
 10
49.908432047900028
 20
41.642762239
 30
0.0
 11
49.991020238400019
 21
41.664891677900002
 31
0.0
  0
ARC
  5
B15
  8
0
 10
49.988432047973291
 20
41.674550936093567
 30
0.0
 40
0.0099999999267501
 50
284.99999996840438
 51
0.0000006098522768
  0
LINE
  5
B16
  8
0
 10
49.998432047900032
 20
41.674550936199999
 30
0.0
 11
49.998432047517738
 21
41.710468930899999
 31
0.0
  0
ARC
  5
B17
  8
0
 10
50.014432047347427
 20
41.710468931070302
 30
0.0
 40
0.0159999998296883
 50
89.999998021136022
 51
180.00000060980071
  0
LINE
  5
B18
  8
0
 10
50.01443204790003
 20
41.726468930899998
 30
0.0
 11
50.052432047900041
 21
41.726468929587568
 31
0.0
  0
ARC
  5
B19
  8
0
 10
50.052432048452637
 20
41.742468929034963
 30
0.0
 40
0.0159999994473879
 50
269.99999802112461
 51
0.0000066787070348
  0
LINE
  5
B1A
  8
0
 10
50.068432047900032
 20
41.742468930900003
 30
0.0
 11
50.068431942840412
 21
42.643762239000012
 31
0.0
  0
ARC
  5
B1B
  8
0
 10
50.061431942023653
 20
42.643762238184053
 30
0.0
 40
0.0070000008167597
 50
0.0000066787387894
 51
89.999133390129245
  0
LINE
  5
B1C
  8
0
 10
50.061432047900027
 20
42.650762239000017
 30
0.0
 11
48.393233297690863
 21
42.650787470832377
 31
0.0
  0
ARC
  5
B1D
  8
0
 10
48.393233191783487
 20
42.643785422324072
 30
0.0
 40
0.0070020485091058
 50
89.999133390106465
 51
185.42510363139129
  0
LINE
  5
B1E
  8
0
 10
48.386262507996079
 20
42.643123417143151
 30
0.0
 11
48.468533217687231
 21
41.745389888839583
 31
0.0
  0
ARC
  5
B1F
  8
0
 10
48.484264333500029
 20
41.742468930900017
 30
0.0
 40
0.0160000000000093
 50
169.4810992960989
 51
270.00000000010101
  0
LINE
  5
B20
  8
0
 10
48.484264333500057
 20
41.726468930899998
 30
0.0
 11
48.551124775400027
 21
41.726468930900118
 31
0.0
  0
ARC
  5
B21
  8
0
 10
48.551124775400048
 20
41.710468930900127
 30
0.0
 40
0.0159999999999911
 50
359.99999999954201
 51
90.000000000105857
  0
LINE
  5
B22
  8
0
 10
48.567124775400039
 20
41.710468930899999
 30
0.0
 11
48.567124775399762
 21
41.674550936199999
 31
0.0
  0
ARC
  5
B23
  8
0
 10
48.5771247754301
 20
41.674550936199928
 30
0.0
 40
0.0100000000303453
 50
179.99999999957129
 51
254.9999998651293
  0
LINE
  5
B24
  8
0
 10
48.57453658494849
 20
41.664891677913822
 30
0.0
 11
48.657124775500037
 21
41.642762239
 31
0.0
  0
LINE
  5
B25
  8
0
 10
48.657124775500037
 20
41.642762239
 30
0.0
 11
48.757124775500031
 21
41.642762239
 31
0.0
  0
LINE
  5
B26
  8
0
 10
48.757124775500031
 20
41.642762239
 30
0.0
 11
48.839712965900027
 21
41.664891677900002
 31
0.0
  0
LINE
  5
B27
  8
0
 10
49.983432047900017
 20
41.684820144900002
 30
0.0
 11
49.953432047900023
 21
41.654819952700009
 31
0.0
  0
LINE
  5
B28
  8
0
 10
49.953432047900023
 20
41.654819952700009
 30
0.0
 11
49.763432047991799
 21
41.654819952608207
 31
0.0
  0
LINE
  5
B29
  8
0
 10
49.763432047991799
 20
41.654819952608207
 30
0.0
 11
49.733432047900017
 21
41.684820144900002
 31
0.0
  0
LINE
  5
B2A
  8
0
 10
49.668432047900019
 20
41.737762238999977
 30
0.0
 11
49.668432047900062
 21
41.674550936199999
 31
0.0
  0
ARC
  5
B2B
  8
0
 10
49.728432047900093
 20
41.674550936200028
 30
0.0
 40
0.0600000000000307
 50
180.00000000003459
 51
254.9999999966607
  0
LINE
  5
B2C
  8
0
 10
49.712902905190539
 20
41.616595386623551
 30
0.0
 11
49.801849423000377
 21
41.592762239001289
 31
0.0
  0
LINE
  5
B2D
  8
0
 10
48.832124775500048
 20
42.375800282500002
 30
0.0
 11
48.832124775500048
 21
41.684820144900002
 31
0.0
  0
LINE
  5
B2E
  8
0
 10
48.802124775500047
 20
42.405800474699987
 30
0.0
 11
48.802124775500047
 21
41.654819952657782
 31
0.0
  0
LINE
  5
B2F
  8
0
 10
48.612124775500043
 20
41.654819952700009
 30
0.0
 11
48.612124775500043
 21
42.405800474699987
 31
0.0
  0
LINE
  5
B30
  8
0
 10
48.582124775500041
 20
41.684820144900002
 30
0.0
 11
48.582124775500041
 21
42.375800282500002
 31
0.0
  0
LINE
  5
B31
  8
0
 10
48.582124775500041
 20
42.375800282500002
 30
0.0
 11
48.612124775500043
 21
42.405800474699987
 31
0.0
  0
LINE
  5
B32
  8
0
 10
48.832124775500048
 20
42.375800282500002
 30
0.0
 11
48.802124775500047
 21
42.405800474699987
 31
0.0
  0
LINE
  5
B33
  8
0
 10
48.802124775500047
 20
42.405800474699987
 30
0.0
 11
48.612124775500043
 21
42.405800474699987
 31
0.0
  0
LINE
  5
B34
  8
0
 10
48.832124775500048
 20
42.249550474699987
 30
0.0
 11
48.942124775500027
 21
42.249550474699987
 31
0.0
  0
LINE
  5
B35
  8
0
 10
48.942124775500027
 20
42.249550474699987
 30
0.0
 11
48.957124775500048
 21
42.234550474699986
 31
0.0
  0
LINE
  5
B36
  8
0
 10
48.957124775500048
 20
42.234550474699986
 30
0.0
 11
48.957124775500048
 21
41.592762239000002
 31
0.0
  0
LINE
  5
B37
  8
0
 10
49.007124775500031
 20
41.592762239000002
 30
0.0
 11
49.007124775500031
 21
42.214310213700003
 31
0.0
  0
LINE
  5
B38
  8
0
 10
48.97312477550004
 20
42.230310213699987
 30
0.0
 11
48.99112477550004
 21
42.230310213699987
 31
0.0
  0
ARC
  5
B39
  8
0
 10
48.99112477550004
 20
42.214310213700003
 30
0.0
 40
0.0159999999999983
 50
0.0
 51
90.000000000026048
  0
ARC
  5
B3A
  8
0
 10
48.973124775499983
 20
42.214310213700038
 30
0.0
 40
0.0159999999999556
 50
89.999999999798078
 51
180.0000000001526
  0
LINE
  5
B3B
  8
0
 10
49.007124775500031
 20
42.187310213700002
 30
0.0
 11
49.045124775500042
 21
42.187310213699988
 31
0.0
  0
ARC
  5
B3C
  8
0
 10
49.045124775500007
 20
42.135310213699988
 30
0.0
 40
0.0520000000000067
 50
0.0000000000079387
 51
89.999999999993491
  0
LINE
  5
B3D
  8
0
 10
49.007124775500031
 20
41.873310213699988
 30
0.0
 11
49.045124775500042
 21
41.873310213699988
 31
0.0
  0
LINE
  5
B3E
  8
0
 10
49.097124775500028
 20
42.135310213699988
 30
0.0
 11
49.097124775500028
 21
41.925311961400013
 31
0.0
  0
ARC
  5
B3F
  8
0
 10
49.045123027770629
 20
41.925311961400013
 30
0.0
 40
0.0520017477294061
 50
270.00192565679902
 51
0.000000000020152
  0
LINE
  5
B40
  8
0
 10
48.957124775500048
 20
41.82606995270001
 30
0.0
 11
48.942124775500027
 21
41.811069952699988
 31
0.0
  0
LINE
  5
B41
  8
0
 10
48.942124775500027
 20
41.811069952699988
 30
0.0
 11
48.832124775500048
 21
41.811069952699988
 31
0.0
  0
ARC
  5
B42
  8
0
 10
48.872124775500041
 20
41.737762238999977
 30
0.0
 40
0.0250000000000057
 50
0.0000000000651378
 51
179.9999999999348
  0
LINE
  5
B43
  8
0
 10
48.847124775500028
 20
41.737762238999998
 30
0.0
 11
48.84712477549995
 21
41.674550936199999
 31
0.0
  0
ARC
  5
B44
  8
0
 10
48.837124775499902
 20
41.674550936200013
 30
0.0
 40
0.0100000000000478
 50
285.00000000234121
 51
359.99999999988802
  0
LINE
  5
B45
  8
0
 10
48.582124775500041
 20
41.684820144900002
 30
0.0
 11
48.612124775500043
 21
41.654819952700009
 31
0.0
  0
LINE
  5
B46
  8
0
 10
48.612124775500043
 20
41.654819952700009
 30
0.0
 11
48.802124775408267
 21
41.654819952608207
 31
0.0
  0
LINE
  5
B47
  8
0
 10
48.802124775408267
 20
41.654819952608207
 30
0.0
 11
48.832124775500048
 21
41.684820144900002
 31
0.0
  0
LINE
  5
B48
  8
0
 10
48.897124775500053
 20
41.737762238999977
 30
0.0
 11
48.897124775500018
 21
41.674550936199999
 31
0.0
  0
ARC
  5
B49
  8
0
 10
48.83712477549998
 20
41.674550936200028
 30
0.0
 40
0.0600000000000307
 50
285.00000000333932
 51
359.99999999996538
  0
LINE
  5
B4A
  8
0
 10
48.852653918209519
 20
41.616595386623551
 30
0.0
 11
48.763707400399703
 21
41.592762239001289
 31
0.0
  0
LINE
  5
B4B
  8
0
 10
50.052432047900041
 20
41.592762239000002
 30
0.0
 11
48.465446706100018
 21
41.592762239000002
 31
0.0
  0
ARC
  5
B4C
  8
0
 10
48.465446706100053
 20
41.580114894930873
 30
0.0
 40
0.0126473440691228
 50
89.999999999956032
 51
188.8570800837212
  0
LINE
  5
B4D
  8
0
 10
48.452950175523469
 20
41.578167579971279
 30
0.0
 11
48.374033914823528
 21
40.683167579972007
 31
0.0
  0
ARC
  5
B4E
  8
0
 10
48.389972077138147
 20
40.681762239078452
 30
0.0
 40
0.0160000000784381
 50
174.96100029167471
 51
269.9999998635152
  0
LINE
  5
B4F
  8
0
 10
48.38997207710004
 20
40.665762239000003
 30
0.0
 11
48.438237053700028
 21
40.665762238885023
 31
0.0
  0
ARC
  5
B50
  8
0
 10
48.438237053661922
 20
40.649762238846918
 30
0.0
 40
0.0160000000381047
 50
0.0000005481749605
 51
89.999999863513594
  0
LINE
  5
B51
  8
0
 10
48.45423705370002
 20
40.649762238999998
 30
0.0
 11
48.4542370538244
 21
40.636762238999992
 31
0.0
  0
ARC
  5
B52
  8
0
 10
48.438237053977488
 20
40.63676223884692
 30
0.0
 40
0.0159999998469118
 50
269.99999900644559
 51
0.0000005481181685
  0
LINE
  5
B53
  8
0
 10
48.438237053700028
 20
40.620762239000001
 30
0.0
 11
48.389972262200033
 21
40.620762239836942
 31
0.0
  0
ARC
  5
B54
  8
0
 10
48.389972263260638
 20
40.681925268028813
 30
0.0
 40
0.0611630281918565
 50
179.59075013399789
 51
269.99999900645207
  0
LINE
  5
B55
  8
0
 10
48.328810795300008
 20
40.682362136999998
 30
0.0
 11
48.41743204790005
 21
41.745762238999987
 31
0.0
  0
LINE
  5
B56
  8
0
 10
48.41743204790005
 20
41.745762238999987
 30
0.0
 11
48.329039028994949
 21
42.710302074751752
 31
0.0
  0
ARC
  5
B57
  8
0
 10
48.344972262200052
 20
42.711762238999732
 30
0.0
 40
0.0159999999999639
 50
354.76388661922073
 51
185.2361133807733
  0
ARC
  5
B58
  8
0
 10
48.37708450181686
 20
42.712033209405213
 30
0.0
 40
0.0162713575235527
 50
186.10734458939339
 51
269.60477130872749
  0
LINE
  5
B59
  8
0
 10
48.376972262200027
 20
42.695762238999997
 30
0.0
 11
50.097432047900028
 21
42.695762238999997
 31
0.0
  0
ARC
  5
B5A
  8
0
 10
50.09743204790005
 20
42.711762238999953
 30
0.0
 40
0.0159999999999556
 50
269.9999999998974
 51
0.0000000001526666
  0
ARC
  5
B5B
  8
0
 10
50.129432047900039
 20
42.711762239000031
 30
0.0
 40
0.0160000000000196
 50
359.99999999984732
 51
180.0000000001526
  0
LINE
  5
B5C
  8
0
 10
50.14543204790003
 20
42.711762238999988
 30
0.0
 11
50.145432047899909
 21
42.666762239000008
 31
0.0
  0
ARC
  5
B5D
  8
0
 10
50.12943204789984
 20
42.666762239000029
 30
0.0
 40
0.0160000000000764
 50
270.00000000071162
 51
359.99999999993929
  0
ARC
  5
B5E
  8
0
 10
50.129432047900067
 20
42.63476223899999
 30
0.0
 40
0.0160000000000054
 50
90.000000000100954
 51
180.0
  0
LINE
  5
B5F
  8
0
 10
50.113432047900083
 20
42.63476223899999
 30
0.0
 11
50.113432047900012
 21
40.668762239000003
 31
0.0
  0
ARC
  5
B60
  8
0
 10
50.129432047900011
 20
40.668762239000003
 30
0.0
 40
0.0159999999999911
 50
180.00000000004761
 51
270.00000000010101
  0
ARC
  5
B61
  8
0
 10
50.129432047900067
 20
40.636762238999999
 30
0.0
 40
0.0159999999999911
 50
269.9999999998974
 51
90.000000000100954
  0
LINE
  5
B62
  8
0
 10
50.129432047900039
 20
40.620762239000008
 30
0.0
 11
49.984432047900029
 21
40.620762239000257
 31
0.0
  0
ARC
  5
B63
  8
0
 10
49.984432047900057
 20
40.636762239000248
 30
0.0
 40
0.0159999999999911
 50
180.000000000916
 51
269.99999999989899
  0
LINE
  5
B64
  8
0
 10
49.968432047900073
 20
40.636762238999992
 30
0.0
 11
49.96843204789986
 21
40.649762238999998
 31
0.0
  0
ARC
  5
B65
  8
0
 10
49.984432047899631
 20
40.649762239000239
 30
0.0
 40
0.0159999999997638
 50
89.999999998575106
 51
180.00000000093959
  0
LINE
  5
B66
  8
0
 10
49.984432047900029
 20
40.665762238999989
 30
0.0
 11
50.052432047900041
 21
40.665762238998298
 31
0.0
  0
ARC
  5
B67
  8
0
 10
50.05243204790041
 20
40.681762238997891
 30
0.0
 40
0.0159999999995932
 50
269.99999999857511
 51
0.0000000075315535
  0
LINE
  5
B68
  8
0
 10
50.068432047900032
 20
40.681762239000001
 30
0.0
 11
50.068432047782387
 21
41.576762238999997
 31
0.0
  0
ARC
  5
B69
  8
0
 10
50.0524320477803
 20
41.576762238997901
 30
0.0
 40
0.0160000000020944
 50
0.000000007555573
 51
89.999999571209528
  0
LINE
  5
B6A
  8
0
 10
49.96593204790004
 20
41.592762239000002
 30
0.0
 11
49.96593204790004
 21
-22.251237760999999
 31
0.0
  0
LINE
  5
B6B
  8
0
 10
49.96593204790004
 20
-22.251237760999999
 30
0.0
 11
49.96593204790004
 21
-22.251237760999999
 31
0.0
  0
LINE
  5
B6C
  8
0
 10
49.96593204790004
 20
-22.251237760999999
 30
0.0
 11
48.465446706100003
 21
-22.251237760999999
 31
0.0
  0
LINE
  5
B6D
  8
0
 10
48.465414040200031
 20
-22.251237760999999
 30
0.0
 11
48.465414040200031
 21
41.592762196814739
 31
0.0
  0
LINE
  5
B6E
  8
0
 10
49.965932047900012
 20
10.5518102137
 30
0.0
 11
50.179432047900022
 21
10.5518102137
 31
0.0
  0
LINE
  5
B6F
  8
0
 10
50.179432047900022
 20
10.5518102137
 30
0.0
 11
50.179432047900022
 21
9.0518102137000032
 31
0.0
  0
LINE
  5
B70
  8
0
 10
50.179432047900022
 20
9.0518102137000032
 30
0.0
 11
49.965932047900012
 21
9.0518102137000032
 31
0.0
  0
LINE
  5
B71
  8
0
 10
50.090484945200032
 20
10.5518102137
 30
0.0
 11
50.090484945200032
 21
9.0518102137000032
 31
0.0
  0
LINE
  5
B72
  8
0
 10
48.465446706100018
 20
10.234310213700001
 30
0.0
 11
47.219124775500049
 21
10.234310213700001
 31
0.0
  0
LINE
  5
B73
  8
0
 10
47.219124775500049
 20
10.234310213700001
 30
0.0
 11
47.219124775500013
 21
9.3693102137000022
 31
0.0
  0
LINE
  5
B74
  8
0
 10
47.219124775500013
 20
9.3693102137000022
 30
0.0
 11
48.465446706100018
 21
9.3693102137000022
 31
0.0
  0
LINE
  5
B75
  8
0
 10
47.634540091700032
 20
10.234310213700001
 30
0.0
 11
47.63454009170006
 21
9.3693102137000022
 31
0.0
  0
CIRCLE
  5
B76
  8
0
 10
47.425124775500031
 20
9.8018102137000014
 30
0.0
 40
0.1550664756158042
  0
LINE
  5
B77
  8
0
 10
47.401307302300019
 20
9.8918102137000048
 30
0.0
 11
47.448942248600027
 21
9.8918102137000048
 31
0.0
  0
LINE
  5
B78
  8
0
 10
47.448942248600027
 20
9.8918102137000048
 30
0.0
 11
47.448942248600027
 21
9.8256276868000043
 31
0.0
  0
LINE
  5
B79
  8
0
 10
47.448942248600027
 20
9.8256276868000043
 30
0.0
 11
47.515124775500027
 21
9.8256276868000043
 31
0.0
  0
LINE
  5
B7A
  8
0
 10
47.515124775500027
 20
9.8256276868000043
 30
0.0
 11
47.515124775500027
 21
9.7779927406000056
 31
0.0
  0
LINE
  5
B7B
  8
0
 10
47.515124775500027
 20
9.7779927406000056
 30
0.0
 11
47.448942248600027
 21
9.7779927406000056
 31
0.0
  0
LINE
  5
B7C
  8
0
 10
47.448942248600027
 20
9.7779927406000056
 30
0.0
 11
47.448942248600027
 21
9.7118102137000193
 31
0.0
  0
LINE
  5
B7D
  8
0
 10
47.448942248600027
 20
9.7118102137000193
 30
0.0
 11
47.401307302300019
 21
9.7118102137000051
 31
0.0
  0
LINE
  5
B7E
  8
0
 10
47.401307302300019
 20
9.7118102137000051
 30
0.0
 11
47.401307302300019
 21
9.7779927406000056
 31
0.0
  0
LINE
  5
B7F
  8
0
 10
47.401307302300019
 20
9.7779927406000056
 30
0.0
 11
47.335124775500027
 21
9.7779927406000056
 31
0.0
  0
LINE
  5
B80
  8
0
 10
47.335124775500027
 20
9.7779927406000056
 30
0.0
 11
47.335124775500027
 21
9.8256276868000043
 31
0.0
  0
LINE
  5
B81
  8
0
 10
47.335124775500027
 20
9.8256276868000043
 30
0.0
 11
47.401307302300019
 21
9.8256276868000043
 31
0.0
  0
LINE
  5
B82
  8
0
 10
47.401307302300019
 20
9.8256276868000043
 30
0.0
 11
47.401307302300047
 21
9.8918102136997064
 31
0.0
  0
ATTDEF
  5
B93
  8
DEFPOINTS
 10
49.211004218236837
 20
-22.273050631397389
 30
0.0
 40
0.001
  1
ALUMINUM/GLASS
  3

  2
MATERIAL
 70
     0
1001
ACDBATTR
1070
     0
1070
     1
  0
ATTDEF
  5
B94
  8
DEFPOINTS
 10
49.211004218236837
 20
-22.271383964730731
 30
0.0
 40
0.001
  1
SHOWER DOOR
  3

  2
PRODUCT
 70
     0
1001
ACDBATTR
1070
     0
1070
     1
  0
ATTDEF
  5
B95
  8
DEFPOINTS
 10
49.211004218236837
 20
-22.269717298064069
 30
0.0
 40
0.001
  1
STANDARD
  3

  2
TRADENAME
 70
     0
1001
ACDBATTR
1070
     0
1070
     1
  0
ATTDEF
  5
B96
  8
DEFPOINTS
 10
49.211004218236837
 20
-22.268050631397401
 30
0.0
 40
0.001
  1
660B-52
  3

  2
MODELNUMBER
 70
     0
1001
ACDBATTR
1070
     0
1070
     1
  0
ENDSEC
  0
EOF
