  0
SECTION
  2
HEADER
  9
$ACADVER
  1
AC1009
  9
$INSBASE
 10
7.1020856980999962
 20
57.761838479899993
 30
0.0
  9
$EXTMIN
 10
-18.897914301900009
 20
-30.19238235988422
 30
0.0
  9
$EXTMAX
 10
54.30694805739455
 20
70.310447534181293
 30
0.0
  9
$LIMMIN
 10
0.0
 20
0.0
  9
$LIMMAX
 10
22.0
 20
17.0
  9
$ORTHOMODE
 70
     0
  9
$REGENMODE
 70
     1
  9
$FILLMODE
 70
     1
  9
$QTEXTMODE
 70
     0
  9
$MIRRTEXT
 70
     0
  9
$DRAGMODE
 70
     2
  9
$LTSCALE
 40
1.2099999999999991
  9
$OSMODE
 70
    39
  9
$ATTMODE
 70
     1
  9
$TEXTSIZE
 40
0.2
  9
$TRACEWID
 40
0.05
  9
$TEXTSTYLE
  7
STANDARD
  9
$CLAYER
  8
0
  9
$CELTYPE
  6
BYLAYER
  9
$CECOLOR
 62
   256
  9
$DIMSCALE
 40
1.0
  9
$DIMASZ
 40
0.1875
  9
$DIMEXO
 40
0.0625
  9
$DIMDLI
 40
0.8359999999999999
  9
$DIMRND
 40
0.0
  9
$DIMDLE
 40
0.0
  9
$DIMEXE
 40
0.125
  9
$DIMTP
 40
0.0
  9
$DIMTM
 40
0.0
  9
$DIMTXT
 40
2.0
  9
$DIMCEN
 40
0.198
  9
$DIMTSZ
 40
0.0
  9
$DIMTOL
 70
     0
  9
$DIMLIM
 70
     0
  9
$DIMTIH
 70
     1
  9
$DIMTOH
 70
     1
  9
$DIMSE1
 70
     0
  9
$DIMSE2
 70
     0
  9
$DIMTAD
 70
     0
  9
$DIMZIN
 70
     0
  9
$DIMBLK
  1

  9
$DIMASO
 70
     1
  9
$DIMSHO
 70
     1
  9
$DIMPOST
  1
\X
  9
$DIMAPOST
  1

  9
$DIMALT
 70
     1
  9
$DIMALTD
 70
     2
  9
$DIMALTF
 40
25.399999999999999
  9
$DIMLFAC
 40
1.0
  9
$DIMTOFL
 70
     0
  9
$DIMTVP
 40
0.0
  9
$DIMTIX
 70
     0
  9
$DIMSOXD
 70
     0
  9
$DIMSAH
 70
     0
  9
$DIMBLK1
  1

  9
$DIMBLK2
  1

  9
$DIMSTYLE
  2
STANDARD
  9
$DIMCLRD
 70
     0
  9
$DIMCLRE
 70
     0
  9
$DIMCLRT
 70
     0
  9
$DIMTFAC
 40
1.0
  9
$DIMGAP
 40
0.09
  9
$LUNITS
 70
     2
  9
$LUPREC
 70
     4
  9
$SKETCHINC
 40
0.1
  9
$FILLETRAD
 40
0.0
  9
$AUNITS
 70
     0
  9
$AUPREC
 70
     0
  9
$MENU
  1
.
  9
$ELEVATION
 40
0.0
  9
$PELEVATION
 40
0.0
  9
$THICKNESS
 40
0.0
  9
$LIMCHECK
 70
     0
  9
$BLIPMODE
 70
     0
  9
$CHAMFERA
 40
0.0
  9
$CHAMFERB
 40
0.0
  9
$SKPOLY
 70
     0
  9
$TDCREATE
 40
2458127.4949089009
  9
$TDUPDATE
 40
2458135.6364671881
  9
$TDINDWG
 40
0.0512521181
  9
$TDUSRTIMER
 40
0.0512521181
  9
$USRTIMER
 70
     1
  9
$ANGBASE
 50
0.0
  9
$ANGDIR
 70
     0
  9
$PDMODE
 70
     0
  9
$PDSIZE
 40
0.3125
  9
$PLINEWID
 40
0.0
  9
$COORDS
 70
     1
  9
$SPLFRAME
 70
     0
  9
$SPLINETYPE
 70
     6
  9
$SPLINESEGS
 70
     8
  9
$ATTDIA
 70
     1
  9
$ATTREQ
 70
     1
  9
$HANDLING
 70
     1
  9
$HANDSEED
  5
E4C
  9
$SURFTAB1
 70
     6
  9
$SURFTAB2
 70
     6
  9
$SURFTYPE
 70
     6
  9
$SURFU
 70
     6
  9
$SURFV
 70
     6
  9
$UCSNAME
  2

  9
$UCSORG
 10
0.0
 20
0.0
 30
0.0
  9
$UCSXDIR
 10
1.0
 20
0.0
 30
0.0
  9
$UCSYDIR
 10
0.0
 20
1.0
 30
0.0
  9
$PUCSNAME
  2

  9
$PUCSORG
 10
0.0
 20
0.0
 30
0.0
  9
$PUCSXDIR
 10
1.0
 20
0.0
 30
0.0
  9
$PUCSYDIR
 10
0.0
 20
1.0
 30
0.0
  9
$USERI1
 70
     0
  9
$USERI2
 70
     0
  9
$USERI3
 70
     0
  9
$USERI4
 70
     0
  9
$USERI5
 70
     0
  9
$USERR1
 40
0.0
  9
$USERR2
 40
0.0
  9
$USERR3
 40
0.0
  9
$USERR4
 40
0.0
  9
$USERR5
 40
0.0
  9
$WORLDVIEW
 70
     1
  9
$SHADEDGE
 70
     3
  9
$SHADEDIF
 70
    70
  9
$TILEMODE
 70
     1
  9
$MAXACTVP
 70
    48
  9
$PLIMCHECK
 70
     0
  9
$PEXTMIN
 10
1.0000000000000000E+020
 20
1.0000000000000000E+020
 30
1.0000000000000000E+020
  9
$PEXTMAX
 10
-1.0000000000000000E+020
 20
-1.0000000000000000E+020
 30
-1.0000000000000000E+020
  9
$PLIMMIN
 10
0.0
 20
0.0
  9
$PLIMMAX
 10
12.0
 20
9.0
  9
$UNITMODE
 70
     0
  9
$VISRETAIN
 70
     1
  9
$PLINEGEN
 70
     0
  9
$PSLTSCALE
 70
     1
  0
ENDSEC
  0
SECTION
  2
TABLES
  0
TABLE
  2
VPORT
 70
     1
  0
VPORT
  2
*ACTIVE
 70
     0
 10
0.0
 20
0.0
 11
1.0
 21
1.0
 12
17.9574878291277
 22
50.762438554138519
 13
0.0
 23
0.0
 14
1.0
 24
1.0
 15
0.0
 25
0.0
 16
0.0
 26
0.0
 36
1.0
 17
0.0
 27
0.0
 37
0.0
 40
65.533033152629358
 41
2.1638418079096038
 42
50.0
 43
0.0
 44
0.0
 50
0.0
 51
0.0
 71
     0
 72
   100
 73
     1
 74
     1
 75
     0
 76
     0
 77
     0
 78
     0
  0
ENDTAB
  0
TABLE
  2
LTYPE
 70
     8
  0
LTYPE
  2
CONTINUOUS
 70
     0
  3
Solid line
 72
    65
 73
     0
 40
0.0
  0
LTYPE
  2
PHANTOM2
 70
     0
  3
___ _ _ ___ _ _ ___ _ _ ___ _ _
 72
    65
 73
     6
 40
1.25
 49
0.625
 49
-0.125
 49
0.125
 49
-0.125
 49
0.125
 49
-0.125
  0
ENDTAB
  0
TABLE
  2
LAYER
 70
    51
  0
LAYER
  2
0
 70
     0
 62
     7
  6
CONTINUOUS
  0
LAYER
  2
DEFPOINTS
 70
     0
 62
     7
  6
CONTINUOUS
  0
ENDTAB
  0
TABLE
  2
STYLE
 70
     2
  0
STYLE
  2
STANDARD
 70
     0
 40
0.0
 41
0.8
 50
0.0
 71
     0
 42
0.2
  3
txt
  4

  0
ENDTAB
  0
TABLE
  2
VIEW
 70
     0
  0
ENDTAB
  0
TABLE
  2
UCS
 70
     0
  0
ENDTAB
  0
TABLE
  2
APPID
 70
     7
  0
APPID
  2
ACAD
 70
     0
  0
APPID
  2
ACAD_MLEADERVER
 70
     0
  0
APPID
  2
ACAD_DSTYLE_DIMJAG
 70
     0
  0
APPID
  2
ACAD_DSTYLE_DIMTALN
 70
     0
  0
APPID
  2
ACAD_NAV_VCDISPLAY
 70
     0
  0
APPID
  2
ACAD_EXEMPT_FROM_CAD_STANDARDS
 70
     0
  0
APPID
  2
AcDbAttr
 70
     0
  0
ENDTAB
  0
TABLE
  2
DIMSTYLE
 70
     2
  0
DIMSTYLE
  2
STANDARD
 70
     0
  3

  4

  5

  6

  7

 40
1.0
 41
0.1875
 42
0.0625
 43
0.38
 44
0.125
 45
0.0
 46
0.0
 47
1.5
 48
1.5
140
0.15625
141
0.09
142
0.0
143
25.399999999999999
144
1.0
145
0.0
146
1.0
147
0.09
 71
     0
 72
     0
 73
     1
 74
     1
 75
     0
 76
     0
 77
     0
 78
     4
170
     0
171
     2
172
     0
173
     0
174
     0
175
     0
176
     0
177
     0
178
     0
  0
ENDTAB
  0
ENDSEC
  0
SECTION
  2
BLOCKS
  0
BLOCK
  8
0
  2
$MODEL_SPACE
 70
     0
 10
0.0
 20
0.0
 30
0.0
  3
$MODEL_SPACE
  1

  0
ENDBLK
  5
21
  8
0
  0
BLOCK
 67
     1
  8
0
  2
$PAPER_SPACE
 70
     0
 10
0.0
 20
0.0
 30
0.0
  3
$PAPER_SPACE
  1

  0
ENDBLK
  5
1D
 67
     1
  8
0
  0
BLOCK
  8
0
  2
*U13
 70
     1
 10
0.0
 20
0.0
 30
0.0
  3
*U13
  1

  0
TEXT
  5
E39
  8
0
 62
     0
 10
37.577947542280683
 20
10.16013148185
 30
0.0
 40
0.15625
  1
64.9790
 41
0.8
  0
ENDBLK
  5
E3B
  8
0
  0
BLOCK
  8
0
  2
*U14
 70
     1
 10
0.0
 20
0.0
 30
0.0
  3
*U14
  1

  0
TEXT
  5
E3D
  8
0
 62
     0
 10
-59.844679427745866
 20
9.2382622390000169
 30
0.0
 40
2.0
  1
64.9790 [1650.47]
 41
0.8
  0
ENDBLK
  5
E3F
  8
0
  0
BLOCK
  8
0
  2
*U15
 70
     1
 10
0.0
 20
0.0
 30
0.0
  3
*U15
  1

  0
TEXT
  5
E41
  8
0
 62
     0
 10
48.828556399676067
 20
58.89959595780001
 30
0.0
 40
2.0
  1
1.7205
 41
0.8
  0
ENDBLK
  5
E43
  8
0
  0
BLOCK
  8
0
  2
*U16
 70
     1
 10
0.0
 20
0.0
 30
0.0
  3
*U16
  1

  0
TEXT
  5
E45
  8
0
 62
     0
 10
48.295223066342743
 20
56.719595957800003
 30
0.0
 40
2.0
  1
[43.70]
 41
0.8
  0
ENDBLK
  5
E47
  8
0
  0
ENDSEC
  0
SECTION
  2
ENTITIES
  0
LINE
  5
A38
  8
0
 10
33.102085698099998
 20
56.853581001999991
 30
0.0
 11
33.102085698099998
 21
58.670095957799987
 31
0.0
  0
LINE
  5
A39
  8
0
 10
33.102085698099998
 20
58.670095957799987
 30
0.0
 11
-18.897914301899998
 21
58.670095957799987
 31
0.0
  0
LINE
  5
A3A
  8
0
 10
-18.897914301899998
 20
58.670095957799987
 30
0.0
 11
-18.897914301899998
 21
56.853702938899978
 31
0.0
  0
LINE
  5
A3B
  8
0
 10
-18.897914301899998
 20
56.853702938899978
 30
0.0
 11
33.102085698099998
 21
56.853702938899978
 31
0.0
  0
LINE
  5
A3C
  8
0
 10
-18.897914301899998
 20
58.638095957799983
 30
0.0
 11
33.102085698099998
 21
58.638095957799983
 31
0.0
  0
LINE
  5
A3D
  8
0
 10
33.102085698099998
 20
56.8856361721
 30
0.0
 11
-18.897914301899998
 21
56.8856361721
 31
0.0
  0
LINE
  5
A3E
  8
0
 10
7.074093322176795
 20
56.853702938899978
 30
0.0
 11
6.6731241737999927
 21
56.159204001600003
 31
0.0
  0
ARC
  5
A3F
  8
0
 10
6.725085697561755
 20
56.129204001870541
 30
0.0
 40
0.0599999994617652
 50
150.00000000156351
 51
180.0000002583453
  0
LINE
  5
A40
  8
0
 10
6.665085698099988
 20
56.129204001600002
 30
0.0
 11
6.6650856981000031
 21
55.782788685299991
 31
0.0
  0
ARC
  5
A41
  8
0
 10
6.6260856981000007
 20
55.782788685299991
 30
0.0
 40
0.0390000000000015
 50
270.0
 51
0.0000000000048853
  0
LINE
  5
A42
  8
0
 10
6.6260856981000007
 20
55.743788685299982
 30
0.0
 11
6.3570856980999961
 21
55.743788685299982
 31
0.0
  0
ARC
  5
A43
  8
0
 10
6.3570856980999961
 20
55.790788685299979
 30
0.0
 40
0.0469999999999971
 50
179.99999999998209
 51
270.0
  0
LINE
  5
A44
  8
0
 10
6.3100856980999991
 20
55.790788685299987
 30
0.0
 11
6.3100856980999991
 21
55.80578868529998
 31
0.0
  0
LINE
  5
A45
  8
0
 10
6.9840266801767852
 20
56.853702938899978
 30
0.0
 11
6.5984062060999973
 21
56.18578868529999
 31
0.0
  0
ARC
  5
A46
  8
0
 10
6.5464446818752604
 20
56.215788685295941
 30
0.0
 40
0.0599999999959546
 50
270.00000002362628
 51
330.0000000022452
  0
LINE
  5
A47
  8
0
 10
6.5464446819000006
 20
56.155788685299989
 30
0.0
 11
6.3570856980999961
 21
56.1557886852219
 31
0.0
  0
ARC
  5
A48
  8
0
 10
6.3570856981193788
 20
56.108788685202519
 30
0.0
 40
0.0470000000193807
 50
90.000000023621382
 51
179.99999988120089
  0
LINE
  5
A49
  8
0
 10
6.3100856980999991
 20
56.10878868529997
 30
0.0
 11
6.3100856980688906
 21
56.093788685299991
 31
0.0
  0
LINE
  5
A4A
  8
0
 10
-17.639921925976811
 20
56.853702938899978
 30
0.0
 11
-17.238952777600002
 21
56.159204001600003
 31
0.0
  0
ARC
  5
A4B
  8
0
 10
-17.29091430136177
 20
56.129204001870541
 30
0.0
 40
0.0599999994617652
 50
359.99999974165388
 51
29.999999998436461
  0
LINE
  5
A4C
  8
0
 10
-17.2309143019
 20
56.129204001600002
 30
0.0
 11
-17.230914301900011
 21
55.782788685299991
 31
0.0
  0
ARC
  5
A4D
  8
0
 10
-17.19191430190001
 20
55.782788685299991
 30
0.0
 40
0.0390000000000015
 50
179.99999999999511
 51
270.0
  0
LINE
  5
A4E
  8
0
 10
-17.19191430190001
 20
55.743788685299982
 30
0.0
 11
-16.922914301900011
 21
55.743788685299982
 31
0.0
  0
ARC
  5
A4F
  8
0
 10
-16.922914301900011
 20
55.790788685299979
 30
0.0
 40
0.0469999999999971
 50
270.0
 51
0.0000000000179129
  0
LINE
  5
A50
  8
0
 10
-16.875914301900011
 20
55.790788685299987
 30
0.0
 11
-16.875914301900011
 21
55.80578868529998
 31
0.0
  0
LINE
  5
A51
  8
0
 10
-17.5498552839768
 20
56.853702938899978
 30
0.0
 11
-17.164234809900009
 21
56.18578868529999
 31
0.0
  0
ARC
  5
A52
  8
0
 10
-17.112273285675268
 20
56.215788685295941
 30
0.0
 40
0.0599999999959546
 50
209.99999999775491
 51
269.99999997637451
  0
LINE
  5
A53
  8
0
 10
-17.112273285700009
 20
56.155788685299989
 30
0.0
 11
-16.922914301900011
 21
56.1557886852219
 31
0.0
  0
ARC
  5
A54
  8
0
 10
-16.922914301919391
 20
56.108788685202519
 30
0.0
 40
0.0470000000193807
 50
0.0000001187982465
 51
89.999999976377794
  0
LINE
  5
A55
  8
0
 10
-16.875914301900011
 20
56.10878868529997
 30
0.0
 11
-16.8759143018689
 21
56.093788685299991
 31
0.0
  0
ARC
  5
A56
  8
0
 10
-17.10991430189998
 20
56.077788685299957
 30
0.0
 40
0.0160000000000338
 50
90.000000000050477
 51
179.99999999989819
  0
LINE
  5
A57
  8
0
 10
-17.125914301900011
 20
56.077788685299979
 30
0.0
 11
-17.125914301900458
 21
55.821788685299978
 31
0.0
  0
ARC
  5
A58
  8
0
 10
-17.109914301900488
 20
55.821788685299957
 30
0.0
 40
0.0159999999999769
 50
179.99999999989819
 51
270.00000000178068
  0
ARC
  5
A59
  8
0
 10
6.5440856980999653
 20
56.077788685299957
 30
0.0
 40
0.0160000000000338
 50
0.0000000001017777
 51
89.999999999949523
  0
LINE
  5
A5A
  8
0
 10
6.5600856980999991
 20
56.077788685299979
 30
0.0
 11
6.5600856981004529
 21
55.821788685299978
 31
0.0
  0
ARC
  5
A5B
  8
0
 10
6.544085698100476
 20
55.821788685299957
 30
0.0
 40
0.0159999999999769
 50
269.99999999821853
 51
0.0000000001017777
  0
LINE
  5
A5C
  8
0
 10
-17.109914301899991
 20
56.093788685299991
 30
0.0
 11
6.5440856980999929
 21
56.093788685299991
 31
0.0
  0
LINE
  5
A5D
  8
0
 10
6.5440856980999929
 20
55.80578868529998
 30
0.0
 11
-17.109914301899991
 21
55.805788685299987
 31
0.0
  0
ATTDEF
  5
B97
  8
DEFPOINTS
 10
7.097400539336812
 20
57.740025609502588
 30
0.0
 40
0.001
  1
ALUMINUM/GLASS
  3

  2
MATERIAL
 70
     0
1001
AcDbAttr
1070
     0
1070
     1
  0
ATTDEF
  5
B98
  8
DEFPOINTS
 10
7.097400539336812
 20
57.74169227616926
 30
0.0
 40
0.001
  1
SHOWER DOOR
  3

  2
PRODUCT
 70
     0
1001
AcDbAttr
1070
     0
1070
     1
  0
ATTDEF
  5
B99
  8
DEFPOINTS
 10
7.097400539336812
 20
57.743358942835918
 30
0.0
 40
0.001
  1
STANDARD
  3

  2
TRADENAME
 70
     0
1001
AcDbAttr
1070
     0
1070
     1
  0
ATTDEF
  5
B9A
  8
DEFPOINTS
 10
7.097400539336812
 20
57.745025609502591
 30
0.0
 40
0.001
  1
660B-52
  3

  2
MODELNUMBER
 70
     0
1001
AcDbAttr
1070
     0
1070
     1
  0
ENDSEC
  0
EOF
