  0
SECTION
  2
HEADER
  9
$ACADVER
  1
AC1009
  9
$INSBASE
 10
318.83425086661958
 20
110.6576599614
 30
0.0
  9
$EXTMIN
 10
287.18306028821962
 20
70.031846466899992
 30
0.0
  9
$EXTMAX
 10
350.4854414450196
 20
111.6566599614
 30
0.0
  9
$LIMMIN
 10
0.0
 20
0.0
  9
$LIMMAX
 10
11.692913385800001
 20
8.2677165353999982
  9
$ORTHOMODE
 70
     0
  9
$REGENMODE
 70
     1
  9
$FILLMODE
 70
     1
  9
$QTEXTMODE
 70
     0
  9
$MIRRTEXT
 70
     0
  9
$DRAGMODE
 70
     2
  9
$LTSCALE
 40
0.6431102362
  9
$OSMODE
 70
  3071
  9
$ATTMODE
 70
     1
  9
$TEXTSIZE
 40
0.2
  9
$TRACEWID
 40
0.05
  9
$TEXTSTYLE
  7
STANDARD
  9
$CLAYER
  8
0
  9
$CELTYPE
  6
BYLAYER
  9
$CECOLOR
 62
   256
  9
$DIMSCALE
 40
1.0
  9
$DIMASZ
 40
0.1875
  9
$DIMEXO
 40
0.0625
  9
$DIMDLI
 40
0.4443307087
  9
$DIMRND
 40
0.0
  9
$DIMDLE
 40
0.0
  9
$DIMEXE
 40
0.125
  9
$DIMTP
 40
0.01
  9
$DIMTM
 40
0.01
  9
$DIMTXT
 40
1.0
  9
$DIMCEN
 40
0.1052362205
  9
$DIMTSZ
 40
0.0
  9
$DIMTOL
 70
     1
  9
$DIMLIM
 70
     0
  9
$DIMTIH
 70
     1
  9
$DIMTOH
 70
     1
  9
$DIMSE1
 70
     0
  9
$DIMSE2
 70
     0
  9
$DIMTAD
 70
     0
  9
$DIMZIN
 70
     0
  9
$DIMBLK
  1

  9
$DIMASO
 70
     1
  9
$DIMSHO
 70
     1
  9
$DIMPOST
  1
\X
  9
$DIMAPOST
  1

  9
$DIMALT
 70
     1
  9
$DIMALTD
 70
     2
  9
$DIMALTF
 40
25.399999999999999
  9
$DIMLFAC
 40
1.0
  9
$DIMTOFL
 70
     0
  9
$DIMTVP
 40
0.0
  9
$DIMTIX
 70
     0
  9
$DIMSOXD
 70
     0
  9
$DIMSAH
 70
     0
  9
$DIMBLK1
  1

  9
$DIMBLK2
  1

  9
$DIMSTYLE
  2
STANDARD
  9
$DIMCLRD
 70
     0
  9
$DIMCLRE
 70
     0
  9
$DIMCLRT
 70
     0
  9
$DIMTFAC
 40
1.0
  9
$DIMGAP
 40
0.09
  9
$LUNITS
 70
     2
  9
$LUPREC
 70
     4
  9
$SKETCHINC
 40
0.1
  9
$FILLETRAD
 40
0.0
  9
$AUNITS
 70
     0
  9
$AUPREC
 70
     0
  9
$MENU
  1
.
  9
$ELEVATION
 40
0.0
  9
$PELEVATION
 40
0.0
  9
$THICKNESS
 40
0.0
  9
$LIMCHECK
 70
     0
  9
$BLIPMODE
 70
     0
  9
$CHAMFERA
 40
0.0
  9
$CHAMFERB
 40
0.0
  9
$SKPOLY
 70
     0
  9
$TDCREATE
 40
2458234.4505143049
  9
$TDUPDATE
 40
2458234.7417600122
  9
$TDINDWG
 40
0.2779411343
  9
$TDUSRTIMER
 40
0.2779411343
  9
$USRTIMER
 70
     1
  9
$ANGBASE
 50
0.0
  9
$ANGDIR
 70
     0
  9
$PDMODE
 70
     0
  9
$PDSIZE
 40
0.3125
  9
$PLINEWID
 40
0.0
  9
$COORDS
 70
     1
  9
$SPLFRAME
 70
     0
  9
$SPLINETYPE
 70
     6
  9
$SPLINESEGS
 70
     8
  9
$ATTDIA
 70
     1
  9
$ATTREQ
 70
     1
  9
$HANDLING
 70
     1
  9
$HANDSEED
  5
1F5F
  9
$SURFTAB1
 70
     6
  9
$SURFTAB2
 70
     6
  9
$SURFTYPE
 70
     6
  9
$SURFU
 70
     6
  9
$SURFV
 70
     6
  9
$UCSNAME
  2

  9
$UCSORG
 10
0.0
 20
0.0
 30
0.0
  9
$UCSXDIR
 10
1.0
 20
0.0
 30
0.0
  9
$UCSYDIR
 10
0.0
 20
1.0
 30
0.0
  9
$PUCSNAME
  2

  9
$PUCSORG
 10
0.0
 20
0.0
 30
0.0
  9
$PUCSXDIR
 10
1.0
 20
0.0
 30
0.0
  9
$PUCSYDIR
 10
0.0
 20
1.0
 30
0.0
  9
$USERI1
 70
     0
  9
$USERI2
 70
     0
  9
$USERI3
 70
     0
  9
$USERI4
 70
     0
  9
$USERI5
 70
     0
  9
$USERR1
 40
0.0
  9
$USERR2
 40
0.0
  9
$USERR3
 40
0.0
  9
$USERR4
 40
0.0
  9
$USERR5
 40
0.0
  9
$WORLDVIEW
 70
     1
  9
$SHADEDGE
 70
     3
  9
$SHADEDIF
 70
    70
  9
$TILEMODE
 70
     1
  9
$MAXACTVP
 70
    64
  9
$PLIMCHECK
 70
     0
  9
$PEXTMIN
 10
1.0000000000000000E+020
 20
1.0000000000000000E+020
 30
1.0000000000000000E+020
  9
$PEXTMAX
 10
-1.0000000000000000E+020
 20
-1.0000000000000000E+020
 30
-1.0000000000000000E+020
  9
$PLIMMIN
 10
0.0
 20
0.0
  9
$PLIMMAX
 10
12.0
 20
9.0
  9
$UNITMODE
 70
     0
  9
$VISRETAIN
 70
     1
  9
$PLINEGEN
 70
     0
  9
$PSLTSCALE
 70
     1
  0
ENDSEC
  0
SECTION
  2
TABLES
  0
TABLE
  2
VPORT
 70
     1
  0
VPORT
  2
*ACTIVE
 70
     0
 10
0.0
 20
0.0
 11
1.0
 21
1.0
 12
0.0
 22
0.0
 13
0.0
 23
0.0
 14
1.0
 24
1.0
 15
0.0
 25
0.0
 16
-0.0000000000000568
 26
0.0
 36
213.2285202929817
 17
318.83425086661958
 27
90.844253214150001
 37
0.0
 40
75.767621799661114
 41
2.1006711409395971
 42
50.0
 43
0.0
 44
0.0
 50
0.0
 51
0.0
 71
     0
 72
   100
 73
     1
 74
     1
 75
     0
 76
     0
 77
     0
 78
     0
  0
ENDTAB
  0
TABLE
  2
LTYPE
 70
     2
  0
LTYPE
  2
CONTINUOUS
 70
     0
  3
Solid line
 72
    65
 73
     0
 40
0.0
  0
LTYPE
  2
PHANTOM2
 70
     0
  3
___ _ _ ___ _ _ ___ _ _ ___ _ _
 72
    65
 73
     6
 40
1.25
 49
0.625
 49
-0.125
 49
0.125
 49
-0.125
 49
0.125
 49
-0.125
  0
ENDTAB
  0
TABLE
  2
LAYER
 70
     2
  0
LAYER
  2
0
 70
     0
 62
   255
  6
CONTINUOUS
  0
LAYER
  2
DEFPOINTS
 70
     0
 62
     7
  6
CONTINUOUS
  0
ENDTAB
  0
TABLE
  2
STYLE
 70
     1
  0
STYLE
  2
STANDARD
 70
     0
 40
0.0
 41
0.8
 50
0.0
 71
     0
 42
0.2
  3
txt
  4

  0
ENDTAB
  0
TABLE
  2
VIEW
 70
     0
  0
ENDTAB
  0
TABLE
  2
UCS
 70
     0
  0
ENDTAB
  0
TABLE
  2
APPID
 70
     9
  0
APPID
  2
ACAD
 70
     0
  0
APPID
  2
ACAD_MLEADERVER
 70
     0
  0
APPID
  2
ACAD_EXEMPT_FROM_CAD_STANDARDS
 70
     0
  0
APPID
  2
ACAD_DSTYLE_DIMJAG
 70
     0
  0
APPID
  2
ACAD_DSTYLE_DIMTALN
 70
     0
  0
APPID
  2
ACAD_NAV_VCDISPLAY
 70
     0
  0
APPID
  2
ACAECLAYERSTANDARD
 70
     0
  0
APPID
  2
ACCMTRANSPARENCY
 70
     0
  0
APPID
  2
AcDbAttr
 70
     0
  0
ENDTAB
  0
TABLE
  2
DIMSTYLE
 70
     1
  0
DIMSTYLE
  2
STANDARD
 70
     0
  3

  4

  5

  6

  7

 40
1.0
 41
0.1875
 42
0.0625
 43
0.38
 44
0.125
 45
0.0
 46
0.0
 47
0.01
 48
0.01
140
0.15625
141
0.09
142
0.0
143
25.399999999999999
144
1.0
145
0.0
146
1.0
147
0.09
 71
     1
 72
     0
 73
     1
 74
     1
 75
     0
 76
     0
 77
     0
 78
     4
170
     0
171
     2
172
     0
173
     0
174
     0
175
     0
176
     0
177
     0
178
     0
  0
ENDTAB
  0
ENDSEC
  0
SECTION
  2
BLOCKS
  0
BLOCK
  8
0
  2
$MODEL_SPACE
 70
     0
 10
0.0
 20
0.0
 30
0.0
  3
$MODEL_SPACE
  1

  0
ENDBLK
  5
21
  8
0
  0
BLOCK
 67
     1
  8
0
  2
$PAPER_SPACE
 70
     0
 10
0.0
 20
0.0
 30
0.0
  3
$PAPER_SPACE
  1

  0
ENDBLK
  5
1D
 67
     1
  8
0
  0
ENDSEC
  0
SECTION
  2
ENTITIES
  0
LINE
  5
19D2
  8
0
 10
289.30806028821962
 20
79.28165996140001
 30
0.0
 11
289.3736767859196
 21
78.53165996140001
 31
0.0
  0
LINE
  5
19D3
  8
0
 10
287.18306028821962
 20
70.031846466899992
 30
0.0
 11
287.18306028821962
 21
110.0377324724389
 31
0.0
  0
LINE
  5
19D4
  8
0
 10
287.29842617911959
 20
110.0753872984
 30
0.0
 11
287.29842622441959
 21
107.57325911086571
 31
0.0
  0
LINE
  5
19D5
  8
0
 10
288.30806028821962
 20
74.591587253699998
 30
0.0
 11
288.30806028821962
 21
71.801863525000002
 31
0.0
  0
LINE
  5
19D6
  8
0
 10
288.33846362281957
 20
74.661625471999983
 30
0.0
 11
288.33846362281957
 21
71.787659961599999
 31
0.0
  0
LINE
  5
19D7
  8
0
 10
288.53956272581962
 20
71.905694069099994
 30
0.0
 11
288.53956272581962
 21
74.607741130600004
 31
0.0
  0
LINE
  5
19D8
  8
0
 10
288.78956272591961
 20
75.308539796800005
 30
0.0
 11
288.78956272591961
 21
75.693994360666238
 31
0.0
  0
LINE
  5
19D9
  8
0
 10
288.80806028821962
 20
102.4085745565
 30
0.0
 11
288.80806028821962
 21
75.859536451099999
 31
0.0
  0
LINE
  5
19DA
  8
0
 10
287.20925246005658
 20
102.4644975743209
 30
0.0
 11
287.34857729881958
 21
110.4464122377
 31
0.0
  0
LINE
  5
19DB
  8
0
 10
287.26306028821961
 20
70.031846466899992
 30
0.0
 11
287.29306028822032
 21
71.283574556500028
 31
0.0
  0
LINE
  5
19DC
  8
0
 10
289.0234733859196
 20
107.8262839879
 30
0.0
 11
288.8386132992195
 21
102.53258372160001
 31
0.0
  0
LINE
  5
19DD
  8
0
 10
287.99652436431961
 20
102.4358502151
 30
0.0
 11
288.01817163581961
 21
102.84890476229999
 31
0.0
  0
LINE
  5
19DE
  8
0
 10
288.11419339451959
 20
102.4328050676
 30
0.0
 11
288.1331473236196
 21
102.7835745565
 31
0.0
  0
LINE
  5
19DF
  8
0
 10
288.4045411762196
 20
102.7494714064
 30
0.0
 11
288.38580402891961
 21
102.425442746
 31
0.0
  0
LINE
  5
19E0
  8
0
 10
289.30806028821962
 20
98.781659961399995
 30
0.0
 11
289.3736767859196
 21
99.531659961399995
 31
0.0
  0
LINE
  5
19E1
  8
0
 10
289.30806028821962
 20
101.7816599614
 30
0.0
 11
289.3736767859196
 21
101.0316599614
 31
0.0
  0
LINE
  5
19E2
  8
0
 10
288.39933009337437
 20
102.848904790687
 30
0.0
 11
288.4187264017196
 21
102.47880118019999
 31
0.0
  0
LINE
  5
19E3
  8
0
 10
288.35697364031961
 20
102.7835745565
 30
0.0
 11
288.37580491261963
 21
102.42366871270001
 31
0.0
  0
LINE
  5
19E4
  8
0
 10
288.94299119461959
 20
101.7816599614
 30
0.0
 11
288.94176429691959
 21
105.5597122941
 31
0.0
  0
LINE
  5
19E5
  8
0
 10
289.30806028821962
 20
76.28165996140001
 30
0.0
 11
289.30806028821962
 21
79.28165996140001
 31
0.0
  0
LINE
  5
19E6
  8
0
 10
289.30806028821962
 20
98.781659961399995
 30
0.0
 11
289.30806028821962
 21
101.7816599614
 31
0.0
  0
LINE
  5
19E7
  8
0
 10
289.3736767859196
 20
101.0316599614
 30
0.0
 11
289.3736767859196
 21
99.531659961399995
 31
0.0
  0
LINE
  5
19E8
  8
0
 10
289.3736767859196
 20
78.53165996140001
 30
0.0
 11
289.3736767859196
 21
77.031659961399995
 31
0.0
  0
LINE
  5
19E9
  8
0
 10
290.30806028821962
 20
74.911659961400005
 30
0.0
 11
290.30806028821962
 21
77.031659961399995
 31
0.0
  0
LINE
  5
19EA
  8
0
 10
290.30806028821962
 20
78.53165996140001
 30
0.0
 11
290.30806028821962
 21
79.28165996140001
 31
0.0
  0
LINE
  5
19EB
  8
0
 10
290.30806028821962
 20
82.281659309600016
 30
0.0
 11
290.30806028821962
 21
95.781660244199983
 31
0.0
  0
LINE
  5
19EC
  8
0
 10
290.30806295701962
 20
108.6516606791
 30
0.0
 11
290.30806295701962
 21
101.0316599614
 31
0.0
  0
LINE
  5
19ED
  8
0
 10
290.30806295701962
 20
99.531659961399995
 30
0.0
 11
290.30806295701962
 21
98.781660014500005
 31
0.0
  0
LINE
  5
19EE
  8
0
 10
289.30806028821962
 20
76.28165996140001
 30
0.0
 11
289.3736767859196
 21
77.031659961399995
 31
0.0
  0
LINE
  5
19EF
  8
0
 10
290.30806028821962
 20
78.53165996140001
 30
0.0
 11
290.30806028821962
 21
78.53165996140001
 31
0.0
  0
LINE
  5
19F0
  8
0
 10
291.05806028821962
 20
77.78165996140001
 30
0.0
 11
290.30806028821962
 21
78.53165996140001
 31
0.0
  0
LINE
  5
19F1
  8
0
 10
291.80805761941963
 20
108.6516601739
 30
0.0
 11
291.80805761941963
 21
98.781660014500005
 31
0.0
  0
LINE
  5
19F2
  8
0
 10
291.80806028821951
 20
74.911659961400005
 30
0.0
 11
291.80806028821951
 21
79.28165996140001
 31
0.0
  0
LINE
  5
19F3
  8
0
 10
292.83425086531958
 20
107.6966599614
 30
0.0
 11
292.83425086531958
 21
108.9366523764
 31
0.0
  0
LINE
  5
19F4
  8
0
 10
293.08425086531958
 20
110.6566599614
 30
0.0
 11
293.08425086531958
 21
111.6566599614
 31
0.0
  0
LINE
  5
19F5
  8
0
 10
298.58425086531958
 20
110.6566599614
 30
0.0
 11
298.58425086531958
 21
111.6566599614
 31
0.0
  0
LINE
  5
19F6
  8
0
 10
350.43595543061957
 20
70.031846466899992
 30
0.0
 11
350.35595543061959
 21
70.031846466899992
 31
0.0
  0
LINE
  5
19F7
  8
0
 10
287.26306028821961
 20
70.031846466899992
 30
0.0
 11
287.18306028821962
 21
70.031846466899992
 31
0.0
  0
LINE
  5
19F8
  8
0
 10
288.40854123401959
 20
74.966587255999997
 30
0.0
 11
288.7075793413195
 21
75.484536451300002
 31
0.0
  0
LINE
  5
19F9
  8
0
 10
288.5215171306196
 20
75.112576433000001
 30
0.0
 11
288.40541011301963
 21
74.911473179200001
 31
0.0
  0
LINE
  5
19FA
  8
0
 10
288.6065096838073
 20
74.857590577490413
 30
0.0
 11
288.72261623471962
 21
75.05869208979999
 31
0.0
  0
LINE
  5
19FB
  8
0
 10
287.29306028821958
 20
71.2835745565
 30
0.0
 11
287.82551003661962
 21
71.302168111499995
 31
0.0
  0
LINE
  5
19FC
  8
0
 10
350.45925086531958
 20
71.28765996140001
 30
0.0
 11
350.43595543061957
 21
71.28765996140001
 31
0.0
  0
LINE
  5
19FD
  8
0
 10
287.41005097751957
 20
71.28765996140001
 30
0.0
 11
350.15947873028648
 21
71.28765996140001
 31
0.0
  0
LINE
  5
19FE
  8
0
 10
349.79350568221957
 20
71.300440021900002
 30
0.0
 11
350.32595543061962
 21
71.281846466899992
 31
0.0
  0
LINE
  5
19FF
  8
0
 10
347.93919486705948
 20
75.727461503580514
 30
0.0
 11
347.31095443891962
 21
75.685614118000004
 31
0.0
  0
LINE
  5
1A00
  8
0
 10
290.4380602882195
 20
74.78165996140001
 30
0.0
 11
291.67806028821963
 21
74.78165996140001
 31
0.0
  0
LINE
  5
1A01
  8
0
 10
345.94095543061962
 20
74.78165996140001
 30
0.0
 11
347.18095543061958
 21
74.78165996140001
 31
0.0
  0
LINE
  5
1A02
  8
0
 10
290.30806028821962
 20
75.688896863699995
 30
0.0
 11
289.72930592271962
 21
75.727448267299991
 31
0.0
  0
LINE
  5
1A03
  8
0
 10
348.81095543061957
 20
76.28165996140001
 30
0.0
 11
348.31095543061957
 21
76.28165996140001
 31
0.0
  0
LINE
  5
1A04
  8
0
 10
288.80806028821962
 20
76.28165996140001
 30
0.0
 11
289.30806028821962
 21
76.28165996140001
 31
0.0
  0
LINE
  5
1A05
  8
0
 10
348.24533893301958
 20
77.031659961399995
 30
0.0
 11
347.31095543061957
 21
77.031659961399995
 31
0.0
  0
LINE
  5
1A06
  8
0
 10
289.3736767859196
 20
77.031659961399995
 30
0.0
 11
290.30806028821962
 21
77.031659961399995
 31
0.0
  0
LINE
  5
1A07
  8
0
 10
348.24533893301958
 20
78.53165996140001
 30
0.0
 11
347.31095543061957
 21
78.53165996140001
 31
0.0
  0
LINE
  5
1A08
  8
0
 10
289.3736767859196
 20
78.53165996140001
 30
0.0
 11
290.30806028821962
 21
78.53165996140001
 31
0.0
  0
LINE
  5
1A09
  8
0
 10
291.05806028821962
 20
77.78165996140001
 30
0.0
 11
290.30806028821962
 21
77.031659961399995
 31
0.0
  0
LINE
  5
1A0A
  8
0
 10
348.81095543061957
 20
79.28165996140001
 30
0.0
 11
348.31095543061957
 21
79.28165996140001
 31
0.0
  0
LINE
  5
1A0B
  8
0
 10
288.80806028821962
 20
79.28165996140001
 30
0.0
 11
289.30806028821962
 21
79.28165996140001
 31
0.0
  0
LINE
  5
1A0C
  8
0
 10
309.08425086531958
 20
110.6566599614
 30
0.0
 11
309.08425086531958
 21
111.6566599614
 31
0.0
  0
LINE
  5
1A0D
  8
0
 10
314.58425086531958
 20
110.6566599614
 30
0.0
 11
314.58425086531958
 21
111.6566599614
 31
0.0
  0
LINE
  5
1A0E
  8
0
 10
323.08425086531958
 20
110.6566599614
 30
0.0
 11
323.08425086531958
 21
111.6566599614
 31
0.0
  0
LINE
  5
1A0F
  8
0
 10
328.58425086531958
 20
110.6566599614
 30
0.0
 11
328.58425086531958
 21
111.6566599614
 31
0.0
  0
LINE
  5
1A10
  8
0
 10
348.81095543061957
 20
98.781659961399995
 30
0.0
 11
348.31095543061957
 21
98.781659961399995
 31
0.0
  0
LINE
  5
1A11
  8
0
 10
288.80806028821962
 20
98.781659961399995
 30
0.0
 11
289.30806028821962
 21
98.781659961399995
 31
0.0
  0
LINE
  5
1A12
  8
0
 10
348.24533893301958
 20
99.531659961399995
 30
0.0
 11
347.31095276181958
 21
99.531659961399995
 31
0.0
  0
LINE
  5
1A13
  8
0
 10
289.3736767859196
 20
99.531659961399995
 30
0.0
 11
290.30806295701962
 21
99.531659961399995
 31
0.0
  0
LINE
  5
1A14
  8
0
 10
348.24533893301958
 20
101.0316599614
 30
0.0
 11
347.31095276181958
 21
101.0316599614
 31
0.0
  0
LINE
  5
1A15
  8
0
 10
289.3736767859196
 20
101.0316599614
 30
0.0
 11
290.30806162261962
 21
101.0316599614
 31
0.0
  0
LINE
  5
1A16
  8
0
 10
346.56095543061957
 20
77.78165996140001
 30
0.0
 11
347.31095543061957
 21
77.031659961399995
 31
0.0
  0
LINE
  5
1A17
  8
0
 10
348.81095543061957
 20
102.40684646690001
 30
0.0
 11
350.45925086531969
 21
102.46440621189581
 31
0.0
  0
LINE
  5
1A18
  8
0
 10
350.43595543061957
 20
101.5012970385
 30
0.0
 11
350.4854414450196
 21
101.5012970385
 31
0.0
  0
LINE
  5
1A19
  8
0
 10
348.81095543061957
 20
101.7816599614
 30
0.0
 11
348.31095543061957
 21
101.7816599614
 31
0.0
  0
LINE
  5
1A1A
  8
0
 10
288.80806028821962
 20
101.7816599614
 30
0.0
 11
289.30806028821962
 21
101.7816599614
 31
0.0
  0
LINE
  5
1A1B
  8
0
 10
349.48585348581958
 20
102.78184646690001
 30
0.0
 11
349.2620573754196
 21
102.78184646690001
 31
0.0
  0
LINE
  5
1A1C
  8
0
 10
288.35697364031961
 20
102.7835745565
 30
0.0
 11
288.1331473236196
 21
102.7835745565
 31
0.0
  0
LINE
  5
1A1D
  8
0
 10
288.08008673911962
 20
102.9076599614
 30
0.0
 11
288.33741512601961
 21
102.9076599614
 31
0.0
  0
LINE
  5
1A1E
  8
0
 10
349.33108659861961
 20
102.9076599614
 30
0.0
 11
349.58841486541962
 21
102.9076599614
 31
0.0
  0
LINE
  5
1A1F
  8
0
 10
287.18306028821962
 20
102.4654137227576
 30
0.0
 11
288.80806028821962
 21
102.4085745565
 31
0.0
  0
LINE
  5
1A20
  8
0
 10
344.94102831761961
 20
107.2826599614
 30
0.0
 11
292.72747318131951
 21
107.2826599614
 31
0.0
  0
LINE
  5
1A21
  8
0
 10
292.96425086531963
 20
107.56665996140001
 30
0.0
 11
344.70425086531958
 21
107.56665996140001
 31
0.0
  0
LINE
  5
1A22
  8
0
 10
347.18095233451959
 20
108.7816599614
 30
0.0
 11
345.94095858501959
 21
108.7816599614
 31
0.0
  0
LINE
  5
1A23
  8
0
 10
291.67805713381961
 20
108.7816599614
 30
0.0
 11
290.43806338431961
 21
108.7816599614
 31
0.0
  0
LINE
  5
1A24
  8
0
 10
339.08425086531958
 20
110.6566599614
 30
0.0
 11
339.08425086531958
 21
111.6566599614
 31
0.0
  0
LINE
  5
1A25
  8
0
 10
347.3957897990195
 20
109.0326599614
 30
0.0
 11
290.2727119319195
 21
109.0326599614
 31
0.0
  0
LINE
  5
1A26
  8
0
 10
287.5820567985196
 20
110.54865148010001
 30
0.0
 11
350.08644515731959
 21
110.54865147690001
 31
0.0
  0
LINE
  5
1A27
  8
0
 10
287.56354455311958
 20
110.6576599614
 30
0.0
 11
350.10495717761961
 21
110.6576599614
 31
0.0
  0
LINE
  5
1A28
  8
0
 10
348.94588549601963
 20
75.05869208979999
 30
0.0
 11
349.06199251351961
 21
74.857588836399984
 31
0.0
  0
LINE
  5
1A29
  8
0
 10
348.91143637751958
 20
75.482808361599993
 30
0.0
 11
349.2104744848196
 21
74.964859166400004
 31
0.0
  0
LINE
  5
1A2A
  8
0
 10
293.08425086531958
 20
111.6566599614
 30
0.0
 11
298.58425086531958
 21
111.6566599614
 31
0.0
  0
LINE
  5
1A2B
  8
0
 10
309.08425086531958
 20
111.6566599614
 30
0.0
 11
314.58425086531958
 21
111.6566599614
 31
0.0
  0
LINE
  5
1A2C
  8
0
 10
323.08425086531958
 20
111.6566599614
 30
0.0
 11
328.58425086531958
 21
111.6566599614
 31
0.0
  0
LINE
  5
1A2D
  8
0
 10
339.08425086531958
 20
111.6566599614
 30
0.0
 11
344.58425086531958
 21
111.6566599614
 31
0.0
  0
LINE
  5
1A2E
  8
0
 10
348.31095543061957
 20
76.28165996140001
 30
0.0
 11
348.24533893301958
 21
77.031659961399995
 31
0.0
  0
LINE
  5
1A2F
  8
0
 10
344.58425086531958
 20
110.6566599614
 30
0.0
 11
344.58425086531958
 21
111.6566599614
 31
0.0
  0
LINE
  5
1A30
  8
0
 10
344.83425086531958
 20
107.6966921675
 30
0.0
 11
344.83425086531958
 21
108.9366277522
 31
0.0
  0
LINE
  5
1A31
  8
0
 10
345.81095543061957
 20
74.911659961400005
 30
0.0
 11
345.81095543061957
 21
79.28165996140001
 31
0.0
  0
LINE
  5
1A32
  8
0
 10
345.81095809941962
 20
108.6516601739
 30
0.0
 11
345.81095809941962
 21
98.781660014500005
 31
0.0
  0
LINE
  5
1A33
  8
0
 10
347.31095276181958
 20
99.531659961399995
 30
0.0
 11
346.56248324581958
 21
100.28013176
 31
0.0
  0
LINE
  5
1A34
  8
0
 10
347.26452409281961
 20
99.577464275400004
 30
0.0
 11
347.2249515964196
 21
99.618331942000026
 31
0.0
  0
LINE
  5
1A35
  8
0
 10
348.31095543061957
 20
98.781659961399995
 30
0.0
 11
348.24533893301958
 21
99.531659961399995
 31
0.0
  0
LINE
  5
1A36
  8
0
 10
348.82988842361959
 20
102.53258394940001
 30
0.0
 11
348.64502832991963
 21
107.82628441430001
 31
0.0
  0
LINE
  5
1A37
  8
0
 10
347.31095252181962
 20
108.6516607319125
 30
0.0
 11
347.31095276181958
 21
101.0316599614
 31
0.0
  0
LINE
  5
1A38
  8
0
 10
347.31095276181958
 20
99.531659961399995
 30
0.0
 11
347.31095276181958
 21
98.781660014500005
 31
0.0
  0
LINE
  5
1A39
  8
0
 10
347.31095543061957
 20
74.911659961400005
 30
0.0
 11
347.31095543061957
 21
77.031659961399995
 31
0.0
  0
LINE
  5
1A3A
  8
0
 10
347.31095543061957
 20
78.53165996140001
 30
0.0
 11
347.31095543061957
 21
79.28165996140001
 31
0.0
  0
LINE
  5
1A3B
  8
0
 10
347.31095543061957
 20
82.281659309600016
 30
0.0
 11
347.31095543061957
 21
95.781660244199983
 31
0.0
  0
LINE
  5
1A3C
  8
0
 10
348.24533893301958
 20
77.031659961399995
 30
0.0
 11
348.24533893301958
 21
78.53165996140001
 31
0.0
  0
LINE
  5
1A3D
  8
0
 10
348.24533893301958
 20
99.531659961399995
 30
0.0
 11
348.24533893301958
 21
101.0316599614
 31
0.0
  0
LINE
  5
1A3E
  8
0
 10
348.31095543061957
 20
101.7816599614
 30
0.0
 11
348.31095543061957
 21
98.781659961399995
 31
0.0
  0
LINE
  5
1A3F
  8
0
 10
348.31095543061957
 20
79.28165996140001
 30
0.0
 11
348.31095543061957
 21
76.28165996140001
 31
0.0
  0
LINE
  5
1A40
  8
0
 10
348.81095543061957
 20
75.857808361400004
 30
0.0
 11
348.81095543061957
 21
102.40684646690001
 31
0.0
  0
LINE
  5
1A41
  8
0
 10
348.8789390047196
 20
75.546496946800005
 30
0.0
 11
348.8789390047196
 21
75.308539796800005
 31
0.0
  0
LINE
  5
1A42
  8
0
 10
349.12893900491957
 20
74.607741130099996
 30
0.0
 11
349.12893900491957
 21
71.905694063499993
 31
0.0
  0
LINE
  5
1A43
  8
0
 10
349.31095543061957
 20
71.800135435399994
 30
0.0
 11
349.31095543061957
 21
74.589859164300009
 31
0.0
  0
LINE
  5
1A44
  8
0
 10
348.72675092541959
 20
105.5586829682
 30
0.0
 11
348.72575401051961
 21
101.78169500750001
 31
0.0
  0
LINE
  5
1A45
  8
0
 10
349.24680199383948
 20
102.4220665642855
 30
0.0
 11
349.2691747953196
 21
102.84896504770001
 31
0.0
  0
LINE
  5
1A46
  8
0
 10
348.31095543061957
 20
101.7816599614
 30
0.0
 11
348.24533893301958
 21
101.0316599614
 31
0.0
  0
LINE
  5
1A47
  8
0
 10
348.31095543061957
 20
79.28165996140001
 30
0.0
 11
348.24533893301958
 21
78.53165996140001
 31
0.0
  0
LINE
  5
1A48
  8
0
 10
346.56095543061957
 20
77.78165996140001
 30
0.0
 11
347.31095543061957
 21
78.53165996140001
 31
0.0
  0
LINE
  5
1A49
  8
0
 10
349.4858683952196
 20
102.78184646690001
 30
0.0
 11
349.5048223243196
 21
102.43107697799999
 31
0.0
  0
LINE
  5
1A4A
  8
0
 10
349.67201355671961
 20
102.43515966290001
 30
0.0
 11
349.6503300829196
 21
102.84890499070001
 31
0.0
  0
LINE
  5
1A4B
  8
0
 10
350.4854414450196
 20
101.5012970385
 30
0.0
 11
350.45925086531958
 21
102.4644062119
 31
0.0
  0
LINE
  5
1A4C
  8
0
 10
350.35595543061959
 20
70.031846466899992
 30
0.0
 11
350.32595543061888
 21
71.281846466900006
 31
0.0
  0
LINE
  5
1A4D
  8
0
 10
350.45925086541962
 20
102.46440621169999
 30
0.0
 11
350.31992443221958
 21
110.4464122226
 31
0.0
  0
LINE
  5
1A4E
  8
0
 10
350.37007550631961
 20
107.5732591121298
 30
0.0
 11
350.37007550631961
 21
110.0753872535
 31
0.0
  0
LINE
  5
1A4F
  8
0
 10
350.43595543061957
 20
70.031846466899992
 30
0.0
 11
350.43595543061957
 21
102.46359271990001
 31
0.0
  0
LINE
  5
1A50
  8
0
 10
350.45925086531958
 20
71.28765996140001
 30
0.0
 11
350.45925086531958
 21
72.394169814799994
 31
0.0
  0
LINE
  5
1A51
  8
0
 10
350.4854414450196
 20
73.122285349699993
 30
0.0
 11
350.4854414450196
 21
101.5012970385
 31
0.0
  0
LINE
  5
1A52
  8
0
 10
350.4854414450196
 20
101.7144061379847
 30
0.0
 11
350.4854414450196
 21
110.0376728366
 31
0.0
  0
ARC
  5
1B16
  8
0
 10
288.05806028821962
 20
75.859536450899995
 30
0.0
 40
0.75
 50
329.99999999999937
 51
0.0
  0
ARC
  5
1B17
  8
0
 10
287.83831158499902
 20
71.787783150722035
 30
0.0
 40
0.5001520529915752
 50
270.61555159295273
 51
359.98588785789502
  0
ARC
  5
1B18
  8
0
 10
287.80806028821962
 20
71.801863525000002
 30
0.0
 40
0.5
 50
272.0000000000004
 51
0.0
  0
ARC
  5
1B19
  8
0
 10
288.08861500501962
 20
75.362466126599998
 30
0.0
 40
0.4998490868000001
 50
330.00461250250038
 51
348.14081508755987
  0
ARC
  5
1B1A
  8
0
 10
289.05806028821962
 20
74.591587258399997
 30
0.0
 40
0.75
 50
149.9999999999994
 51
180.00000036110001
  0
ARC
  5
1B1B
  8
0
 10
288.84144306481522
 20
74.660745513124454
 30
0.0
 40
0.5029802159004957
 50
150.10023716711851
 51
179.89976152528729
  0
ARC
  5
1B1C
  8
0
 10
289.03941182171963
 20
74.607700883299998
 30
0.0
 40
0.4998490975000001
 50
150.00461320329981
 51
179.99538669610001
  0
ARC
  5
1B1D
  8
0
 10
291.67806028821963
 20
74.911659961400005
 30
0.0
 40
0.13
 50
270.0
 51
0.0
  0
ARC
  5
1B1E
  8
0
 10
290.4380602882195
 20
74.911659961400005
 30
0.0
 40
0.13
 50
180.0
 51
270.0
  0
ARC
  5
1B1F
  8
0
 10
288.80806028821962
 20
79.28165996140001
 30
0.0
 40
3.0
 50
0.0
 51
53.130102354199437
  0
ARC
  5
1B20
  8
0
 10
288.80806028821962
 20
79.28165996140001
 30
0.0
 40
1.5
 50
0.0
 51
90.000012707201222
  0
ARC
  5
1B21
  8
0
 10
289.79558577067439
 20
76.711948512019902
 30
0.0
 40
0.9867288128449793
 50
205.8537681004872
 51
266.14846848536689
  0
ARC
  5
1B22
  8
0
 10
291.05811304868803
 20
82.281686341663203
 30
0.0
 40
0.7500527609555274
 50
180.002064952247
 51
233.1280871956283
  0
ARC
  5
1B23
  8
0
 10
291.05808669947203
 20
95.781639793636529
 30
0.0
 40
0.7500264115312034
 50
126.87058617966331
 51
179.99843774704789
  0
ARC
  5
1B24
  8
0
 10
287.93793852738958
 20
102.5009606109339
 30
0.0
 40
0.0619131721214997
 50
267.92089002514348
 51
357.03287661784111
  0
ARC
  5
1B25
  8
0
 10
288.4806414297754
 20
102.4820460667022
 30
0.0
 40
0.0619999998997155
 50
183.00005295136131
 51
266.58444805068473
  0
ARC
  5
1B26
  8
0
 10
288.08008666856131
 20
102.8456599612954
 30
0.0
 40
0.0620000001045729
 50
89.999934744741381
 51
177.00002617749129
  0
ARC
  5
1B27
  8
0
 10
288.33741506221958
 20
102.8456599614
 30
0.0
 40
0.062
 50
3.0000000000000089
 51
89.99994109199919
  0
ARC
  5
1B28
  8
0
 10
287.57319812539782
 20
110.4328364148799
 30
0.0
 40
0.2250307057439254
 50
92.458681080494273
 51
176.54131891310081
  0
ARC
  5
1B29
  8
0
 10
288.8080204967892
 20
98.781669559135906
 30
0.0
 40
3.0000371226455318
 50
306.870395915149
 51
359.99981771313787
  0
ARC
  5
1B2A
  8
0
 10
288.80806101081032
 20
98.781659579241094
 30
0.0
 40
1.500001946209339
 50
270.25165359704908
 51
0.0000166256447241
  0
ARC
  5
1B2B
  8
0
 10
290.27271193171981
 20
107.7826599613996
 30
0.0
 40
1.250000000000383
 50
89.999999990805804
 51
178.00001579473471
  0
ARC
  5
1B2C
  8
0
 10
292.72747318051961
 20
108.5326599614
 30
0.0
 40
1.25
 50
222.623028735399
 51
270.00000003720021
  0
ARC
  5
1B2D
  8
0
 10
291.09711757481961
 20
108.6576599614
 30
0.0
 40
0.375
 50
19.34216088599953
 51
90.0
  0
ARC
  5
1B2E
  8
0
 10
292.96425086531963
 20
107.6966599614
 30
0.0
 40
0.13
 50
180.0
 51
270.0
  0
ARC
  5
1B2F
  8
0
 10
292.96425086639232
 20
108.9366599606264
 30
0.0
 40
0.1300000012939482
 50
132.27339071131161
 51
180.00334264741639
  0
ARC
  5
1B30
  8
0
 10
291.67805720397052
 20
108.6516595459494
 30
0.0
 40
0.1300004154505642
 50
0.0002774925278899
 51
90.000030918009017
  0
ARC
  5
1B31
  8
0
 10
290.43806201601291
 20
108.6516609024137
 30
0.0
 40
0.1299990589934301
 50
89.999396932537337
 51
180.0000984232976
  0
ARC
  5
1B32
  8
0
 10
288.71368944911961
 20
102.53694625190001
 30
0.0
 40
0.125
 50
268.54111472937558
 51
357.99995723130002
  0
ARC
  5
1B33
  8
0
 10
348.81098186568983
 20
79.281653720926442
 30
0.0
 40
3.000026435076681
 50
126.8702300305815
 51
179.9998808167843
  0
ARC
  5
1B34
  8
0
 10
348.81099529499068
 20
98.781669576355782
 30
0.0
 40
3.0000371955863092
 50
180.00018261572899
 51
233.1296031683643
  0
ARC
  5
1B35
  8
0
 10
348.81095470509638
 20
98.781659577376985
 30
0.0
 40
1.500001943276885
 50
179.99998330315211
 51
270.0000147741689
  0
ARC
  5
1B36
  8
0
 10
348.81095543061957
 20
79.28165996140001
 30
0.0
 40
1.5
 50
90.250811991099965
 51
180.0
  0
ARC
  5
1B37
  8
0
 10
347.87295267541958
 20
76.711917705900007
 30
0.0
 40
0.9866823411
 50
273.84952157490068
 51
334.14691207873369
  0
ARC
  5
1B38
  8
0
 10
346.56092896207559
 20
82.281680172973026
 30
0.0
 40
0.7500264688341122
 50
306.87058882901158
 51
359.99840621195318
  0
ARC
  5
1B39
  8
0
 10
346.56092894642597
 20
95.781639737914361
 30
0.0
 40
0.7500264844738975
 50
0.0015665095099151
 51
53.129411914289932
  0
ARC
  5
1B3A
  8
0
 10
348.56095543061957
 20
74.589859168800004
 30
0.0
 40
0.75
 50
359.9999996519
 51
30.00000000000054
  0
ARC
  5
1B3B
  8
0
 10
348.62909675262449
 20
74.607701784634088
 30
0.0
 40
0.499842253843629
 50
0.004510081179556
 51
29.99548991897451
  0
ARC
  5
1B3C
  8
0
 10
345.94095543061962
 20
74.911659961400005
 30
0.0
 40
0.13
 50
180.0
 51
270.0
  0
ARC
  5
1B3D
  8
0
 10
347.18095543061958
 20
74.911659961400005
 30
0.0
 40
0.13
 50
270.0
 51
0.0
  0
ARC
  5
1B3E
  8
0
 10
349.81095543061957
 20
71.800135435399994
 30
0.0
 40
0.5
 50
180.0
 51
267.9999999999996
  0
ARC
  5
1B3F
  8
0
 10
349.56095543061957
 20
75.857808361300002
 30
0.0
 40
0.75
 50
179.99999998530001
 51
210.00000000000051
  0
ARC
  5
1B40
  8
0
 10
344.94102855021958
 20
108.5326599614
 30
0.0
 40
1.25
 50
269.99998933619958
 51
314.17468553080067
  0
ARC
  5
1B41
  8
0
 10
347.3957897990195
 20
107.7826599614
 30
0.0
 40
1.25
 50
2.0000037616999768
 51
90.0
  0
ARC
  5
1B42
  8
0
 10
346.58024543463023
 20
108.6514136684378
 30
0.0
 40
0.3854417225845508
 50
98.461380175449875
 51
160.2100122239265
  0
ARC
  5
1B43
  8
0
 10
344.70425086249998
 20
107.6966599682073
 30
0.0
 40
0.1300000068072933
 50
270.00000124271122
 51
0.0141914115255914
  0
ARC
  5
1B44
  8
0
 10
344.70425084598941
 20
108.936659947461
 30
0.0
 40
0.1300000233168403
 50
359.9858103671906
 51
47.600524491914349
  0
ARC
  5
1B45
  8
0
 10
345.94095851503943
 20
108.6516595457787
 30
0.0
 40
0.1300004156212821
 50
89.999973245593338
 51
179.99972316474791
  0
ARC
  5
1B46
  8
0
 10
347.18095387269722
 20
108.6516613122854
 30
0.0
 40
0.1299986491236803
 50
359.9997442056931
 51
90.000677938461607
  0
ARC
  5
1B47
  8
0
 10
350.10377620474549
 20
110.44145819467209
 30
0.0
 40
0.2162049921559786
 50
1.3129673383689431
 51
89.687032675626924
  0
ARC
  5
1B48
  8
0
 10
348.95481228161958
 20
102.53694625190001
 30
0.0
 40
0.125
 50
181.9999382622
 51
271.5577909786
  0
ARC
  5
1B49
  8
0
 10
349.58841506221961
 20
102.8456599614
 30
0.0
 40
0.062
 50
3.0000000000000089
 51
90.000181849800214
  0
ARC
  5
1B4A
  8
0
 10
349.73064806311959
 20
102.50100063310001
 30
0.0
 40
0.062
 50
183.0
 51
271.99964978849999
  0
ARC
  5
1B4B
  8
0
 10
349.18786030081958
 20
102.4820460668
 30
0.0
 40
0.062
 50
272.00000000230438
 51
357.0000000020006
  0
ARC
  5
1B4C
  8
0
 10
349.33108666851962
 20
102.8456599614
 30
0.0
 40
0.062
 50
90.000064564401015
 51
177.0
  0
CIRCLE
  5
1BBE
  8
0
 10
318.83422538011962
 20
92.037656976000008
 30
0.0
 40
1.655961515200004
  0
CIRCLE
  5
1BBF
  8
0
 10
318.83422538011962
 20
92.037656976000008
 30
0.0
 40
2.2000029855476031
  0
LINE
  5
1BC0
  8
0
 10
350.4592508653231
 20
72.394169814695232
 30
0.0
 11
350.4854414450196
 21
73.122285349699993
 31
0.0
  0
ARC
  5
1BC1
  8
0
 10
349.81863980437379
 20
110.0211243547125
 30
0.0
 40
0.6670069566509184
 50
1.421657538035064
 51
41.398171252202097
  0
ARC
  5
1BC2
  8
0
 10
349.76280712072878
 20
110.0619153513871
 30
0.0
 40
0.6074178004343888
 50
1.2708656693359099
 51
22.859856096899229
  0
ARC
  5
1BC3
  8
0
 10
287.80759198932662
 20
110.0376931898161
 30
0.0
 40
0.6245317023424301
 50
137.08757461705869
 51
179.99639613411301
  0
ARC
  5
1BC4
  8
0
 10
287.90718817974562
 20
110.06157421764649
 30
0.0
 40
0.6089186929353582
 50
157.1670283698088
 51
178.700156307512
  0
LINE
  5
1BC5
  8
0
 10
295.11883061111962
 20
109.0326599614
 30
0.0
 11
295.83534132229693
 21
108.3177528643906
 31
0.0
  0
LINE
  5
1BC6
  8
0
 10
295.83534132229693
 20
108.3177528643906
 30
0.0
 11
296.5508257089196
 21
109.0326599614
 31
0.0
  0
LINE
  5
1BC7
  8
0
 10
311.11883061111962
 20
109.0326599614
 30
0.0
 11
311.83534132229693
 21
108.3177528643906
 31
0.0
  0
LINE
  5
1BC8
  8
0
 10
311.83534132229693
 20
108.3177528643906
 30
0.0
 11
312.5508257089196
 21
109.0326599614
 31
0.0
  0
LINE
  5
1BC9
  8
0
 10
325.11883061141958
 20
109.0326599614
 30
0.0
 11
325.83534131111708
 21
108.31775285315111
 31
0.0
  0
LINE
  5
1BCA
  8
0
 10
325.83534131111708
 20
108.31775285315111
 30
0.0
 11
326.55082570261959
 21
109.0326599614
 31
0.0
  0
LINE
  5
1BCB
  8
0
 10
341.11883061141958
 20
109.0326599614
 30
0.0
 11
341.83425086531958
 21
108.31665996140001
 31
0.0
  0
LINE
  5
1BCC
  8
0
 10
341.83425086531958
 20
108.31665996140001
 30
0.0
 11
342.55082570261959
 21
109.0326599614
 31
0.0
  0
ARC
  5
1BCD
  8
0
 10
350.08636251778262
 20
110.4236622165069
 30
0.0
 40
0.1249892877125766
 50
1.039036496818796
 51
89.96211757726941
  0
LINE
  5
1BCE
  8
0
 10
350.34942388063013
 20
102.46070201755779
 30
0.0
 11
350.21133125381959
 21
110.425928724
 31
0.0
  0
ARC
  5
1BCF
  8
0
 10
287.58213589586342
 20
110.4236704406398
 30
0.0
 40
0.1249810612891199
 50
90.036260727174167
 51
178.95661630632961
  0
LINE
  5
1BD0
  8
0
 10
287.45717555721222
 20
110.4259462800682
 30
0.0
 11
287.31907779606968
 21
102.46070201862661
 31
0.0
  0
ARC
  5
1BD1
  8
0
 10
304.55215558825091
 20
270.74226954668171
 30
0.0
 40
195.56726240926099
 50
266.26368695570682
 51
268.32385982070713
  0
ARC
  5
1BD2
  8
0
 10
318.33703161427519
 20
501.61767758913498
 30
0.0
 40
426.80492505045191
 50
267.38063943373089
 51
270.06674845283322
  0
ARC
  5
1BD3
  8
0
 10
328.90829724584239
 20
544.75323340121304
 30
0.0
 40
470.60331954078538
 50
265.66072112529088
 51
268.77067178038811
  0
ARC
  5
1BD4
  8
0
 10
333.47705327770342
 20
263.43628586700169
 30
0.0
 40
188.25329106082521
 50
271.63719615159812
 51
273.75657208040491
  0
ARC
  5
1BD5
  8
0
 10
319.34053797068759
 20
500.92961232592779
 30
0.0
 40
426.11687093243057
 50
269.93192448885281
 51
272.62491253688512
  0
ARC
  5
1BD6
  8
0
 10
309.04026513354682
 20
539.66383981364527
 30
0.0
 40
465.50817929369782
 50
271.2028015458626
 51
274.35358783485867
  0
ARC
  5
1BD7
  8
0
 10
288.05412918026678
 20
71.770728476285385
 30
0.0
 40
0.4830809580857009
 50
270.41123933621128
 51
326.2770218453623
  0
ARC
  5
1BD8
  8
0
 10
287.90419548808592
 20
71.827250607337604
 30
0.0
 40
0.6401913022516803
 50
329.52114348734119
 51
7.0382127446648122
  0
ARC
  5
1BD9
  8
0
 10
288.28675487412698
 20
75.309373771881795
 30
0.0
 40
0.5028085434226661
 50
330.09503278189868
 51
359.9049672471354
  0
ARC
  5
1BDA
  8
0
 10
349.6282282889664
 20
71.798109525274569
 30
0.0
 40
0.5107486877410384
 50
167.84008961629129
 51
268.03898583201482
  0
ARC
  5
1BDB
  8
0
 10
349.38174701136347
 20
75.30937381958563
 30
0.0
 40
0.5028087013528135
 50
180.0950381475468
 51
209.90496313851551
  0
LINE
  5
1C17
  8
0
 10
350.35156203231958
 20
70.214904728700006
 30
0.0
 11
350.34942388063013
 21
102.46070201755811
 31
0.0
  0
LINE
  5
1C18
  8
0
 10
287.26745368651962
 20
70.216632818299999
 30
0.0
 11
287.26745368651962
 21
102.4624618148209
 31
0.0
  0
LINE
  5
1C19
  8
0
 10
290.30806295701962
 20
99.531659961399995
 30
0.0
 11
291.05653249111958
 21
100.2801317792
 31
0.0
  0
LINE
  5
1C1A
  8
0
 10
291.05653249111958
 20
100.2801317792
 30
0.0
 11
290.30806295701962
 21
101.0316599614
 31
0.0
  0
LINE
  5
1C1F
  8
0
 10
346.56248324581958
 20
100.28013176
 30
0.0
 11
347.31095276181958
 21
101.0316599614
 31
0.0
  0
ATTDEF
  5
1E51
  8
DEFPOINTS
 10
318.83132462697978
 20
110.6584761201073
 30
0.0
 40
0.001
  1
VIKRELL
  3

  2
MATERIAL
 70
     0
1001
AcDbAttr
1070
     0
1070
     1
  0
ATTDEF
  5
1E52
  8
DEFPOINTS
 10
318.83132462697978
 20
110.660142786774
 30
0.0
 40
0.001
  1
SHOWER STALL
  3

  2
PRODUCT
 70
     0
1001
AcDbAttr
1070
     0
1070
     1
  0
ATTDEF
  5
1E53
  8
DEFPOINTS
 10
318.83132462697978
 20
110.6618094534407
 30
0.0
 40
0.001
  1
OC-S-63
  3

  2
TRADENAME
 70
     0
1001
AcDbAttr
1070
     0
1070
     1
  0
ATTDEF
  5
1E54
  8
DEFPOINTS
 10
318.83132462697978
 20
110.6634761201074
 30
0.0
 40
0.001
  1
62060103
  3

  2
MODELNUMBER
 70
     0
1001
AcDbAttr
1070
     0
1070
     1
  0
ENDSEC
  0
EOF
